  0
SECTION
  2
HEADER
  9
$ACADVER
  1
AC1015
  9
$ACADMAINTVER
 70
     6
  9
$DWGCODEPAGE
  3
ANSI_932
  9
$INSBASE
 10
728.3137332954057
 20
438.8325797280049
 30
0.0
  9
$EXTMIN
 10
115.3847468415152
 20
27.2968952321097
 30
0.0
  9
$EXTMAX
 10
567.7166147107193
 20
510.9239242893573
 30
0.0
  9
$LIMMIN
 10
0.0
 20
0.0
  9
$LIMMAX
 10
816.5000000000001
 20
565.0
  9
$ORTHOMODE
 70
     1
  9
$REGENMODE
 70
     1
  9
$FILLMODE
 70
     1
  9
$QTEXTMODE
 70
     0
  9
$MIRRTEXT
 70
     1
  9
$LTSCALE
 40
5.0
  9
$ATTMODE
 70
     1
  9
$TEXTSIZE
 40
6.0
  9
$TRACEWID
 40
0.05
  9
$TEXTSTYLE
  7
KANJI
  9
$CLAYER
  8
2
  9
$CELTYPE
  6
BYLAYER
  9
$CECOLOR
 62
   256
  9
$CELTSCALE
 40
1.0
  9
$DISPSILH
 70
     0
  9
$DIMSCALE
 40
1.5
  9
$DIMASZ
 40
2.0
  9
$DIMEXO
 40
0.5
  9
$DIMDLI
 40
0.0
  9
$DIMRND
 40
0.0
  9
$DIMDLE
 40
0.0
  9
$DIMEXE
 40
1.0
  9
$DIMTP
 40
0.0
  9
$DIMTM
 40
0.0
  9
$DIMTXT
 40
3.0
  9
$DIMCEN
 40
0.09
  9
$DIMTSZ
 40
0.0
  9
$DIMTOL
 70
     0
  9
$DIMLIM
 70
     0
  9
$DIMTIH
 70
     0
  9
$DIMTOH
 70
     0
  9
$DIMSE1
 70
     0
  9
$DIMSE2
 70
     0
  9
$DIMTAD
 70
     1
  9
$DIMZIN
 70
     8
  9
$DIMBLK
  1

  9
$DIMASO
 70
     0
  9
$DIMSHO
 70
     0
  9
$DIMPOST
  1

  9
$DIMAPOST
  1

  9
$DIMALT
 70
     0
  9
$DIMALTD
 70
     2
  9
$DIMALTF
 40
25.4
  9
$DIMLFAC
 40
1.0
  9
$DIMTOFL
 70
     1
  9
$DIMTVP
 40
1.0
  9
$DIMTIX
 70
     1
  9
$DIMSOXD
 70
     1
  9
$DIMSAH
 70
     0
  9
$DIMBLK1
  1

  9
$DIMBLK2
  1

  9
$DIMSTYLE
  2
STANDARD
  9
$DIMCLRD
 70
   256
  9
$DIMCLRE
 70
   256
  9
$DIMCLRT
 70
     2
  9
$DIMTFAC
 40
1.0
  9
$DIMGAP
 40
1.0
  9
$DIMJUST
 70
     0
  9
$DIMSD1
 70
     0
  9
$DIMSD2
 70
     0
  9
$DIMTOLJ
 70
     1
  9
$DIMTZIN
 70
     0
  9
$DIMALTZ
 70
     0
  9
$DIMALTTZ
 70
     0
  9
$DIMUPT
 70
     0
  9
$DIMDEC
 70
     1
  9
$DIMTDEC
 70
     4
  9
$DIMALTU
 70
     2
  9
$DIMALTTD
 70
     2
  9
$DIMTXSTY
  7
STANDARD
  9
$DIMAUNIT
 70
     0
  9
$DIMADEC
 70
     0
  9
$DIMALTRND
 40
0.0
  9
$DIMAZIN
 70
     0
  9
$DIMDSEP
 70
    46
  9
$DIMATFIT
 70
     3
  9
$DIMFRAC
 70
     0
  9
$DIMLDRBLK
  1

  9
$DIMLUNIT
 70
     2
  9
$DIMLWD
 70
    -2
  9
$DIMLWE
 70
    -2
  9
$DIMTMOVE
 70
     0
  9
$LUNITS
 70
     2
  9
$LUPREC
 70
     3
  9
$SKETCHINC
 40
0.1
  9
$FILLETRAD
 40
1.0
  9
$AUNITS
 70
     0
  9
$AUPREC
 70
     3
  9
$MENU
  1
C:\R13\WIN\SUPPORT\ACADFULL
  9
$ELEVATION
 40
0.0
  9
$PELEVATION
 40
0.0
  9
$THICKNESS
 40
0.0
  9
$LIMCHECK
 70
     0
  9
$CHAMFERA
 40
0.0
  9
$CHAMFERB
 40
0.0
  9
$CHAMFERC
 40
0.0
  9
$CHAMFERD
 40
0.0
  9
$SKPOLY
 70
     0
  9
$TDCREATE
 40
2457458.688303623
  9
$TDUCREATE
 40
2457458.313303623
  9
$TDUPDATE
 40
2457870.580919676
  9
$TDUUPDATE
 40
2457870.205919676
  9
$TDINDWG
 40
0.0124806019
  9
$TDUSRTIMER
 40
0.0124800231
  9
$USRTIMER
 70
     1
  9
$ANGBASE
 50
0.0
  9
$ANGDIR
 70
     0
  9
$PDMODE
 70
     0
  9
$PDSIZE
 40
0.0
  9
$PLINEWID
 40
0.0
  9
$SPLFRAME
 70
     0
  9
$SPLINETYPE
 70
     6
  9
$SPLINESEGS
 70
     8
  9
$HANDSEED
  5
516
  9
$SURFTAB1
 70
     6
  9
$SURFTAB2
 70
     6
  9
$SURFTYPE
 70
     6
  9
$SURFU
 70
     6
  9
$SURFV
 70
     6
  9
$UCSBASE
  2

  9
$UCSNAME
  2

  9
$UCSORG
 10
0.0
 20
0.0
 30
0.0
  9
$UCSXDIR
 10
1.0
 20
0.0
 30
0.0
  9
$UCSYDIR
 10
0.0
 20
1.0
 30
0.0
  9
$UCSORTHOREF
  2

  9
$UCSORTHOVIEW
 70
     0
  9
$UCSORGTOP
 10
0.0
 20
0.0
 30
0.0
  9
$UCSORGBOTTOM
 10
0.0
 20
0.0
 30
0.0
  9
$UCSORGLEFT
 10
0.0
 20
0.0
 30
0.0
  9
$UCSORGRIGHT
 10
0.0
 20
0.0
 30
0.0
  9
$UCSORGFRONT
 10
0.0
 20
0.0
 30
0.0
  9
$UCSORGBACK
 10
0.0
 20
0.0
 30
0.0
  9
$PUCSBASE
  2

  9
$PUCSNAME
  2

  9
$PUCSORG
 10
0.0
 20
0.0
 30
0.0
  9
$PUCSXDIR
 10
1.0
 20
0.0
 30
0.0
  9
$PUCSYDIR
 10
0.0
 20
1.0
 30
0.0
  9
$PUCSORTHOREF
  2

  9
$PUCSORTHOVIEW
 70
     0
  9
$PUCSORGTOP
 10
0.0
 20
0.0
 30
0.0
  9
$PUCSORGBOTTOM
 10
0.0
 20
0.0
 30
0.0
  9
$PUCSORGLEFT
 10
0.0
 20
0.0
 30
0.0
  9
$PUCSORGRIGHT
 10
0.0
 20
0.0
 30
0.0
  9
$PUCSORGFRONT
 10
0.0
 20
0.0
 30
0.0
  9
$PUCSORGBACK
 10
0.0
 20
0.0
 30
0.0
  9
$USERI1
 70
     0
  9
$USERI2
 70
     0
  9
$USERI3
 70
     0
  9
$USERI4
 70
     0
  9
$USERI5
 70
     0
  9
$USERR1
 40
0.0
  9
$USERR2
 40
0.0
  9
$USERR3
 40
0.0
  9
$USERR4
 40
2448925.372986111
  9
$USERR5
 40
0.04166667
  9
$WORLDVIEW
 70
     1
  9
$SHADEDGE
 70
     3
  9
$SHADEDIF
 70
    70
  9
$TILEMODE
 70
     1
  9
$MAXACTVP
 70
    16
  9
$PINSBASE
 10
0.0
 20
0.0
 30
0.0
  9
$PLIMCHECK
 70
     0
  9
$PEXTMIN
 10
1.000000000000000E+20
 20
1.000000000000000E+20
 30
1.000000000000000E+20
  9
$PEXTMAX
 10
-1.000000000000000E+20
 20
-1.000000000000000E+20
 30
-1.000000000000000E+20
  9
$PLIMMIN
 10
0.0
 20
0.0
  9
$PLIMMAX
 10
12.0
 20
9.0
  9
$UNITMODE
 70
     0
  9
$VISRETAIN
 70
     0
  9
$PLINEGEN
 70
     0
  9
$PSLTSCALE
 70
     0
  9
$TREEDEPTH
 70
  3020
  9
$CMLSTYLE
  2
STANDARD
  9
$CMLJUST
 70
     0
  9
$CMLSCALE
 40
1.0
  9
$PROXYGRAPHICS
 70
     1
  9
$MEASUREMENT
 70
     0
  9
$CELWEIGHT
370
    -1
  9
$ENDCAPS
280
     0
  9
$JOINSTYLE
280
     0
  9
$LWDISPLAY
290
     0
  9
$INSUNITS
 70
     0
  9
$HYPERLINKBASE
  1

  9
$STYLESHEET
  1
monochrome.ctb
  9
$XEDIT
290
     1
  9
$CEPSNTYPE
380
     0
  9
$PSTYLEMODE
290
     1
  9
$FINGERPRINTGUID
  2
{1B46423D-85B6-4F89-A8A3-5717FA9E8121}
  9
$VERSIONGUID
  2
{06886D40-B89A-4A9A-9776-3E055645395C}
  9
$EXTNAMES
290
     1
  9
$PSVPSCALE
 40
0.0
  9
$OLESTARTUP
290
     0
  0
ENDSEC
  0
SECTION
  2
CLASSES
  0
CLASS
  1
LWPOLYLINE
  2
AcDbPolyline
  3
AutoCAD 2000
 90
        0
280
     0
281
     1
  0
CLASS
  1
ACDBDICTIONARYWDFLT
  2
AcDbDictionaryWithDefault
  3
ObjectDBX Classes
 90
        0
280
     0
281
     0
  0
CLASS
  1
ACDBPLACEHOLDER
  2
AcDbPlaceHolder
  3
ObjectDBX Classes
 90
        0
280
     0
281
     0
  0
CLASS
  1
LAYOUT
  2
AcDbLayout
  3
ObjectDBX Classes
 90
        0
280
     0
281
     0
  0
CLASS
  1
DICTIONARYVAR
  2
AcDbDictionaryVar
  3
ObjectDBX Classes
 90
        0
280
     0
281
     0
  0
CLASS
  1
DUMMY
  2
AcDbLongTransaction
  3
DUMMY
 90
        0
280
     0
281
     0
  0
CLASS
  1
LWPOLYLINE
  2
AcDbPolyline
  3
AutoCAD 2000
 90
        0
280
     0
281
     1
  0
CLASS
  1
HATCH
  2
AcDbHatch
  3
AutoCAD 2000
 90
        0
280
     0
281
     1
  0
CLASS
  1
XRECORD
  2
AcDbXrecord
  3
AutoCAD 2000
 90
        0
280
     0
281
     0
  0
CLASS
  1
DUMMY
  2
AcDbLongTransaction
  3
DUMMY
 90
        0
280
     0
281
     0
  0
CLASS
  1
LWPOLYLINE
  2
AcDbPolyline
  3
AutoCAD 2000
 90
        0
280
     0
281
     1
  0
CLASS
  1
HATCH
  2
AcDbHatch
  3
AutoCAD 2000
 90
        0
280
     0
281
     1
  0
CLASS
  1
XRECORD
  2
AcDbXrecord
  3
AutoCAD 2000
 90
        0
280
     0
281
     0
  0
CLASS
  1
MATERIAL
  2
AcDbMaterial
  3
ObjectDBX Classes
 90
     1153
280
     0
281
     0
  0
CLASS
  1
VISUALSTYLE
  2
AcDbVisualStyle
  3
ObjectDBX Classes
 90
     4095
280
     0
281
     0
  0
CLASS
  1
TABLESTYLE
  2
AcDbTableStyle
  3
ObjectDBX Classes
 90
     4095
280
     0
281
     0
  0
CLASS
  1
SCALE
  2
AcDbScale
  3
ObjectDBX Classes
 90
     1153
280
     0
281
     0
  0
CLASS
  1
MLEADERSTYLE
  2
AcDbMLeaderStyle
  3
ACDB_MLEADERSTYLE_CLASS
 90
     4095
280
     0
281
     0
  0
CLASS
  1
SORTENTSTABLE
  2
AcDbSortentsTable
  3
ObjectDBX Classes
 90
        0
280
     0
281
     0
  0
CLASS
  1
CELLSTYLEMAP
  2
AcDbCellStyleMap
  3
ObjectDBX Classes
 90
     1152
280
     0
281
     0
  0
CLASS
  1
DUMMY
  2
AcDbLongTransaction
  3
DUMMY
 90
        0
280
     0
281
     0
  0
CLASS
  1
LWPOLYLINE
  2
AcDbPolyline
  3
AutoCAD 2000
 90
        0
280
     0
281
     1
  0
CLASS
  1
HATCH
  2
AcDbHatch
  3
AutoCAD 2000
 90
        0
280
     0
281
     1
  0
CLASS
  1
XRECORD
  2
AcDbXrecord
  3
AutoCAD 2000
 90
        0
280
     0
281
     0
  0
CLASS
  1
DUMMY
  2
AcDbLongTransaction
  3
DUMMY
 90
        0
280
     0
281
     0
  0
CLASS
  1
LWPOLYLINE
  2
AcDbPolyline
  3
AutoCAD 2000
 90
        0
280
     0
281
     1
  0
CLASS
  1
HATCH
  2
AcDbHatch
  3
AutoCAD 2000
 90
        0
280
     0
281
     1
  0
CLASS
  1
XRECORD
  2
AcDbXrecord
  3
AutoCAD 2000
 90
        0
280
     0
281
     0
  0
CLASS
  1
DUMMY
  2
AcDbLongTransaction
  3
DUMMY
 90
        0
280
     0
281
     0
  0
CLASS
  1
LWPOLYLINE
  2
AcDbPolyline
  3
AutoCAD 2000
 90
        0
280
     0
281
     1
  0
CLASS
  1
HATCH
  2
AcDbHatch
  3
AutoCAD 2000
 90
        0
280
     0
281
     1
  0
CLASS
  1
XRECORD
  2
AcDbXrecord
  3
AutoCAD 2000
 90
        0
280
     0
281
     0
  0
CLASS
  1
DUMMY
  2
AcDbLongTransaction
  3
DUMMY
 90
        0
280
     0
281
     0
  0
CLASS
  1
LWPOLYLINE
  2
AcDbPolyline
  3
AutoCAD 2000
 90
        0
280
     0
281
     1
  0
CLASS
  1
HATCH
  2
AcDbHatch
  3
AutoCAD 2000
 90
        0
280
     0
281
     1
  0
CLASS
  1
XRECORD
  2
AcDbXrecord
  3
AutoCAD 2000
 90
        0
280
     0
281
     0
  0
CLASS
  1
DUMMY
  2
AcDbLongTransaction
  3
DUMMY
 90
        0
280
     0
281
     0
  0
CLASS
  1
LWPOLYLINE
  2
AcDbPolyline
  3
AutoCAD 2000
 90
        0
280
     0
281
     1
  0
CLASS
  1
HATCH
  2
AcDbHatch
  3
AutoCAD 2000
 90
        0
280
     0
281
     1
  0
CLASS
  1
XRECORD
  2
AcDbXrecord
  3
AutoCAD 2000
 90
        0
280
     0
281
     0
  0
CLASS
  1
ACDBSECTIONVIEWSTYLE
  2
AcDbSectionViewStyle
  3
ObjectDBX Classes
 90
     1025
280
     0
281
     0
  0
CLASS
  1
ACDBDETAILVIEWSTYLE
  2
AcDbDetailViewStyle
  3
ObjectDBX Classes
 90
     1025
280
     0
281
     0
  0
ENDSEC
  0
SECTION
  2
TABLES
  0
TABLE
  2
VPORT
  5
2C
102
{ACAD_XDICTIONARY
360
31
102
}
330
0
100
AcDbSymbolTable
 70
     1
  0
VPORT
  5
2D
330
2C
100
AcDbSymbolTableRecord
100
AcDbViewportTableRecord
  2
*Active
 70
     0
 10
0.0
 20
0.0
 11
1.0
 21
1.0
 12
613.6636174544648
 22
258.6154658140586
 13
0.0
 23
0.0
 14
1.0
 24
1.0
 15
50.0
 25
50.0
 16
0.0
 26
0.0
 36
1.0
 17
0.0
 27
0.0
 37
0.0
 40
772.8458455381767
 41
2.171641791044776
 42
50.0
 43
0.0
 44
0.0
 50
0.0
 51
0.0
 71
     0
 72
  5000
 73
     1
 74
     0
 75
     0
 76
     0
 77
     0
 78
     0
281
     0
 65
     1
110
0.0
120
0.0
130
0.0
111
1.0
121
0.0
131
0.0
112
0.0
122
1.0
132
0.0
 79
     0
146
0.0
1001
ACAD_NAV_VCDISPLAY
1070
     3
  0
ENDTAB
  0
TABLE
  2
LTYPE
  5
27
330
0
100
AcDbSymbolTable
 70
     2
  0
LTYPE
  5
28
330
27
100
AcDbSymbolTableRecord
100
AcDbLinetypeTableRecord
  2
BYBLOCK
 70
     0
  3

 72
    65
 73
     0
 40
0.0
  0
LTYPE
  5
29
330
27
100
AcDbSymbolTableRecord
100
AcDbLinetypeTableRecord
  2
BYLAYER
 70
     0
  3

 72
    65
 73
     0
 40
0.0
  0
LTYPE
  5
16
330
27
100
AcDbSymbolTableRecord
100
AcDbLinetypeTableRecord
  2
CONTINUOUS
 70
     0
  3
Solid line
 72
    65
 73
     0
 40
0.0
  0
LTYPE
  5
72
330
27
100
AcDbSymbolTableRecord
100
AcDbLinetypeTableRecord
  2
CENTER
 70
     0
  3
____ _ ____ _ ____ _ ____ _ ____ _ ____ _ ____
 72
    65
 73
     4
 40
2.0
 49
1.25
 74
     0
 49
-0.25
 74
     0
 49
0.25
 74
     0
 49
-0.25
 74
     0
  0
ENDTAB
  0
TABLE
  2
LAYER
  5
21
102
{ACAD_XDICTIONARY
360
22
102
}
330
0
100
AcDbSymbolTable
 70
     8
  0
LAYER
  5
7
102
{ACAD_XDICTIONARY
360
8
102
}
330
21
100
AcDbSymbolTableRecord
100
AcDbLayerTableRecord
  2
0
 70
     0
 62
     7
  6
CONTINUOUS
370
    -3
390
A
  0
LAYER
  5
312
102
{ACAD_XDICTIONARY
360
313
102
}
330
21
100
AcDbSymbolTableRecord
100
AcDbLayerTableRecord
  2
1
 70
     0
 62
     9
  6
CONTINUOUS
370
    -3
390
A
  0
LAYER
  5
4E
102
{ACAD_XDICTIONARY
360
4F
102
}
330
21
100
AcDbSymbolTableRecord
100
AcDbLayerTableRecord
  2
2
 70
     0
 62
     4
  6
CONTINUOUS
370
    -3
390
A
  0
LAYER
  5
68
102
{ACAD_XDICTIONARY
360
69
102
}
330
21
100
AcDbSymbolTableRecord
100
AcDbLayerTableRecord
  2
4
 70
     0
 62
     3
  6
CONTINUOUS
370
    -3
390
A
  0
LAYER
  5
6F
102
{ACAD_XDICTIONARY
360
70
102
}
330
21
100
AcDbSymbolTableRecord
100
AcDbLayerTableRecord
  2
L-CENTER
 70
     0
 62
     1
  6
CENTER
370
    -3
390
A
  0
LAYER
  5
30A
102
{ACAD_XDICTIONARY
360
30B
102
}
330
21
100
AcDbSymbolTableRecord
100
AcDbLayerTableRecord
  2
5
 70
     0
 62
     6
  6
CONTINUOUS
370
    -3
390
A
  0
LAYER
  5
243
330
21
100
AcDbSymbolTableRecord
100
AcDbLayerTableRecord
  2
3
 70
     0
 62
     2
  6
CONTINUOUS
370
    -3
390
A
  0
LAYER
  5
4BB
330
21
100
AcDbSymbolTableRecord
100
AcDbLayerTableRecord
  2
Defpoints
 70
     0
 62
     7
  6
CONTINUOUS
290
     0
370
    -3
390
A
  0
ENDTAB
  0
TABLE
  2
STYLE
  5
24
330
0
100
AcDbSymbolTable
 70
     2
  0
STYLE
  5
25
330
24
100
AcDbSymbolTableRecord
100
AcDbTextStyleTableRecord
  2
STANDARD
 70
     0
 40
0.0
 41
1.0
 50
0.0
 71
     0
 42
2.7
  3
TXT
  4

  0
STYLE
  5
51
330
24
100
AcDbSymbolTableRecord
100
AcDbTextStyleTableRecord
  2
KANJI
 70
     0
 40
0.0
 41
1.0
 50
0.0
 71
     0
 42
6.0
  3
TXT
  4
BIGFONT
  0
ENDTAB
  0
TABLE
  2
VIEW
  5
2A
330
0
100
AcDbSymbolTable
 70
     0
  0
ENDTAB
  0
TABLE
  2
UCS
  5
2B
330
0
100
AcDbSymbolTable
 70
     0
  0
ENDTAB
  0
TABLE
  2
APPID
  5
32
330
0
100
AcDbSymbolTable
 70
     5
  0
APPID
  5
33
330
32
100
AcDbSymbolTableRecord
100
AcDbRegAppTableRecord
  2
ACAD
 70
     0
  0
APPID
  5
1A
330
32
100
AcDbSymbolTableRecord
100
AcDbRegAppTableRecord
  2
ACAD_PSEXT
 70
     0
  0
APPID
  5
30
330
32
100
AcDbSymbolTableRecord
100
AcDbRegAppTableRecord
  2
ACAD_NAV_VCDISPLAY
 70
     0
  0
APPID
  5
437
330
32
100
AcDbSymbolTableRecord
100
AcDbRegAppTableRecord
  2
ACAD_EXEMPT_FROM_CAD_STANDARDS
 70
     0
  0
APPID
  5
471
330
32
100
AcDbSymbolTableRecord
100
AcDbRegAppTableRecord
  2
ACAD_MLEADERVER
 70
     0
  0
ENDTAB
  0
TABLE
  2
DIMSTYLE
  5
34
330
0
100
AcDbSymbolTable
 70
     1
100
AcDbDimStyleTable
  0
DIMSTYLE
105
35
330
34
100
AcDbSymbolTableRecord
100
AcDbDimStyleTableRecord
  2
STANDARD
 70
     0
178
     0
340
25
  0
ENDTAB
  0
TABLE
  2
BLOCK_RECORD
  5
1
330
0
100
AcDbSymbolTable
 70
     0
  0
BLOCK_RECORD
  5
2
102
{ACAD_XDICTIONARY
360
3
102
}
330
1
100
AcDbSymbolTableRecord
100
AcDbBlockTableRecord
  2
*MODEL_SPACE
340
18
  0
BLOCK_RECORD
  5
1B
330
1
100
AcDbSymbolTableRecord
100
AcDbBlockTableRecord
  2
*PAPER_SPACE
340
20
  0
ENDTAB
  0
ENDSEC
  0
SECTION
  2
BLOCKS
  0
BLOCK
  5
6
330
2
100
AcDbEntity
  8
0
100
AcDbBlockBegin
  2
*MODEL_SPACE
 70
     0
 10
0.0
 20
0.0
 30
0.0
  3
*MODEL_SPACE
  1

  0
ENDBLK
  5
17
330
2
100
AcDbEntity
  8
0
100
AcDbBlockEnd
  0
BLOCK
  5
1E
330
1B
100
AcDbEntity
 67
     1
  8
0
100
AcDbBlockBegin
  2
*PAPER_SPACE
 70
     0
 10
0.0
 20
0.0
 30
0.0
  3
*PAPER_SPACE
  1

  0
ENDBLK
  5
1F
330
1B
100
AcDbEntity
 67
     1
  8
0
100
AcDbBlockEnd
  0
ENDSEC
  0
SECTION
  2
ENTITIES
  0
ARC
  5
67
330
2
100
AcDbEntity
  8
4
100
AcDbCircle
 10
61.35044634151527
 20
152.1838559728407
 30
0.0
 40
150.0
100
AcDbArc
 50
351.274950690954
 51
8.725049309045897
  0
ARC
  5
6B
330
2
100
AcDbEntity
  8
4
100
AcDbCircle
 10
60.35044634151527
 20
152.1838559728407
 30
0.0
 40
150.0
100
AcDbArc
 50
351.6175694223648
 51
8.382430577635242
  0
ARC
  5
6C
330
2
100
AcDbEntity
  8
4
100
AcDbCircle
 10
308.3504463415152
 20
152.1838559728418
 30
0.0
 40
150.0
100
AcDbArc
 50
171.6175694223653
 51
188.3824305776356
  0
ARC
  5
6D
330
2
100
AcDbEntity
  8
4
100
AcDbCircle
 10
307.3504463415152
 20
152.1838559728418
 30
0.0
 40
150.0
100
AcDbArc
 50
171.2749506909545
 51
188.7250493090463
  0
LINE
  5
6E
330
2
100
AcDbEntity
  8
L-CENTER
 48
2.0
100
AcDbLine
 10
184.3504463415153
 20
222.5549540913509
 30
0.0
 11
184.3504463415153
 21
37.90646697284035
 31
0.0
  0
ARC
  5
73
330
2
100
AcDbEntity
  8
4
100
AcDbCircle
 10
304.3506143415153
 20
152.1838559728403
 30
0.0
 40
179.999988
100
AcDbArc
 50
163.6467099999993
 51
196.3538390000013
  0
ARC
  5
74
330
2
100
AcDbEntity
  8
4
100
AcDbCircle
 10
64.35044634151527
 20
152.1838559728403
 30
0.0
 40
180.000003
100
AcDbArc
 50
343.6471990000016
 51
16.35401599999969
  0
ARC
  5
75
330
2
100
AcDbEntity
  8
4
100
AcDbCircle
 10
184.3504463415153
 20
152.1838559728403
 30
0.0
 40
46.9999995
100
AcDbArc
 50
292.0378350000023
 51
247.9621649999977
  0
ARC
  5
76
330
2
100
AcDbEntity
  8
4
100
AcDbCircle
 10
184.3504463415153
 20
152.1838559728403
 30
0.0
 40
57.999999
100
AcDbArc
 50
284.6549630000009
 51
255.3461260000037
  0
LINE
  5
7A
330
2
100
AcDbEntity
  8
L-CENTER
 48
2.0
100
AcDbLine
 10
297.4984193415153
 20
99.18402447284029
 30
0.0
 11
115.3847468415152
 21
99.18402447284029
 31
0.0
  0
LINE
  5
7B
330
2
100
AcDbEntity
  8
L-CENTER
 48
2.0
100
AcDbLine
 10
247.9103528415151
 20
152.1838559728403
 30
0.0
 11
120.7905398415154
 21
152.1838559728403
 31
0.0
  0
LINE
  5
7C
330
2
100
AcDbEntity
  8
4
100
AcDbLine
 10
211.3504463415153
 20
44.18402397284035
 30
0.0
 11
184.3504463415153
 21
44.18402397284035
 31
0.0
  0
ARC
  5
7D
330
2
100
AcDbEntity
  8
4
100
AcDbCircle
 10
184.3504463415153
 20
99.18402447284029
 30
0.0
 40
20.000007
100
AcDbArc
 50
355.8074439999995
 51
184.1936970000002
  0
ARC
  5
7E
330
2
100
AcDbEntity
  8
4
100
AcDbCircle
 10
184.3504463415153
 20
99.18402447284029
 30
0.0
 40
15.0
100
AcDbArc
 50
191.9793400000014
 51
348.0206599999984
  0
ARC
  5
7F
330
2
100
AcDbEntity
  8
4
100
AcDbCircle
 10
184.3504463415153
 20
276.1838559728408
 30
0.0
 40
150.0
100
AcDbArc
 50
261.6175694223708
 51
278.3824305776292
  0
ARC
  5
80
330
2
100
AcDbEntity
  8
4
100
AcDbCircle
 10
184.3504463415153
 20
275.1838559728408
 30
0.0
 40
150.0
100
AcDbArc
 50
261.2749506909566
 51
278.7250493090434
  0
LINE
  5
81
330
2
100
AcDbEntity
  8
4
100
AcDbLine
 10
194.3504468415154
 20
88.0036814728403
 30
0.0
 11
194.3504468415154
 21
59.18402397284035
 31
0.0
  0
ARC
  5
82
330
2
100
AcDbEntity
  8
4
100
AcDbCircle
 10
824.3503688415153
 20
152.1836114728403
 30
0.0
 40
699.9999975000001
100
AcDbArc
 50
180.0004000000148
 51
187.498248
  0
LINE
  5
83
330
2
100
AcDbEntity
  8
4
100
AcDbLine
 10
174.3504458415153
 20
88.0036814728403
 30
0.0
 11
174.3504458415153
 21
59.18402397284035
 31
0.0
  0
LINE
  5
84
330
2
100
AcDbEntity
  8
4
100
AcDbLine
 10
174.3506138415154
 20
88.0036814728403
 30
0.0
 11
174.3506138415154
 21
59.18402397284035
 31
0.0
  0
CIRCLE
  5
85
330
2
100
AcDbEntity
  8
4
100
AcDbCircle
 10
184.3504463415153
 20
59.18402397284035
 30
0.0
 40
10.0000005
  0
LINE
  5
86
330
2
100
AcDbEntity
  8
4
100
AcDbLine
 10
153.3506138415154
 20
55.18402347284029
 30
0.0
 11
123.8506148415152
 21
55.18402347284029
 31
0.0
  0
LINE
  5
87
330
2
100
AcDbEntity
  8
4
100
AcDbLine
 10
154.3506143415153
 20
39.18402447284029
 30
0.0
 11
122.8506143415153
 21
39.18402447284029
 31
0.0
  0
LINE
  5
88
330
2
100
AcDbEntity
  8
4
100
AcDbLine
 10
122.8506143415153
 20
39.18402447284029
 30
0.0
 11
122.8506143415153
 21
54.18402447284029
 31
0.0
  0
ARC
  5
89
330
2
100
AcDbEntity
  8
4
100
AcDbCircle
 10
125.3789303415152
 20
60.18402447284029
 30
0.0
 40
4.9999995
100
AcDbArc
 50
270.0
 51
7.498247999999911
  0
ARC
  5
8A
330
2
100
AcDbEntity
  8
4
100
AcDbCircle
 10
123.8506148415152
 20
54.18402447284029
 30
0.0
 40
1.0000005
100
AcDbArc
 50
90.0
 51
180.0
  0
LINE
  5
8B
330
2
100
AcDbEntity
  8
4
100
AcDbLine
 10
157.3506143415153
 20
44.18402397284035
 30
0.0
 11
184.3506143415153
 21
44.18402397284035
 31
0.0
  0
LINE
  5
8C
330
2
100
AcDbEntity
  8
L-CENTER
 48
2.0
100
AcDbLine
 10
134.3506148415152
 20
60.88833607443917
 30
0.0
 11
134.3506148415152
 21
34.10541007443933
 31
0.0
  0
LINE
  5
8D
330
2
100
AcDbEntity
  8
4
100
AcDbLine
 10
154.3506143415153
 20
54.18402447284029
 30
0.0
 11
154.3506143415153
 21
39.18402447284029
 31
0.0
  0
ARC
  5
8E
330
2
100
AcDbEntity
  8
4
100
AcDbCircle
 10
157.3506143415153
 20
41.18402397284035
 30
0.0
 40
3.0
100
AcDbArc
 50
90.0
 51
180.0002860014283
  0
ARC
  5
8F
330
2
100
AcDbEntity
  8
4
100
AcDbCircle
 10
153.3506138415154
 20
54.18402447284029
 30
0.0
 40
1.0000005
100
AcDbArc
 50
0.0
 51
90.0
  0
LINE
  5
90
330
2
100
AcDbEntity
  8
2
100
AcDbLine
 10
184.3504463415153
 20
62.77930797284034
 30
0.0
 11
181.2368258415152
 21
60.98165847284031
 31
0.0
  0
CIRCLE
  5
91
330
2
100
AcDbEntity
  8
2
100
AcDbCircle
 10
184.3504463415153
 20
59.18400897284027
 30
0.0
 40
4.7500005
  0
LINE
  5
92
330
2
100
AcDbEntity
  8
2
100
AcDbLine
 10
181.2368258415152
 20
57.38635947284035
 30
0.0
 11
184.3504463415153
 21
55.58870997284032
 31
0.0
  0
LINE
  5
93
330
2
100
AcDbEntity
  8
L-CENTER
 48
2.0
100
AcDbLine
 10
196.6422323415153
 20
59.18402397284035
 30
0.0
 11
172.0163543415152
 21
59.18402397284035
 31
0.0
  0
LINE
  5
94
330
2
100
AcDbEntity
  8
2
100
AcDbLine
 10
181.2368258415152
 20
60.98165847284031
 30
0.0
 11
181.2368258415152
 21
57.38635947284035
 31
0.0
  0
LINE
  5
95
330
2
100
AcDbEntity
  8
2
100
AcDbLine
 10
187.4640668415153
 20
60.98165847284031
 30
0.0
 11
184.3504463415153
 21
62.77930797284034
 31
0.0
  0
LINE
  5
96
330
2
100
AcDbEntity
  8
2
100
AcDbLine
 10
187.4640668415153
 20
57.38635947284035
 30
0.0
 11
187.4640668415153
 21
60.98165847284031
 31
0.0
  0
LINE
  5
97
330
2
100
AcDbEntity
  8
2
100
AcDbLine
 10
184.3504463415153
 20
55.58870997284032
 30
0.0
 11
187.4640668415153
 21
57.38635947284035
 31
0.0
  0
ARC
  5
98
330
2
100
AcDbEntity
  8
4
100
AcDbCircle
 10
184.3506143415153
 20
272.1838559728403
 30
0.0
 40
179.999994
100
AcDbArc
 50
253.6460690000006
 51
265.6918999999943
  0
LINE
  5
99
330
2
100
AcDbEntity
  8
4
100
AcDbLine
 10
120.3506138415154
 20
119.1840244728403
 30
0.0
 11
120.3506138415154
 21
79.18402447284029
 31
0.0
  0
LINE
  5
9A
330
2
100
AcDbEntity
  8
4
100
AcDbLine
 10
121.3506143415153
 20
73.1840234728403
 30
0.0
 11
121.3506143415153
 21
125.1838559728403
 31
0.0
  0
LINE
  5
9B
330
2
100
AcDbEntity
  8
4
100
AcDbLine
 10
264.3504608415151
 20
106.1838554728404
 30
0.0
 11
293.3506148415152
 21
106.1838554728404
 31
0.0
  0
LINE
  5
9C
330
2
100
AcDbEntity
  8
4
100
AcDbLine
 10
264.3504608415151
 20
92.18385597284032
 30
0.0
 11
293.3506148415152
 21
92.18385597284032
 31
0.0
  0
LINE
  5
9D
330
2
100
AcDbEntity
  8
4
100
AcDbLine
 10
294.3506138415153
 20
108.1838564728403
 30
0.0
 11
267.3504608415151
 21
108.1838564728403
 31
0.0
  0
LINE
  5
9E
330
2
100
AcDbEntity
  8
4
100
AcDbLine
 10
293.3506148415152
 20
106.1838554728404
 30
0.0
 11
293.3506148415152
 21
92.18385597284032
 31
0.0
  0
LINE
  5
9F
330
2
100
AcDbEntity
  8
4
100
AcDbLine
 10
294.3506138415153
 20
93.18385647284026
 30
0.0
 11
294.3506138415153
 21
108.1838564728403
 31
0.0
  0
LINE
  5
A0
330
2
100
AcDbEntity
  8
4
100
AcDbLine
 10
294.3506138415153
 20
93.18385647284026
 30
0.0
 11
293.3506148415152
 21
92.18385597284032
 31
0.0
  0
LINE
  5
A1
330
2
100
AcDbEntity
  8
4
100
AcDbLine
 10
293.3506148415152
 20
106.1838554728404
 30
0.0
 11
294.3506138415153
 21
105.1838564728403
 31
0.0
  0
LINE
  5
A2
330
2
100
AcDbEntity
  8
4
100
AcDbLine
 10
267.3504608415151
 20
106.1838554728404
 30
0.0
 11
267.3504608415151
 21
108.1838564728403
 31
0.0
  0
LINE
  5
A3
330
2
100
AcDbEntity
  8
4
100
AcDbLine
 10
127.0390898415154
 20
73.1840234728403
 30
0.0
 11
121.3506143415153
 21
73.1840234728403
 31
0.0
  0
ARC
  5
A4
330
2
100
AcDbEntity
  8
4
100
AcDbCircle
 10
127.0390898415154
 20
71.18402397284035
 30
0.0
 40
2.000004
100
AcDbArc
 50
6.625921000000842
 51
90.0
  0
LINE
  5
A5
330
2
100
AcDbEntity
  8
4
100
AcDbLine
 10
121.3506143415153
 20
79.18402447284029
 30
0.0
 11
120.3506138415154
 21
79.18402447284029
 31
0.0
  0
LINE
  5
A6
330
2
100
AcDbEntity
  8
4
100
AcDbLine
 10
248.3504618415153
 20
106.6838564728403
 30
0.0
 11
264.3504608415151
 21
106.6838564728403
 31
0.0
  0
LINE
  5
A7
330
2
100
AcDbEntity
  8
4
100
AcDbLine
 10
248.3504618415153
 20
91.68385647284026
 30
0.0
 11
264.3504608415151
 21
91.68385647284026
 31
0.0
  0
LINE
  5
A8
330
2
100
AcDbEntity
  8
4
100
AcDbLine
 10
264.3504608415151
 20
106.6838564728403
 30
0.0
 11
264.3504608415151
 21
91.68385647284026
 31
0.0
  0
ARC
  5
A9
330
2
100
AcDbEntity
  8
4
100
AcDbCircle
 10
134.5122353415153
 20
102.3453704728404
 30
0.0
 40
3.0
100
AcDbArc
 50
196.3539929999994
 51
253.6463800000018
  0
ARC
  5
AA
330
2
100
AcDbEntity
  8
4
100
AcDbCircle
 10
122.7956828415152
 20
127.1838554728404
 30
0.0
 40
2.0000025
100
AcDbArc
 50
270.0008590000007
 51
2.042707999999497
  0
LINE
  5
AB
330
2
100
AcDbEntity
  8
4
100
AcDbLine
 10
120.3506138415154
 20
119.1840244728403
 30
0.0
 11
121.3506143415153
 21
119.1840244728403
 31
0.0
  0
LINE
  5
AC
330
2
100
AcDbEntity
  8
4
100
AcDbLine
 10
122.7956828415152
 20
125.1838559728403
 30
0.0
 11
121.3506143415153
 21
125.1838559728403
 31
0.0
  0
CIRCLE
  5
AD
330
2
100
AcDbEntity
  8
4
100
AcDbCircle
 10
184.3503698415153
 20
99.18400947284033
 30
0.0
 40
12.4999995
  0
LINE
  5
AE
330
2
100
AcDbEntity
  8
4
100
AcDbLine
 10
173.5251743415152
 20
92.93399397284031
 30
0.0
 11
184.3503698415153
 21
86.68399347284026
 31
0.0
  0
LINE
  5
AF
330
2
100
AcDbEntity
  8
4
100
AcDbLine
 10
184.3503698415153
 20
86.68399347284026
 30
0.0
 11
195.1758098415154
 21
92.93400897284027
 31
0.0
  0
LINE
  5
B0
330
2
100
AcDbEntity
  8
4
100
AcDbLine
 10
184.3503698415153
 20
111.6838559728403
 30
0.0
 11
173.5251743415152
 21
105.4338554728404
 31
0.0
  0
LINE
  5
B1
330
2
100
AcDbEntity
  8
4
100
AcDbLine
 10
173.5251743415152
 20
92.93399397284031
 30
0.0
 11
173.5251743415152
 21
105.4338554728404
 31
0.0
  0
LINE
  5
B2
330
2
100
AcDbEntity
  8
4
100
AcDbLine
 10
195.1758098415154
 20
92.93400897284027
 30
0.0
 11
195.1758098415154
 21
105.4338554728404
 31
0.0
  0
LINE
  5
B3
330
2
100
AcDbEntity
  8
4
100
AcDbLine
 10
195.1758098415154
 20
105.4338554728404
 30
0.0
 11
184.3503698415153
 21
111.6838559728403
 31
0.0
  0
ARC
  5
B4
330
2
100
AcDbEntity
  8
4
100
AcDbCircle
 10
162.0515800007352
 20
129.8849896320601
 30
0.0
 40
3.0
100
AcDbArc
 50
188.7250493090455
 51
261.2749506909566
  0
ARC
  5
B5
330
2
100
AcDbEntity
  8
4
100
AcDbCircle
 10
162.9208352912416
 20
130.7542449225666
 30
0.0
 40
3.0
100
AcDbArc
 50
188.3824305776357
 51
261.6175694223708
  0
ARC
  5
B6
330
2
100
AcDbEntity
  8
4
100
AcDbCircle
 10
-455.6493861584847
 20
152.1836114728403
 30
0.0
 40
700.0000035
100
AcDbArc
 50
352.5017519999998
 51
0.0000200045560318
  0
LINE
  5
B7
330
2
100
AcDbEntity
  8
4
100
AcDbLine
 10
214.3504463415153
 20
39.18402447284029
 30
0.0
 11
245.8504463415153
 21
39.18402447284029
 31
0.0
  0
LINE
  5
B8
330
2
100
AcDbEntity
  8
4
100
AcDbLine
 10
215.3504468415154
 20
55.18402347284029
 30
0.0
 11
244.8504458415153
 21
55.18402347284029
 31
0.0
  0
LINE
  5
B9
330
2
100
AcDbEntity
  8
4
100
AcDbLine
 10
214.3504463415153
 20
54.18402447284029
 30
0.0
 11
214.3504463415153
 21
39.18402447284029
 31
0.0
  0
ARC
  5
BA
330
2
100
AcDbEntity
  8
4
100
AcDbCircle
 10
211.3504463415153
 20
41.18402397284035
 30
0.0
 40
3.0
100
AcDbArc
 50
0.0
 51
90.0
  0
ARC
  5
BB
330
2
100
AcDbEntity
  8
4
100
AcDbCircle
 10
215.3504468415154
 20
54.18402447284029
 30
0.0
 40
1.0000005
100
AcDbArc
 50
90.0
 51
180.0
  0
LINE
  5
BC
330
2
100
AcDbEntity
  8
L-CENTER
 48
2.0
100
AcDbLine
 10
234.3504458415153
 20
60.88833607443917
 30
0.0
 11
234.3504458415153
 21
34.10541007443931
 31
0.0
  0
LINE
  5
BD
330
2
100
AcDbEntity
  8
4
100
AcDbLine
 10
245.8504463415153
 20
39.18402447284029
 30
0.0
 11
245.8504463415153
 21
54.18402447284029
 31
0.0
  0
ARC
  5
BE
330
2
100
AcDbEntity
  8
4
100
AcDbCircle
 10
244.8504458415153
 20
54.18402447284029
 30
0.0
 40
1.0000005
100
AcDbArc
 50
0.0
 51
90.0
  0
ARC
  5
BF
330
2
100
AcDbEntity
  8
4
100
AcDbCircle
 10
243.3220598415154
 20
60.18402447284029
 30
0.0
 40
4.9999995
100
AcDbArc
 50
172.5017519999998
 51
270.0
  0
LINE
  5
C0
330
2
100
AcDbEntity
  8
4
100
AcDbLine
 10
248.3504453415154
 20
119.1840244728403
 30
0.0
 11
248.3504453415154
 21
79.18402447284029
 31
0.0
  0
LINE
  5
C1
330
2
100
AcDbEntity
  8
4
100
AcDbLine
 10
247.3504463415153
 20
73.1840234728403
 30
0.0
 11
247.3504463415153
 21
125.1838559728403
 31
0.0
  0
ARC
  5
C2
330
2
100
AcDbEntity
  8
4
100
AcDbCircle
 10
184.3503698415153
 20
272.1838559728403
 30
0.0
 40
179.9999955
100
AcDbArc
 50
274.3091959999942
 51
286.3550240000025
  0
LINE
  5
C3
330
2
100
AcDbEntity
  8
4
100
AcDbLine
 10
241.6619228415153
 20
73.1840234728403
 30
0.0
 11
247.3504463415153
 21
73.1840234728403
 31
0.0
  0
ARC
  5
C4
330
2
100
AcDbEntity
  8
4
100
AcDbCircle
 10
241.6619228415153
 20
71.18402397284035
 30
0.0
 40
2.0000025
100
AcDbArc
 50
90.0
 51
173.3745019999999
  0
LINE
  5
C5
330
2
100
AcDbEntity
  8
4
100
AcDbLine
 10
247.3504463415153
 20
79.18402447284029
 30
0.0
 11
248.3504453415154
 21
79.18402447284029
 31
0.0
  0
ARC
  5
C6
330
2
100
AcDbEntity
  8
4
100
AcDbCircle
 10
234.1889768415154
 20
102.3453704728404
 30
0.0
 40
3.000003
100
AcDbArc
 50
286.3548180000059
 51
343.6469300000002
  0
ARC
  5
C7
330
2
100
AcDbEntity
  8
4
100
AcDbCircle
 10
205.7800573917894
 20
130.7542449225668
 30
0.0
 40
3.0
100
AcDbArc
 50
278.3824305776292
 51
351.6175694223648
  0
ARC
  5
C8
330
2
100
AcDbEntity
  8
4
100
AcDbCircle
 10
206.6493126822957
 20
129.8849896320603
 30
0.0
 40
3.0
100
AcDbArc
 50
278.7250493090434
 51
351.2749506909549
  0
ARC
  5
C9
330
2
100
AcDbEntity
  8
4
100
AcDbCircle
 10
245.9053328415153
 20
127.1838554728404
 30
0.0
 40
2.0000025
100
AcDbArc
 50
177.9572930000001
 51
270.0008589999999
  0
LINE
  5
CA
330
2
100
AcDbEntity
  8
4
100
AcDbLine
 10
248.3504453415154
 20
119.1840244728403
 30
0.0
 11
247.3504463415153
 21
119.1840244728403
 31
0.0
  0
LINE
  5
CB
330
2
100
AcDbEntity
  8
4
100
AcDbLine
 10
245.9053328415153
 20
125.1838559728403
 30
0.0
 11
247.3504463415153
 21
125.1838559728403
 31
0.0
  0
LINE
  5
CC
330
2
100
AcDbEntity
  8
4
100
AcDbLine
 10
248.350368841515
 20
426.4178573646875
 30
0.0
 11
248.3503688415149
 21
386.4178573646874
 31
0.0
  0
LINE
  5
CD
330
2
100
AcDbEntity
  8
4
100
AcDbLine
 10
244.3504463415153
 20
377.4178573646874
 30
0.0
 11
244.3504463415153
 21
436.4178573646877
 31
0.0
  0
LINE
  5
CE
330
2
100
AcDbEntity
  8
4
100
AcDbLine
 10
247.3504463415148
 20
377.417857364687
 30
0.0
 11
247.3504463415153
 21
435.4178573646871
 31
0.0
  0
LINE
  5
CF
330
2
100
AcDbEntity
  8
L-CENTER
 48
2.0
100
AcDbLine
 10
184.3504463415152
 20
301.9117904400175
 30
0.0
 11
184.3504463415155
 21
510.9239242893573
 31
0.0
  0
LINE
  5
D0
330
2
100
AcDbEntity
  8
4
100
AcDbLine
 10
120.3504458415151
 20
426.4178573646875
 30
0.0
 11
120.3504458415151
 21
386.4178573646874
 31
0.0
  0
LINE
  5
D1
330
2
100
AcDbEntity
  8
4
100
AcDbLine
 10
124.3504463415153
 20
377.4178573646874
 30
0.0
 11
124.3504463415153
 21
436.4178573646873
 31
0.0
  0
LINE
  5
D2
330
2
100
AcDbEntity
  8
4
100
AcDbLine
 10
121.3504463415153
 20
377.4178573646874
 30
0.0
 11
121.3504463415153
 21
435.4178573646875
 31
0.0
  0
CIRCLE
  5
D3
330
2
100
AcDbEntity
  8
4
100
AcDbCircle
 10
184.3504463415153
 20
406.4178573646875
 30
0.0
 40
14.0
  0
LINE
  5
D4
330
2
100
AcDbEntity
  8
4
100
AcDbLine
 10
198.3504458415153
 20
213.1838564728404
 30
0.0
 11
170.3506148415152
 21
213.1838564728404
 31
0.0
  0
ARC
  5
D5
330
2
100
AcDbEntity
  8
4
100
AcDbCircle
 10
184.3506143415153
 20
32.18385597284032
 30
0.0
 40
180.000018
100
AcDbArc
 50
73.6459019999986
 51
106.3545669999977
  0
LINE
  5
D6
330
2
100
AcDbEntity
  8
4
100
AcDbLine
 10
169.8504463415153
 20
194.1838559728403
 30
0.0
 11
198.8504463415153
 21
194.1838559728403
 31
0.0
  0
LINE
  5
D7
330
2
100
AcDbEntity
  8
L-CENTER
 48
2.0
100
AcDbLine
 10
117.4163971904118
 20
406.4178573646875
 30
0.0
 11
298.1187160602124
 21
406.4178573646871
 31
0.0
  0
LINE
  5
D8
330
2
100
AcDbEntity
  8
4
100
AcDbLine
 10
126.082497149083
 20
376.4178573646872
 30
0.0
 11
242.6183955339476
 21
376.4178573646874
 31
0.0
  0
LINE
  5
D9
330
2
100
AcDbEntity
  8
4
100
AcDbLine
 10
128.3504463415139
 20
370.4178573646872
 30
0.0
 11
240.3504463415166
 21
370.4178573646874
 31
0.0
  0
LINE
  5
DA
330
2
100
AcDbEntity
  8
4
100
AcDbLine
 10
156.9559555083775
 20
362.4178573646874
 30
0.0
 11
211.7449371746589
 21
362.4178573646874
 31
0.0
  0
LINE
  5
DB
330
2
100
AcDbEntity
  8
4
100
AcDbLine
 10
159.1702502442341
 20
357.4178573646874
 30
0.0
 11
209.5306424387969
 21
357.4178573646874
 31
0.0
  0
ARC
  5
DC
330
2
100
AcDbEntity
  8
4
100
AcDbCircle
 10
184.3504463415153
 20
29.18385597284055
 30
0.0
 40
150.0
100
AcDbArc
 50
81.27495069095664
 51
98.72504930904336
  0
ARC
  5
DD
330
2
100
AcDbEntity
  8
4
100
AcDbCircle
 10
184.3504463415153
 20
28.18385597284055
 30
0.0
 40
150.0
100
AcDbArc
 50
81.6175694223708
 51
98.3824305776292
  0
LINE
  5
DE
330
2
100
AcDbEntity
  8
4
100
AcDbLine
 10
168.8504463415153
 20
369.1748573646873
 30
0.0
 11
199.8504463415153
 21
369.1748573646874
 31
0.0
  0
ARC
  5
DF
330
2
100
AcDbEntity
  8
4
100
AcDbCircle
 10
134.5122353415153
 20
202.0222349728404
 30
0.0
 40
3.0000285
100
AcDbArc
 50
106.3540260000045
 51
163.645812
  0
ARC
  5
E0
330
2
100
AcDbEntity
  8
4
100
AcDbCircle
 10
162.0515800007348
 20
174.482722313621
 30
0.0
 40
3.0
100
AcDbArc
 50
98.72504930904331
 51
171.2749506909545
  0
ARC
  5
E1
330
2
100
AcDbEntity
  8
4
100
AcDbCircle
 10
162.9208352912413
 20
173.6134670231145
 30
0.0
 40
3.0
100
AcDbArc
 50
98.38243057762921
 51
171.6175694223653
  0
LINE
  5
E2
330
2
100
AcDbEntity
  8
4
100
AcDbLine
 10
197.3504463415153
 20
182.1838559728403
 30
0.0
 11
197.3504463415153
 21
191.1838559728403
 31
0.0
  0
LINE
  5
E3
330
2
100
AcDbEntity
  8
4
100
AcDbLine
 10
194.8504463415153
 20
182.1838559728403
 30
0.0
 11
194.8504463415153
 21
191.1838559728403
 31
0.0
  0
LINE
  5
E4
330
2
100
AcDbEntity
  8
4
100
AcDbLine
 10
186.4308347280015
 20
191.2819140404094
 30
0.0
 11
188.2308347280014
 21
182.2819140404094
 31
0.0
  0
LINE
  5
E5
330
2
100
AcDbEntity
  8
4
100
AcDbLine
 10
182.7700579550293
 20
191.2819140404093
 30
0.0
 11
180.9700579550291
 21
182.2819140404093
 31
0.0
  0
LINE
  5
E6
330
2
100
AcDbEntity
  8
4
100
AcDbLine
 10
171.3504463415153
 20
182.1838559728403
 30
0.0
 11
171.3504463415153
 21
191.1838559728403
 31
0.0
  0
LINE
  5
E7
330
2
100
AcDbEntity
  8
4
100
AcDbLine
 10
168.8504463415153
 20
193.1838559728403
 30
0.0
 11
168.8504463415153
 21
179.2796587122907
 31
0.0
  0
LINE
  5
E8
330
2
100
AcDbEntity
  8
4
100
AcDbLine
 10
173.8504463415153
 20
184.6838559728403
 30
0.0
 11
173.8504463415153
 21
191.1838559728403
 31
0.0
  0
ARC
  5
E9
330
2
100
AcDbEntity
  8
4
100
AcDbCircle
 10
190.8504463415153
 20
185.9338559728403
 30
0.0
 40
0.5
100
AcDbArc
 50
180.0
 51
270.0
  0
ARC
  5
EA
330
2
100
AcDbEntity
  8
4
100
AcDbCircle
 10
192.3504463415153
 20
185.9338559728403
 30
0.0
 40
0.5
100
AcDbArc
 50
270.0
 51
0.0
  0
LINE
  5
EB
330
2
100
AcDbEntity
  8
4
100
AcDbLine
 10
182.9900541469525
 20
181.6838559728403
 30
0.0
 11
181.4603482928747
 21
181.6838559728403
 31
0.0
  0
LINE
  5
EC
330
2
100
AcDbEntity
  8
4
100
AcDbLine
 10
178.3504463415153
 20
181.6838559728402
 30
0.0
 11
171.8504463415153
 21
181.6838559728403
 31
0.0
  0
ARC
  5
ED
330
2
100
AcDbEntity
  8
4
100
AcDbCircle
 10
174.3504463415153
 20
184.6838559728403
 30
0.0
 40
0.5
100
AcDbArc
 50
180.0
 51
270.0
  0
ARC
  5
EE
330
2
100
AcDbEntity
  8
4
100
AcDbCircle
 10
171.8504463415153
 20
182.1838559728403
 30
0.0
 40
0.5
100
AcDbArc
 50
180.0
 51
270.0
  0
ARC
  5
EF
330
2
100
AcDbEntity
  8
4
100
AcDbCircle
 10
167.8504463415153
 20
179.2796587122907
 30
0.0
 40
1.0
100
AcDbArc
 50
276.2733237874875
 51
0.0
  0
LINE
  5
F0
330
2
100
AcDbEntity
  8
4
100
AcDbLine
 10
178.8504463415153
 20
182.1838559728402
 30
0.0
 11
178.8504463415153
 21
183.6838559728403
 31
0.0
  0
ARC
  5
F1
330
2
100
AcDbEntity
  8
4
100
AcDbCircle
 10
178.3504463415153
 20
182.1838559728402
 30
0.0
 40
0.5
100
AcDbArc
 50
270.0
 51
0.0
  0
ARC
  5
F2
330
2
100
AcDbEntity
  8
4
100
AcDbCircle
 10
181.4603482928747
 20
182.1838559728403
 30
0.0
 40
0.5
100
AcDbArc
 50
168.690067525976
 51
270.0
  0
ARC
  5
F3
330
2
100
AcDbEntity
  8
4
100
AcDbCircle
 10
178.3504463415153
 20
183.6838559728403
 30
0.0
 40
0.5
100
AcDbArc
 50
0.0
 51
90.0
  0
LINE
  5
F4
330
2
100
AcDbEntity
  8
4
100
AcDbLine
 10
178.3504463415153
 20
184.1838559728403
 30
0.0
 11
174.3504463415153
 21
184.1838559728403
 31
0.0
  0
LINE
  5
F5
330
2
100
AcDbEntity
  8
4
100
AcDbLine
 10
186.2108385360781
 20
181.6838559728403
 30
0.0
 11
187.740544390156
 21
181.6838559728403
 31
0.0
  0
ARC
  5
F6
330
2
100
AcDbEntity
  8
4
100
AcDbCircle
 10
187.740544390156
 20
182.1838559728403
 30
0.0
 40
0.5
100
AcDbArc
 50
270.0
 51
11.30993247402406
  0
LINE
  5
F7
330
2
100
AcDbEntity
  8
4
100
AcDbLine
 10
184.109858049671
 20
183.1838559728403
 30
0.0
 11
185.0910346333595
 21
183.1838559728403
 31
0.0
  0
ARC
  5
F8
330
2
100
AcDbEntity
  8
4
100
AcDbCircle
 10
185.0910346333595
 20
182.6838559728403
 30
0.0
 40
0.5
100
AcDbArc
 50
11.30993247401763
 51
90.0
  0
ARC
  5
F9
330
2
100
AcDbEntity
  8
4
100
AcDbCircle
 10
184.109858049671
 20
182.6838559728403
 30
0.0
 40
0.5
100
AcDbArc
 50
90.0
 51
168.6900675259824
  0
ARC
  5
FA
330
2
100
AcDbEntity
  8
4
100
AcDbCircle
 10
182.9900541469525
 20
182.1838559728403
 30
0.0
 40
0.5
100
AcDbArc
 50
270.0
 51
348.690067525976
  0
LINE
  5
FB
330
2
100
AcDbEntity
  8
4
100
AcDbLine
 10
185.5813249712051
 20
182.7819140404094
 30
0.0
 11
185.7205481982329
 21
182.0857979052712
 31
0.0
  0
LINE
  5
FC
330
2
100
AcDbEntity
  8
4
100
AcDbLine
 10
183.6195677118254
 20
182.7819140404094
 30
0.0
 11
183.4803444847979
 21
182.0857979052712
 31
0.0
  0
ARC
  5
FD
330
2
100
AcDbEntity
  8
4
100
AcDbCircle
 10
186.2108385360781
 20
182.1838559728403
 30
0.0
 40
0.5
100
AcDbArc
 50
191.3099324740176
 51
270.0
  0
LINE
  5
FE
330
2
100
AcDbEntity
  8
4
100
AcDbLine
 10
195.3504463415153
 20
181.6838559728403
 30
0.0
 11
196.8504463415153
 21
181.6838559728403
 31
0.0
  0
ARC
  5
FF
330
2
100
AcDbEntity
  8
4
100
AcDbCircle
 10
195.3504463415153
 20
182.1838559728403
 30
0.0
 40
0.5
100
AcDbArc
 50
180.0
 51
270.0
  0
ARC
  5
100
330
2
100
AcDbEntity
  8
4
100
AcDbCircle
 10
196.8504463415153
 20
182.1838559728403
 30
0.0
 40
0.5
100
AcDbArc
 50
270.0
 51
0.0
  0
ARC
  5
101
330
2
100
AcDbEntity
  8
4
100
AcDbCircle
 10
173.3504463415153
 20
191.1838559728403
 30
0.0
 40
0.5
100
AcDbArc
 50
0.0
 51
90.0
  0
ARC
  5
102
330
2
100
AcDbEntity
  8
4
100
AcDbCircle
 10
169.8504463415153
 20
193.1838559728403
 30
0.0
 40
1.0
100
AcDbArc
 50
90.0
 51
180.0
  0
LINE
  5
103
330
2
100
AcDbEntity
  8
4
100
AcDbLine
 10
173.3504463415153
 20
191.6838559728403
 30
0.0
 11
171.8504463415153
 21
191.6838559728403
 31
0.0
  0
ARC
  5
104
330
2
100
AcDbEntity
  8
4
100
AcDbCircle
 10
171.8504463415153
 20
191.1838559728403
 30
0.0
 40
0.5
100
AcDbArc
 50
90.0
 51
180.0
  0
LINE
  5
105
330
2
100
AcDbEntity
  8
4
100
AcDbLine
 10
184.3504463415153
 20
191.6838559728403
 30
0.0
 11
185.9405443901561
 21
191.6838559728403
 31
0.0
  0
ARC
  5
106
330
2
100
AcDbEntity
  8
4
100
AcDbCircle
 10
183.2603482928745
 20
191.1838559728403
 30
0.0
 40
0.5
100
AcDbArc
 50
90.0
 51
168.690067525976
  0
LINE
  5
107
330
2
100
AcDbEntity
  8
4
100
AcDbLine
 10
184.3504463415153
 20
191.6838559728403
 30
0.0
 11
183.2603482928745
 21
191.6838559728403
 31
0.0
  0
ARC
  5
108
330
2
100
AcDbEntity
  8
4
100
AcDbCircle
 10
185.9405443901561
 20
191.1838559728403
 30
0.0
 40
0.5
100
AcDbArc
 50
11.30993247402406
 51
90.0
  0
LINE
  5
109
330
2
100
AcDbEntity
  8
4
100
AcDbLine
 10
195.3504463415153
 20
191.6838559728403
 30
0.0
 11
196.8504463415153
 21
191.6838559728403
 31
0.0
  0
ARC
  5
10A
330
2
100
AcDbEntity
  8
4
100
AcDbCircle
 10
195.3504463415153
 20
191.1838559728403
 30
0.0
 40
0.5
100
AcDbArc
 50
90.0
 51
180.0
  0
ARC
  5
10B
330
2
100
AcDbEntity
  8
4
100
AcDbCircle
 10
196.8504463415153
 20
191.1838559728403
 30
0.0
 40
0.5
100
AcDbArc
 50
0.0
 51
90.0
  0
ARC
  5
10C
330
2
100
AcDbEntity
  8
4
100
AcDbCircle
 10
190.8504463415153
 20
187.4338559728403
 30
0.0
 40
0.5
100
AcDbArc
 50
90.0
 51
180.0
  0
ARC
  5
10D
330
2
100
AcDbEntity
  8
4
100
AcDbCircle
 10
192.3504463415153
 20
187.4338559728403
 30
0.0
 40
0.5
100
AcDbArc
 50
0.0
 51
90.0
  0
LINE
  5
10E
330
2
100
AcDbEntity
  8
4
100
AcDbLine
 10
192.8504463415153
 20
185.9338559728403
 30
0.0
 11
192.8504463415153
 21
187.4338559728403
 31
0.0
  0
LINE
  5
10F
330
2
100
AcDbEntity
  8
4
100
AcDbLine
 10
190.3504463415153
 20
185.9338559728403
 30
0.0
 11
190.3504463415153
 21
187.4338559728403
 31
0.0
  0
LINE
  5
110
330
2
100
AcDbEntity
  8
4
100
AcDbLine
 10
190.8504463415153
 20
187.9338559728403
 30
0.0
 11
192.3504463415153
 21
187.9338559728403
 31
0.0
  0
LINE
  5
111
330
2
100
AcDbEntity
  8
4
100
AcDbLine
 10
190.8504463415153
 20
185.4338559728403
 30
0.0
 11
192.3504463415153
 21
185.4338559728403
 31
0.0
  0
LINE
  5
112
330
2
100
AcDbEntity
  8
4
100
AcDbLine
 10
171.8504468415154
 20
214.6838564728404
 30
0.0
 11
196.8504458415153
 21
214.6838564728404
 31
0.0
  0
LINE
  5
113
330
2
100
AcDbEntity
  8
4
100
AcDbLine
 10
171.8504468415154
 20
216.6838559728403
 30
0.0
 11
196.8504458415153
 21
216.6838559728403
 31
0.0
  0
LINE
  5
114
330
2
100
AcDbEntity
  8
4
100
AcDbLine
 10
171.8504468415154
 20
220.6838564728404
 30
0.0
 11
196.8504458415153
 21
220.6838564728404
 31
0.0
  0
LINE
  5
115
330
2
100
AcDbEntity
  8
4
100
AcDbLine
 10
171.8504468415154
 20
214.6838564728404
 30
0.0
 11
171.8504468415154
 21
220.6838564728404
 31
0.0
  0
LINE
  5
116
330
2
100
AcDbEntity
  8
4
100
AcDbLine
 10
170.3506148415152
 20
211.6386899728403
 30
0.0
 11
170.3506148415152
 21
213.1838564728404
 31
0.0
  0
LINE
  5
117
330
2
100
AcDbEntity
  8
4
100
AcDbLine
 10
172.8504458415153
 20
213.1838564728404
 30
0.0
 11
172.8504458415153
 21
214.6838564728404
 31
0.0
  0
LINE
  5
118
330
2
100
AcDbEntity
  8
4
100
AcDbLine
 10
178.1004458415153
 20
216.6838559728403
 30
0.0
 11
178.1004458415153
 21
220.6838564728404
 31
0.0
  0
LINE
  5
119
330
2
100
AcDbEntity
  8
4
100
AcDbLine
 10
196.8504458415153
 20
214.6838564728404
 30
0.0
 11
196.8504458415153
 21
220.6838564728404
 31
0.0
  0
LINE
  5
11A
330
2
100
AcDbEntity
  8
4
100
AcDbLine
 10
190.6004468415154
 20
216.6838559728403
 30
0.0
 11
190.6004468415154
 21
220.6838564728404
 31
0.0
  0
LINE
  5
11B
330
2
100
AcDbEntity
  8
4
100
AcDbLine
 10
195.8504468415154
 20
213.1838564728404
 30
0.0
 11
195.8504468415154
 21
214.6838564728404
 31
0.0
  0
CIRCLE
  5
11C
330
2
100
AcDbEntity
  8
4
100
AcDbCircle
 10
134.3504463415153
 20
363.4178573646874
 30
0.0
 40
5.0
  0
LINE
  5
11D
330
2
100
AcDbEntity
  8
4
100
AcDbLine
 10
124.8504463415148
 20
351.4178573646874
 30
0.0
 11
152.3504463415148
 21
351.4178573646872
 31
0.0
  0
LINE
  5
11E
330
2
100
AcDbEntity
  8
L-CENTER
 48
2.0
100
AcDbLine
 10
124.4513398311024
 20
363.4178573646874
 30
0.0
 11
144.2495528519281
 21
363.4178573646874
 31
0.0
  0
LINE
  5
11F
330
2
100
AcDbEntity
  8
4
100
AcDbLine
 10
122.8504463415148
 20
353.4178573646874
 30
0.0
 11
122.8504463415153
 21
377.4178573646874
 31
0.0
  0
LINE
  5
120
330
2
100
AcDbEntity
  8
4
100
AcDbLine
 10
126.3504463415139
 20
375.4178573646872
 30
0.0
 11
126.3504463415139
 21
372.4178573646874
 31
0.0
  0
ARC
  5
121
330
2
100
AcDbEntity
  8
4
100
AcDbCircle
 10
124.8504463415148
 20
353.4178573646874
 30
0.0
 40
2.0
100
AcDbArc
 50
180.0
 51
270.0
  0
ARC
  5
122
330
2
100
AcDbEntity
  8
4
100
AcDbCircle
 10
128.3504463415139
 20
372.4178573646874
 30
0.0
 40
2.0
100
AcDbArc
 50
180.0
 51
270.0
  0
LINE
  5
123
330
2
100
AcDbEntity
  8
4
100
AcDbLine
 10
264.3504608415155
 20
399.4176888646873
 30
0.0
 11
293.3506148415154
 21
399.4176888646871
 31
0.0
  0
LINE
  5
124
330
2
100
AcDbEntity
  8
4
100
AcDbLine
 10
264.3504608415156
 20
413.4176883646874
 30
0.0
 11
293.3506148415154
 21
413.4176883646871
 31
0.0
  0
LINE
  5
125
330
2
100
AcDbEntity
  8
4
100
AcDbLine
 10
269.8504608415156
 20
403.9178573646872
 30
0.0
 11
294.3506138415156
 21
403.9178573646871
 31
0.0
  0
LINE
  5
126
330
2
100
AcDbEntity
  8
4
100
AcDbLine
 10
269.8504608415156
 20
408.9178573646873
 30
0.0
 11
294.3506138415156
 21
408.9178573646871
 31
0.0
  0
LINE
  5
127
330
2
100
AcDbEntity
  8
4
100
AcDbLine
 10
293.3506148415154
 20
413.4176883646871
 30
0.0
 11
293.3506148415152
 21
408.9178573646871
 31
0.0
  0
LINE
  5
128
330
2
100
AcDbEntity
  8
4
100
AcDbLine
 10
294.3506138415156
 20
400.417689364687
 30
0.0
 11
294.3506138415156
 21
412.417689364687
 31
0.0
  0
LINE
  5
129
330
2
100
AcDbEntity
  8
4
100
AcDbLine
 10
294.3506138415156
 20
400.417689364687
 30
0.0
 11
293.3506148415154
 21
399.4176888646871
 31
0.0
  0
LINE
  5
12A
330
2
100
AcDbEntity
  8
4
100
AcDbLine
 10
293.3506148415152
 20
403.9178573646871
 30
0.0
 11
293.3506148415154
 21
399.4176888646871
 31
0.0
  0
LINE
  5
12B
330
2
100
AcDbEntity
  8
4
100
AcDbLine
 10
293.3506148415154
 20
413.4176883646871
 30
0.0
 11
294.3506138415156
 21
412.417689364687
 31
0.0
  0
ARC
  5
12C
330
2
100
AcDbEntity
  8
4
100
AcDbCircle
 10
269.8504608415156
 20
406.4178573646873
 30
0.0
 40
2.5
100
AcDbArc
 50
90.0
 51
270.0
  0
ARC
  5
12D
330
2
100
AcDbEntity
  8
4
100
AcDbCircle
 10
124.3504463415139
 20
375.4178573646874
 30
0.0
 40
2.0
100
AcDbArc
 50
0.0
 51
90.0
  0
LINE
  5
12E
330
2
100
AcDbEntity
  8
4
100
AcDbLine
 10
124.3504463415153
 20
377.4178573646874
 30
0.0
 11
121.3504463415153
 21
377.4178573646874
 31
0.0
  0
LINE
  5
12F
330
2
100
AcDbEntity
  8
4
100
AcDbLine
 10
121.3504463415153
 20
386.4178573646874
 30
0.0
 11
120.3504458415151
 21
386.4178573646874
 31
0.0
  0
LINE
  5
130
330
2
100
AcDbEntity
  8
4
100
AcDbLine
 10
248.3504618415155
 20
413.9176893646872
 30
0.0
 11
264.3504608415156
 21
413.9176893646872
 31
0.0
  0
LINE
  5
131
330
2
100
AcDbEntity
  8
4
100
AcDbLine
 10
248.3504618415154
 20
398.9176893646872
 30
0.0
 11
264.3504608415155
 21
398.9176893646872
 31
0.0
  0
LINE
  5
132
330
2
100
AcDbEntity
  8
4
100
AcDbLine
 10
264.3504608415156
 20
413.9176893646872
 30
0.0
 11
264.3504608415155
 21
398.9176893646872
 31
0.0
  0
LINE
  5
133
330
2
100
AcDbEntity
  8
4
100
AcDbLine
 10
156.3179585486317
 20
362.8111860476967
 30
0.0
 11
136.3504463415153
 21
370.4178573646988
 31
0.0
  0
LINE
  5
134
330
2
100
AcDbEntity
  8
L-CENTER
 48
2.0
100
AcDbLine
 10
134.3504463415153
 20
353.5187508542746
 30
0.0
 11
134.3504463415153
 21
373.3169638751003
 31
0.0
  0
LINE
  5
135
330
2
100
AcDbEntity
  8
4
100
AcDbLine
 10
158.1896695685378
 20
358.2217412295672
 30
0.0
 11
157.5671292448279
 21
361.334442848127
 31
0.0
  0
LINE
  5
136
330
2
100
AcDbEntity
  8
4
100
AcDbLine
 10
154.3504463415148
 20
353.4178573646872
 30
0.0
 11
154.350446341515
 21
363.5607145075514
 31
0.0
  0
ARC
  5
137
330
2
100
AcDbEntity
  8
4
100
AcDbCircle
 10
152.3504463415148
 20
353.4178573646872
 30
0.0
 40
2.0
100
AcDbArc
 50
270.0
 51
0.0
  0
ARC
  5
138
330
2
100
AcDbEntity
  8
4
100
AcDbCircle
 10
159.1702502442341
 20
358.4178573646874
 30
0.0
 40
1.0
100
AcDbArc
 50
191.3099324740208
 51
270.0
  0
ARC
  5
139
330
2
100
AcDbEntity
  8
4
100
AcDbCircle
 10
155.6059678934474
 20
360.9422105778391
 30
0.0
 40
2.0
100
AcDbArc
 50
11.30993247400599
 51
69.14554196041122
  0
LINE
  5
13A
330
2
100
AcDbEntity
  8
4
100
AcDbLine
 10
168.8504463415153
 20
363.4178573646874
 30
0.0
 11
168.8504463415153
 21
369.1748573646873
 31
0.0
  0
ARC
  5
13B
330
2
100
AcDbEntity
  8
4
100
AcDbCircle
 10
169.8504463415153
 20
363.4178573646874
 30
0.0
 40
1.0
100
AcDbArc
 50
180.0
 51
270.0
  0
LWPOLYLINE
  5
13C
330
2
100
AcDbEntity
  8
4
100
AcDbPolyline
 90
        6
 70
     1
 43
0.0
 10
196.8504463415153
 20
406.4178573646875
 10
190.6004463415153
 20
417.243174911993
 10
178.1004463415153
 20
417.243174911993
 10
171.8504463415153
 20
406.4178573646875
 10
178.1004463415153
 20
395.592539817382
 10
190.6004463415153
 20
395.592539817382
  0
CIRCLE
  5
13D
330
2
100
AcDbEntity
  8
4
100
AcDbCircle
 10
184.3504463415153
 20
406.4178573646875
 30
0.0
 40
12.5
  0
LINE
  5
13E
330
2
100
AcDbEntity
  8
4
100
AcDbLine
 10
199.8504463415153
 20
193.1838559728403
 30
0.0
 11
199.8504463415153
 21
179.2796587122907
 31
0.0
  0
ARC
  5
13F
330
2
100
AcDbEntity
  8
4
100
AcDbCircle
 10
200.8504463415153
 20
179.2796587122907
 30
0.0
 40
1.0
100
AcDbArc
 50
180.0
 51
263.7266762125125
  0
ARC
  5
140
330
2
100
AcDbEntity
  8
4
100
AcDbCircle
 10
205.7800573917894
 20
173.6134670231146
 30
0.0
 40
3.0
100
AcDbArc
 50
8.382430577634718
 51
81.61756942237078
  0
ARC
  5
141
330
2
100
AcDbEntity
  8
4
100
AcDbCircle
 10
206.6493126822957
 20
174.4827223136211
 30
0.0
 40
3.0
100
AcDbArc
 50
8.725049309045518
 51
81.27495069095669
  0
ARC
  5
142
330
2
100
AcDbEntity
  8
4
100
AcDbCircle
 10
198.8504463415153
 20
193.1838559728403
 30
0.0
 40
1.0
100
AcDbArc
 50
0.0
 51
90.0
  0
ARC
  5
143
330
2
100
AcDbEntity
  8
4
100
AcDbCircle
 10
234.1889768415154
 20
202.0222349728404
 30
0.0
 40
3.0000165
100
AcDbArc
 50
16.35426800000091
 51
73.64654199999524
  0
LINE
  5
144
330
2
100
AcDbEntity
  8
4
100
AcDbLine
 10
198.3504458415153
 20
211.6386899728403
 30
0.0
 11
198.3504458415153
 21
213.1838564728404
 31
0.0
  0
TEXT
  5
145
330
2
100
AcDbEntity
  8
2
 62
     2
100
AcDbText
 10
302.2271825737927
 20
27.2968952321097
 30
0.0
 40
4.5
  1
LA1-05
  7
KANJI
100
AcDbText
  0
LINE
  5
147
330
2
100
AcDbEntity
  8
4
100
AcDbLine
 10
245.8504463415153
 20
353.4178573646874
 30
0.0
 11
245.8504463415153
 21
377.417857364687
 31
0.0
  0
LINE
  5
148
330
2
100
AcDbEntity
  8
4
100
AcDbLine
 10
242.3504463415166
 20
375.4178573646872
 30
0.0
 11
242.3504463415166
 21
372.4178573646874
 31
0.0
  0
CIRCLE
  5
149
330
2
100
AcDbEntity
  8
4
100
AcDbCircle
 10
234.3504463415153
 20
363.4178573646874
 30
0.0
 40
5.0
  0
LINE
  5
14A
330
2
100
AcDbEntity
  8
4
100
AcDbLine
 10
216.3504463415155
 20
351.4178573646874
 30
0.0
 11
243.8504463415153
 21
351.4178573646874
 31
0.0
  0
LINE
  5
14B
330
2
100
AcDbEntity
  8
4
100
AcDbLine
 10
212.3829341343977
 20
362.8111860476901
 30
0.0
 11
232.3504463415157
 21
370.4178573646874
 31
0.0
  0
LINE
  5
14C
330
2
100
AcDbEntity
  8
L-CENTER
 48
2.0
100
AcDbLine
 10
224.4956472517791
 20
363.4178573646874
 30
0.0
 11
244.2495528519281
 21
363.4178573646874
 31
0.0
  0
LINE
  5
14D
330
2
100
AcDbEntity
  8
4
100
AcDbLine
 10
210.5112231144879
 20
358.2217412295492
 30
0.0
 11
211.1337634381999
 21
361.3344428481086
 31
0.0
  0
ARC
  5
14E
330
2
100
AcDbEntity
  8
4
100
AcDbCircle
 10
209.5306424387969
 20
358.4178573646874
 30
0.0
 40
1.0
100
AcDbArc
 50
270.0
 51
348.6900675259792
  0
LINE
  5
14F
330
2
100
AcDbEntity
  8
4
100
AcDbLine
 10
199.8504463415153
 20
363.4178573646874
 30
0.0
 11
199.8504463415153
 21
369.1748573646874
 31
0.0
  0
ARC
  5
150
330
2
100
AcDbEntity
  8
4
100
AcDbCircle
 10
198.8504463415153
 20
363.4178573646874
 30
0.0
 40
1.0
100
AcDbArc
 50
270.0
 51
0.0
  0
ARC
  5
151
330
2
100
AcDbEntity
  8
4
100
AcDbCircle
 10
213.0949247895815
 20
360.9422105778323
 30
0.0
 40
2.0
100
AcDbArc
 50
110.8544580395749
 51
168.690067525979
  0
LINE
  5
152
330
2
100
AcDbEntity
  8
4
100
AcDbLine
 10
214.3504463415155
 20
353.4178573646874
 30
0.0
 11
214.3504463415155
 21
363.5607145075443
 31
0.0
  0
ARC
  5
153
330
2
100
AcDbEntity
  8
4
100
AcDbCircle
 10
216.3504463415155
 20
353.4178573646874
 30
0.0
 40
2.0
100
AcDbArc
 50
180.0
 51
270.0
  0
ARC
  5
155
330
2
100
AcDbEntity
  8
4
100
AcDbCircle
 10
243.8504463415153
 20
353.4178573646874
 30
0.0
 40
2.0
100
AcDbArc
 50
270.0
 51
0.0
  0
LINE
  5
156
330
2
100
AcDbEntity
  8
L-CENTER
 48
2.0
100
AcDbLine
 10
234.3504463415153
 20
353.5187508542746
 30
0.0
 11
234.3504463415153
 21
373.3169638751003
 31
0.0
  0
ARC
  5
158
330
2
100
AcDbEntity
  8
4
100
AcDbCircle
 10
240.3504463415166
 20
372.4178573646874
 30
0.0
 40
2.0
100
AcDbArc
 50
270.0
 51
0.0
  0
LINE
  5
159
330
2
100
AcDbEntity
  8
4
100
AcDbLine
 10
244.3504463415153
 20
377.417857364687
 30
0.0
 11
247.3504463415153
 21
377.417857364687
 31
0.0
  0
ARC
  5
15A
330
2
100
AcDbEntity
  8
4
100
AcDbCircle
 10
244.3504463415166
 20
375.4178573646874
 30
0.0
 40
2.0
100
AcDbArc
 50
90.0
 51
180.0
  0
LINE
  5
15B
330
2
100
AcDbEntity
  8
4
100
AcDbLine
 10
247.3503698415152
 20
386.4178573646874
 30
0.0
 11
248.3503688415149
 21
386.4178573646874
 31
0.0
  0
LINE
  5
15C
330
2
100
AcDbEntity
  8
4
100
AcDbLine
 10
164.3504468415157
 20
456.4178578646874
 30
0.0
 11
204.3504458415156
 21
456.4178578646874
 31
0.0
  0
LINE
  5
15D
330
2
100
AcDbEntity
  8
4
100
AcDbLine
 10
209.5306424387971
 20
455.4178573646873
 30
0.0
 11
159.1702502442341
 21
455.4178573646875
 31
0.0
  0
LINE
  5
15E
330
2
100
AcDbEntity
  8
4
100
AcDbLine
 10
212.0147329393388
 20
450.4178573646873
 30
0.0
 11
156.6861597436924
 21
450.4178573646875
 31
0.0
  0
LINE
  5
15F
330
2
100
AcDbEntity
  8
4
100
AcDbLine
 10
127.3504463415153
 20
447.4178573646873
 30
0.0
 11
241.3504463415157
 21
447.4178573646873
 31
0.0
  0
LINE
  5
160
330
2
100
AcDbEntity
  8
2
100
AcDbLine
 10
126.3504463415153
 20
439.8178573646871
 30
0.0
 11
242.3504463415153
 21
439.8178573646874
 31
0.0
  0
LINE
  5
161
330
2
100
AcDbEntity
  8
4
100
AcDbLine
 10
126.3504463415153
 20
439.4178573646873
 30
0.0
 11
242.3504463415153
 21
439.4178573646875
 31
0.0
  0
LINE
  5
162
330
2
100
AcDbEntity
  8
4
100
AcDbLine
 10
124.3504463415153
 20
436.4178573646873
 30
0.0
 11
244.3504463415153
 21
436.4178573646877
 31
0.0
  0
ARC
  5
163
330
2
100
AcDbEntity
  8
4
100
AcDbCircle
 10
134.3504463415153
 20
449.4178573646875
 30
0.0
 40
5.0
100
AcDbArc
 50
336.4218215217954
 51
203.5781784782046
  0
LINE
  5
164
330
2
100
AcDbEntity
  8
L-CENTER
 48
2.0
100
AcDbLine
 10
124.4513398311024
 20
449.4178573646875
 30
0.0
 11
144.2495528519281
 21
449.4178573646875
 31
0.0
  0
LINE
  5
165
330
2
100
AcDbEntity
  8
4
100
AcDbLine
 10
124.8504463415157
 20
461.4178573646875
 30
0.0
 11
152.3504463415157
 21
461.4178573646873
 31
0.0
  0
LINE
  5
166
330
2
100
AcDbEntity
  8
4
100
AcDbLine
 10
122.8504463415153
 20
435.4178573646873
 30
0.0
 11
122.8504463415157
 21
459.4178573646875
 31
0.0
  0
LINE
  5
167
330
2
100
AcDbEntity
  8
4
100
AcDbLine
 10
126.3504463415153
 20
446.4178573646873
 30
0.0
 11
126.3504463415153
 21
439.8178573646874
 31
0.0
  0
LINE
  5
168
330
2
100
AcDbEntity
  8
4
100
AcDbLine
 10
120.3504458415151
 20
426.4178573646875
 30
0.0
 11
121.3504463415153
 21
426.4178573646875
 31
0.0
  0
LINE
  5
169
330
2
100
AcDbEntity
  8
4
100
AcDbLine
 10
121.3504463415153
 20
435.4178573646875
 30
0.0
 11
124.3504463415153
 21
435.4178573646875
 31
0.0
  0
LINE
  5
16A
330
2
100
AcDbEntity
  8
4
100
AcDbLine
 10
126.3504463415153
 20
436.4178573646875
 30
0.0
 11
126.3504463415153
 21
439.4178573646873
 31
0.0
  0
LINE
  5
16B
330
2
100
AcDbEntity
  8
4
100
AcDbLine
 10
126.3504463415153
 20
439.8178573646871
 30
0.0
 11
126.3504463415153
 21
439.4178573646873
 31
0.0
  0
ARC
  5
16C
330
2
100
AcDbEntity
  8
4
100
AcDbCircle
 10
127.3504463415153
 20
446.4178573646873
 30
0.0
 40
1.0
100
AcDbArc
 50
90.0
 51
180.0
  0
ARC
  5
16D
330
2
100
AcDbEntity
  8
4
100
AcDbCircle
 10
124.8504463415157
 20
459.4178573646875
 30
0.0
 40
2.0
100
AcDbArc
 50
90.0
 51
180.0
  0
LINE
  5
16E
330
2
100
AcDbEntity
  8
4
100
AcDbLine
 10
194.3504468415154
 20
456.4178578646877
 30
0.0
 11
194.3504468415154
 21
476.4181023646875
 31
0.0
  0
LINE
  5
16F
330
2
100
AcDbEntity
  8
4
100
AcDbLine
 10
174.3504458415156
 20
456.4178578646877
 30
0.0
 11
174.3504458415156
 21
476.4181023646875
 31
0.0
  0
LINE
  5
170
330
2
100
AcDbEntity
  8
L-CENTER
 48
2.0
100
AcDbLine
 10
134.3504463415153
 20
439.5187508542747
 30
0.0
 11
134.3504463415153
 21
459.2893622002273
 31
0.0
  0
LINE
  5
171
330
2
100
AcDbEntity
  8
4
100
AcDbLine
 10
154.3504463415155
 20
449.8464287932588
 30
0.0
 11
154.3504463415157
 21
459.4178573646873
 31
0.0
  0
LINE
  5
172
330
2
100
AcDbEntity
  8
4
100
AcDbLine
 10
158.1896695685431
 20
454.6139734998255
 30
0.0
 11
157.6145413273722
 21
451.7383322939711
 31
0.0
  0
ARC
  5
173
330
2
100
AcDbEntity
  8
4
100
AcDbCircle
 10
155.6533799759903
 20
452.1305645642476
 30
0.0
 40
2.0
100
AcDbArc
 50
280.7842978675646
 51
348.6900675259823
  0
LINE
  5
174
330
2
100
AcDbEntity
  8
4
100
AcDbLine
 10
156.0276041917703
 20
450.1658874314026
 30
0.0
 11
151.4771278415154
 21
449.299130031354
 31
0.0
  0
LINE
  5
175
330
2
100
AcDbEntity
  8
4
100
AcDbLine
 10
164.3504468415157
 20
456.4178578646874
 30
0.0
 11
164.3504468415157
 21
455.4178573646873
 31
0.0
  0
ARC
  5
176
330
2
100
AcDbEntity
  8
4
100
AcDbCircle
 10
159.1702502442339
 20
454.4178573646873
 30
0.0
 40
1.0
100
AcDbArc
 50
90.0
 51
168.6900675259756
  0
ARC
  5
177
330
2
100
AcDbEntity
  8
4
100
AcDbCircle
 10
152.3504463415157
 20
459.4178573646873
 30
0.0
 40
2.0
100
AcDbArc
 50
0.0
 51
90.0
  0
LINE
  5
178
330
2
100
AcDbEntity
  8
4
100
AcDbLine
 10
181.8504463415155
 20
481.9181023646875
 30
0.0
 11
181.8504463415153
 21
506.4181023646875
 31
0.0
  0
LINE
  5
179
330
2
100
AcDbEntity
  8
4
100
AcDbLine
 10
186.8504463415155
 20
481.9181023646875
 30
0.0
 11
186.8504463415155
 21
506.4181023646875
 31
0.0
  0
LINE
  5
17A
330
2
100
AcDbEntity
  8
4
100
AcDbLine
 10
193.8504458415156
 20
476.4181023646875
 30
0.0
 11
193.8504458415156
 21
505.4181033646873
 31
0.0
  0
LINE
  5
17B
330
2
100
AcDbEntity
  8
4
100
AcDbLine
 10
174.8504468415154
 20
476.4181023646875
 30
0.0
 11
174.8504468415154
 21
505.4181033646873
 31
0.0
  0
LINE
  5
17C
330
2
100
AcDbEntity
  8
4
100
AcDbLine
 10
194.3504468415154
 20
476.4181023646875
 30
0.0
 11
174.3504458415156
 21
476.4181023646875
 31
0.0
  0
ARC
  5
17D
330
2
100
AcDbEntity
  8
4
100
AcDbCircle
 10
184.3504463415155
 20
481.9181023646875
 30
0.0
 40
2.5
100
AcDbArc
 50
180.0
 51
0.0
  0
LINE
  5
17E
330
2
100
AcDbEntity
  8
4
100
AcDbLine
 10
174.8504468415154
 20
505.4181033646873
 30
0.0
 11
181.8504463415155
 21
505.4181033646873
 31
0.0
  0
LINE
  5
17F
330
2
100
AcDbEntity
  8
4
100
AcDbLine
 10
192.8504468415154
 20
506.4181023646875
 30
0.0
 11
175.8504458415153
 21
506.4181023646875
 31
0.0
  0
LINE
  5
180
330
2
100
AcDbEntity
  8
4
100
AcDbLine
 10
174.8504468415154
 20
505.4181033646873
 30
0.0
 11
175.8504458415156
 21
506.4181023646875
 31
0.0
  0
LINE
  5
181
330
2
100
AcDbEntity
  8
4
100
AcDbLine
 10
192.8504468415154
 20
506.4181023646875
 30
0.0
 11
193.8504458415156
 21
505.4181033646873
 31
0.0
  0
LINE
  5
182
330
2
100
AcDbEntity
  8
4
100
AcDbLine
 10
186.8504463415155
 20
505.4181033646873
 30
0.0
 11
193.8504458415156
 21
505.4181033646873
 31
0.0
  0
ARC
  5
183
330
2
100
AcDbEntity
  8
4
100
AcDbCircle
 10
234.3504463415153
 20
449.4178573646875
 30
0.0
 40
5.0
100
AcDbArc
 50
336.4218215217954
 51
203.5781784782046
  0
LINE
  5
184
330
2
100
AcDbEntity
  8
L-CENTER
 48
2.0
100
AcDbLine
 10
224.4956472517791
 20
449.4178573646875
 30
0.0
 11
244.2495528519281
 21
449.4178573646875
 31
0.0
  0
LINE
  5
185
330
2
100
AcDbEntity
  8
4
100
AcDbLine
 10
216.3504463415155
 20
461.4178573646875
 30
0.0
 11
243.8504463415153
 21
461.4178573646875
 31
0.0
  0
LINE
  5
186
330
2
100
AcDbEntity
  8
4
100
AcDbLine
 10
212.6732884912606
 20
450.1658874314026
 30
0.0
 11
217.2237648415151
 21
449.299130031354
 31
0.0
  0
LINE
  5
187
330
2
100
AcDbEntity
  8
4
100
AcDbLine
 10
204.3504458415156
 20
456.4178578646874
 30
0.0
 11
204.3504458415156
 21
455.4178573646873
 31
0.0
  0
ARC
  5
188
330
2
100
AcDbEntity
  8
4
100
AcDbCircle
 10
213.0475127070407
 20
452.1305645642476
 30
0.0
 40
2.0
100
AcDbArc
 50
191.3099324740176
 51
259.2157021324354
  0
LINE
  5
189
330
2
100
AcDbEntity
  8
4
100
AcDbLine
 10
210.5112231144879
 20
454.6139734998255
 30
0.0
 11
211.0863513556588
 21
451.7383322939711
 31
0.0
  0
ARC
  5
18A
330
2
100
AcDbEntity
  8
4
100
AcDbCircle
 10
209.5306424387971
 20
454.4178573646873
 30
0.0
 40
1.0
100
AcDbArc
 50
11.30993247402438
 51
90.0
  0
LINE
  5
18B
330
2
100
AcDbEntity
  8
4
100
AcDbLine
 10
214.3504463415153
 20
449.8464287932588
 30
0.0
 11
214.3504463415155
 21
459.4178573646875
 31
0.0
  0
ARC
  5
18C
330
2
100
AcDbEntity
  8
4
100
AcDbCircle
 10
216.3504463415155
 20
459.4178573646875
 30
0.0
 40
2.0
100
AcDbArc
 50
90.0
 51
180.0
  0
LINE
  5
18D
330
2
100
AcDbEntity
  8
4
100
AcDbLine
 10
245.8504463415153
 20
435.4178573646871
 30
0.0
 11
245.8504463415153
 21
459.4178573646875
 31
0.0
  0
LINE
  5
18E
330
2
100
AcDbEntity
  8
L-CENTER
 48
2.0
100
AcDbLine
 10
234.3504463415153
 20
439.5187508542747
 30
0.0
 11
234.3504463415153
 21
459.3169638751003
 31
0.0
  0
LINE
  5
18F
330
2
100
AcDbEntity
  8
4
100
AcDbLine
 10
242.3504463415153
 20
446.4178573646873
 30
0.0
 11
242.3504463415153
 21
439.8178573646874
 31
0.0
  0
LINE
  5
190
330
2
100
AcDbEntity
  8
4
100
AcDbLine
 10
247.3504463415153
 20
435.4178573646871
 30
0.0
 11
244.3504463415153
 21
435.4178573646868
 31
0.0
  0
LINE
  5
191
330
2
100
AcDbEntity
  8
4
100
AcDbLine
 10
242.3504463415153
 20
436.4178573646877
 30
0.0
 11
242.3504463415153
 21
439.4178573646875
 31
0.0
  0
LINE
  5
192
330
2
100
AcDbEntity
  8
4
100
AcDbLine
 10
242.3504463415155
 20
439.8178573646874
 30
0.0
 11
242.3504463415153
 21
439.4178573646875
 31
0.0
  0
LINE
  5
193
330
2
100
AcDbEntity
  8
4
100
AcDbLine
 10
248.350368841515
 20
426.4178573646875
 30
0.0
 11
247.3503698415153
 21
426.4178573646875
 31
0.0
  0
ARC
  5
194
330
2
100
AcDbEntity
  8
4
100
AcDbCircle
 10
243.8504463415153
 20
459.4178573646875
 30
0.0
 40
2.0
100
AcDbArc
 50
0.0
 51
90.0
  0
ARC
  5
195
330
2
100
AcDbEntity
  8
4
100
AcDbCircle
 10
241.3504463415157
 20
446.4178573646873
 30
0.0
 40
1.0
100
AcDbArc
 50
0.0
 51
90.0
  0
LINE
  5
197
330
2
100
AcDbEntity
  8
4
100
AcDbLine
 10
564.8050472107191
 20
143.6838554728404
 30
0.0
 11
564.8050472107191
 21
163.6838564728403
 31
0.0
  0
LINE
  5
198
330
2
100
AcDbEntity
  8
4
100
AcDbLine
 10
534.8050472107191
 20
142.1838554728404
 30
0.0
 11
534.8050472107191
 21
162.1838564728403
 31
0.0
  0
LINE
  5
199
330
2
100
AcDbEntity
  8
4
100
AcDbLine
 10
563.805048210719
 20
161.6838554728404
 30
0.0
 11
563.805048210719
 21
142.6838564728403
 31
0.0
  0
LINE
  5
19A
330
2
100
AcDbEntity
  8
4
100
AcDbLine
 10
514.8048027107191
 20
172.1838554728403
 30
0.0
 11
514.8048027107191
 21
132.1838564728403
 31
0.0
  0
LINE
  5
19B
330
2
100
AcDbEntity
  8
4
100
AcDbLine
 10
513.8048022107189
 20
177.3640319728404
 30
0.0
 11
513.8048022107189
 21
102.1838564728403
 31
0.0
  0
LINE
  5
19C
330
2
100
AcDbEntity
  8
4
100
AcDbLine
 10
508.8048027107191
 20
179.1838559728403
 30
0.0
 11
508.8048027107191
 21
125.1838559728403
 31
0.0
  0
LINE
  5
19D
330
2
100
AcDbEntity
  8
L-CENTER
 48
2.0
100
AcDbLine
 10
464.8050482107194
 20
223.2896565327807
 30
0.0
 11
464.8050482107194
 21
35.28852897284037
 31
0.0
  0
LINE
  5
19E
330
2
100
AcDbEntity
  8
4
100
AcDbLine
 10
497.804998710719
 20
210.1838564728404
 30
0.0
 11
497.804998710719
 21
94.18361247284031
 31
0.0
  0
LINE
  5
19F
330
2
100
AcDbEntity
  8
4
100
AcDbLine
 10
505.8049497107193
 20
209.1836119728403
 30
0.0
 11
505.8049497107193
 21
95.18361147284031
 31
0.0
  0
LINE
  5
1A0
330
2
100
AcDbEntity
  8
4
100
AcDbLine
 10
494.805048210719
 20
92.18385597284032
 30
0.0
 11
494.805048210719
 21
210.6800864728402
 31
0.0
  0
LINE
  5
1A1
330
2
100
AcDbEntity
  8
4
100
AcDbLine
 10
420.8050472107191
 20
179.1838559728403
 30
0.0
 11
420.8050472107191
 21
125.1838559728403
 31
0.0
  0
LINE
  5
1A2
330
2
100
AcDbEntity
  8
4
100
AcDbLine
 10
415.8050477107192
 20
178.1838554728403
 30
0.0
 11
415.8050477107192
 21
126.1838564728403
 31
0.0
  0
LINE
  5
1A3
330
2
100
AcDbEntity
  8
4
100
AcDbLine
 10
434.8050482107194
 20
92.18385597284032
 30
0.0
 11
434.8050482107194
 21
210.6800864728402
 31
0.0
  0
LINE
  5
1A4
330
2
100
AcDbEntity
  8
4
100
AcDbLine
 10
428.8050482107194
 20
152.1838559728403
 30
0.0
 11
428.8050482107194
 21
209.1838559728403
 31
0.0
  0
LINE
  5
1A5
330
2
100
AcDbEntity
  8
4
100
AcDbLine
 10
563.805048210719
 20
161.6838554728404
 30
0.0
 11
564.8050472107191
 21
160.6838564728403
 31
0.0
  0
LINE
  5
1A6
330
2
100
AcDbEntity
  8
2
100
AcDbLine
 10
498.2049987107191
 20
210.1838564728404
 30
0.0
 11
498.2049987107191
 21
94.18361247284031
 31
0.0
  0
LINE
  5
1A7
330
2
100
AcDbEntity
  8
4
100
AcDbLine
 10
514.8048027107191
 20
142.1838554728404
 30
0.0
 11
534.8050472107191
 21
142.1838554728404
 31
0.0
  0
LINE
  5
1A8
330
2
100
AcDbEntity
  8
L-CENTER
 48
2.0
100
AcDbLine
 10
567.7166147107193
 20
152.1838559728403
 30
0.0
 11
361.8934817107195
 21
152.1838559728403
 31
0.0
  0
LINE
  5
1A9
330
2
100
AcDbEntity
  8
4
100
AcDbLine
 10
493.8050477107192
 20
58.18402347284029
 30
0.0
 11
493.8050477107192
 21
152.1838559728403
 31
0.0
  0
LINE
  5
1AA
330
2
100
AcDbEntity
  8
4
100
AcDbLine
 10
428.8050482107194
 20
55.18402347284029
 30
0.0
 11
428.8050482107194
 21
69.18402447284029
 31
0.0
  0
LINE
  5
1AB
330
2
100
AcDbEntity
  8
4
100
AcDbLine
 10
435.8050472107191
 20
58.18402347284029
 30
0.0
 11
435.8050472107191
 21
152.1838559728403
 31
0.0
  0
LINE
  5
1AC
330
2
100
AcDbEntity
  8
4
100
AcDbLine
 10
430.8050477107192
 20
88.00400897284021
 30
0.0
 11
430.8050477107192
 21
59.18400897284027
 31
0.0
  0
LINE
  5
1AD
330
2
100
AcDbEntity
  8
4
100
AcDbLine
 10
518.805048210719
 20
55.18402347284029
 30
0.0
 11
410.8050482107194
 21
55.18402347284029
 31
0.0
  0
LINE
  5
1AE
330
2
100
AcDbEntity
  8
4
100
AcDbLine
 10
519.8050472107191
 20
39.18402447284029
 30
0.0
 11
409.8050477107192
 21
39.18402447284029
 31
0.0
  0
LINE
  5
1AF
330
2
100
AcDbEntity
  8
L-CENTER
 48
2.0
100
AcDbLine
 10
421.8050477107192
 20
34.10541007443931
 30
0.0
 11
421.8050477107192
 21
60.88833607443917
 31
0.0
  0
LINE
  5
1B0
330
2
100
AcDbEntity
  8
4
100
AcDbLine
 10
409.8050477107192
 20
39.18402447284029
 30
0.0
 11
409.8050477107192
 21
54.18402447284029
 31
0.0
  0
ARC
  5
1B1
330
2
100
AcDbEntity
  8
4
100
AcDbCircle
 10
410.8050482107194
 20
54.18402447284029
 30
0.0
 40
1.0000005
100
AcDbArc
 50
90.0
 51
180.0
  0
LINE
  5
1B2
330
2
100
AcDbEntity
  8
L-CENTER
 48
2.0
100
AcDbLine
 10
423.222682710719
 20
59.18400897284027
 30
0.0
 11
437.0728202107191
 21
59.18400897284027
 31
0.0
  0
LINE
  5
1B3
330
2
100
AcDbEntity
  8
4
100
AcDbLine
 10
427.8050477107192
 20
55.18402347284029
 30
0.0
 11
427.8050477107192
 21
63.93400947284033
 31
0.0
  0
LINE
  5
1B4
330
2
100
AcDbEntity
  8
4
100
AcDbLine
 10
427.8050477107192
 20
63.93400947284033
 30
0.0
 11
428.8050482107194
 21
63.93400947284033
 31
0.0
  0
ARC
  5
1B5
330
2
100
AcDbEntity
  8
4
100
AcDbCircle
 10
432.8050472107191
 20
58.18402347284029
 30
0.0
 40
3.0
100
AcDbArc
 50
270.0
 51
0.0
  0
ARC
  5
1B6
330
2
100
AcDbEntity
  8
4
100
AcDbCircle
 10
496.8050477107192
 20
58.18402347284029
 30
0.0
 40
3.0
100
AcDbArc
 50
180.0002860014283
 51
270.0
  0
LINE
  5
1B7
330
2
100
AcDbEntity
  8
L-CENTER
 48
2.0
100
AcDbLine
 10
507.8050472107191
 20
34.10541007443931
 30
0.0
 11
507.8050472107191
 21
60.88833607443917
 31
0.0
  0
LINE
  5
1B8
330
2
100
AcDbEntity
  8
4
100
AcDbLine
 10
519.8050472107191
 20
39.18402447284029
 30
0.0
 11
519.8050472107191
 21
54.18402447284029
 31
0.0
  0
ARC
  5
1B9
330
2
100
AcDbEntity
  8
4
100
AcDbCircle
 10
518.805048210719
 20
54.18402447284029
 30
0.0
 40
1.0000005
100
AcDbArc
 50
0.0
 51
90.0
  0
CIRCLE
  5
1BA
330
2
100
AcDbEntity
  8
4
100
AcDbCircle
 10
464.8050482107194
 20
99.18402447284029
 30
0.0
 40
19.9999995
  0
LINE
  5
1BB
330
2
100
AcDbEntity
  8
L-CENTER
 48
2.0
100
AcDbLine
 10
416.7087155365491
 20
99.18402447284029
 30
0.0
 11
496.8415366141202
 21
99.18402447284029
 31
0.0
  0
CIRCLE
  5
1BC
330
2
100
AcDbEntity
  8
4
100
AcDbCircle
 10
464.8050482107194
 20
99.18402447284029
 30
0.0
 40
28.9999995
  0
LINE
  5
1BD
330
2
100
AcDbEntity
  8
4
100
AcDbLine
 10
428.8050482107194
 20
106.8506039728403
 30
0.0
 11
420.8050472107191
 21
125.1838559728403
 31
0.0
  0
LINE
  5
1BE
330
2
100
AcDbEntity
  8
4
100
AcDbLine
 10
428.8050482107194
 20
152.1838559728403
 30
0.0
 11
428.8050482107194
 21
95.18385597284032
 31
0.0
  0
LINE
  5
1BF
330
2
100
AcDbEntity
  8
4
100
AcDbLine
 10
425.8050482107194
 20
86.68400847284033
 30
0.0
 11
425.8050482107194
 21
111.6838559728403
 31
0.0
  0
LINE
  5
1C0
330
2
100
AcDbEntity
  8
4
100
AcDbLine
 10
420.8050472107191
 20
86.68400847284033
 30
0.0
 11
420.8050472107191
 21
111.6838559728403
 31
0.0
  0
LINE
  5
1C1
330
2
100
AcDbEntity
  8
4
100
AcDbLine
 10
428.8050482107194
 20
95.18385597284032
 30
0.0
 11
428.8050482107194
 21
84.18402447284029
 31
0.0
  0
LINE
  5
1C2
330
2
100
AcDbEntity
  8
4
100
AcDbLine
 10
427.8050477107192
 20
109.1422604728403
 30
0.0
 11
427.8050477107192
 21
86.68400847284033
 31
0.0
  0
LINE
  5
1C3
330
2
100
AcDbEntity
  8
4
100
AcDbLine
 10
428.8050482107194
 20
94.18385547284038
 30
0.0
 11
428.8050482107194
 21
87.68400897284027
 31
0.0
  0
LINE
  5
1C4
330
2
100
AcDbEntity
  8
4
100
AcDbLine
 10
420.8050472107191
 20
86.68400847284033
 30
0.0
 11
427.8050477107192
 21
86.68400847284033
 31
0.0
  0
ARC
  5
1C5
330
2
100
AcDbEntity
  8
4
100
AcDbCircle
 10
429.8050472107191
 20
70.1840234728403
 30
0.0
 40
1.0000005
100
AcDbArc
 50
270.0
 51
0.0
  0
LINE
  5
1C6
330
2
100
AcDbEntity
  8
4
100
AcDbLine
 10
429.8050472107191
 20
69.18402447284029
 30
0.0
 11
428.8050482107194
 21
69.18402447284029
 31
0.0
  0
ARC
  5
1C7
330
2
100
AcDbEntity
  8
4
100
AcDbCircle
 10
429.8050472107191
 20
83.18402397284035
 30
0.0
 40
1.0000005
100
AcDbArc
 50
0.0
 51
90.0
  0
LINE
  5
1C8
330
2
100
AcDbEntity
  8
4
100
AcDbLine
 10
429.8050472107191
 20
84.18402447284029
 30
0.0
 11
428.8050482107194
 21
84.18402447284029
 31
0.0
  0
LINE
  5
1C9
330
2
100
AcDbEntity
  8
4
100
AcDbLine
 10
428.8050482107194
 20
87.68400897284027
 30
0.0
 11
427.8050477107192
 21
87.68400897284027
 31
0.0
  0
LINE
  5
1CA
330
2
100
AcDbEntity
  8
4
100
AcDbLine
 10
425.8050482107194
 20
105.4338554728404
 30
0.0
 11
420.8050472107191
 21
105.4338554728404
 31
0.0
  0
LINE
  5
1CB
330
2
100
AcDbEntity
  8
4
100
AcDbLine
 10
425.8050482107194
 20
92.93402397284035
 30
0.0
 11
420.8050472107191
 21
92.93402397284035
 31
0.0
  0
LINE
  5
1CC
330
2
100
AcDbEntity
  8
4
100
AcDbLine
 10
426.6959822107194
 20
111.6838559728403
 30
0.0
 11
420.8050472107191
 21
111.6838559728403
 31
0.0
  0
LINE
  5
1CD
330
2
100
AcDbEntity
  8
4
100
AcDbLine
 10
429.8050472107191
 20
94.18385547284038
 30
0.0
 11
434.8138367107192
 21
94.18385547284038
 31
0.0
  0
ARC
  5
1CE
330
2
100
AcDbEntity
  8
4
100
AcDbCircle
 10
429.8050472107191
 20
95.18385597284032
 30
0.0
 40
1.0000005
100
AcDbArc
 50
180.0
 51
270.0
  0
LINE
  5
1CF
330
2
100
AcDbEntity
  8
4
100
AcDbLine
 10
434.8050482107194
 20
92.18385597284032
 30
0.0
 11
435.8050472107191
 21
92.18385597284032
 31
0.0
  0
LINE
  5
1D0
330
2
100
AcDbEntity
  8
4
100
AcDbLine
 10
415.8050477107192
 20
126.1838564728403
 30
0.0
 11
420.8050472107191
 21
125.1838559728403
 31
0.0
  0
LINE
  5
1D1
330
2
100
AcDbEntity
  8
4
100
AcDbLine
 10
494.805048210719
 20
94.18361247284031
 30
0.0
 11
504.8049492107191
 21
94.18361247284031
 31
0.0
  0
LINE
  5
1D2
330
2
100
AcDbEntity
  8
4
100
AcDbLine
 10
494.805048210719
 20
92.18385597284032
 30
0.0
 11
493.8050477107192
 21
92.18385597284032
 31
0.0
  0
ARC
  5
1D3
330
2
100
AcDbEntity
  8
4
100
AcDbCircle
 10
504.8049492107191
 20
95.18361147284031
 30
0.0
 40
1.0000005
100
AcDbArc
 50
270.0
 51
0.0
  0
LINE
  5
1D4
330
2
100
AcDbEntity
  8
4
100
AcDbLine
 10
513.8048022107189
 20
102.1838564728403
 30
0.0
 11
505.8049497107193
 21
102.1838564728403
 31
0.0
  0
LINE
  5
1D5
330
2
100
AcDbEntity
  8
4
100
AcDbLine
 10
507.7002207107191
 20
119.6607404728403
 30
0.0
 11
508.8048027107191
 21
125.1838559728403
 31
0.0
  0
LINE
  5
1D6
330
2
100
AcDbEntity
  8
4
100
AcDbLine
 10
513.000847210719
 20
126.0229679728403
 30
0.0
 11
508.8048027107191
 21
125.1838559728403
 31
0.0
  0
LINE
  5
1D7
330
2
100
AcDbEntity
  8
4
100
AcDbLine
 10
514.8048027107191
 20
132.1838564728403
 30
0.0
 11
513.8048022107189
 21
132.1838564728403
 31
0.0
  0
ARC
  5
1D8
330
2
100
AcDbEntity
  8
4
100
AcDbCircle
 10
512.8048032107192
 20
127.0034354728404
 30
0.0
 40
0.9999375
100
AcDbArc
 50
281.3072019999947
 51
0.0
  0
LINE
  5
1D9
330
2
100
AcDbEntity
  8
4
100
AcDbLine
 10
534.8050472107191
 20
142.6838564728403
 30
0.0
 11
563.805048210719
 21
142.6838564728403
 31
0.0
  0
LINE
  5
1DA
330
2
100
AcDbEntity
  8
4
100
AcDbLine
 10
564.8050472107191
 20
143.6838554728404
 30
0.0
 11
563.805048210719
 21
142.6838564728403
 31
0.0
  0
LINE
  5
1DE
330
2
100
AcDbEntity
  8
4
100
AcDbLine
 10
514.8048027107191
 20
162.1838564728403
 30
0.0
 11
534.8050472107191
 21
162.1838564728403
 31
0.0
  0
LINE
  5
1EE
330
2
100
AcDbEntity
  8
4
100
AcDbLine
 10
478.8050477107192
 20
213.1838564728404
 30
0.0
 11
450.8052917107191
 21
213.1838564728404
 31
0.0
  0
LINE
  5
1EF
330
2
100
AcDbEntity
  8
4
100
AcDbLine
 10
477.3050477107192
 20
214.6838564728404
 30
0.0
 11
452.3050472107191
 21
214.6838564728404
 31
0.0
  0
LINE
  5
1F0
330
2
100
AcDbEntity
  8
4
100
AcDbLine
 10
477.3050477107192
 20
216.6838559728403
 30
0.0
 11
452.3050472107191
 21
216.6838559728403
 31
0.0
  0
LINE
  5
1F1
330
2
100
AcDbEntity
  8
4
100
AcDbLine
 10
475.630242210719
 20
220.6838564728404
 30
0.0
 11
453.9796082107193
 21
220.6838564728404
 31
0.0
  0
ARC
  5
1F2
330
2
100
AcDbEntity
  8
4
100
AcDbCircle
 10
464.8050482107194
 20
-87.81614402715968
 30
0.0
 40
300.0
100
AcDbArc
 50
84.26082999999805
 51
95.73917000000195
  0
ARC
  5
1F3
330
2
100
AcDbEntity
  8
4
100
AcDbCircle
 10
429.8050472107191
 20
209.1838559728403
 30
0.0
 40
1.0000005
100
AcDbArc
 50
90.0
 51
180.0
  0
LINE
  5
1F4
330
2
100
AcDbEntity
  8
4
100
AcDbLine
 10
420.8050482107194
 20
193.18402447284
 30
0.0
 11
420.8050482107194
 21
180.0041829553905
 31
0.0
  0
LINE
  5
1F5
330
2
100
AcDbEntity
  8
4
100
AcDbLine
 10
420.8050482107194
 20
179.18402447284
 30
0.0
 11
428.8050482107194
 21
196.9440793910026
 31
0.0
  0
LINE
  5
1F6
330
2
100
AcDbEntity
  8
4
100
AcDbLine
 10
415.8050477107192
 20
178.1838554728403
 30
0.0
 11
420.8050472107191
 21
179.1838559728403
 31
0.0
  0
ARC
  5
1F7
330
2
100
AcDbEntity
  8
4
100
AcDbCircle
 10
419.8050482107194
 20
180.0041829553905
 30
0.0
 40
1.0
100
AcDbArc
 50
282.8208783152739
 51
0.0
  0
LINE
  5
1F8
330
2
100
AcDbEntity
  8
4
100
AcDbLine
 10
421.8050482107194
 20
194.18402447284
 30
0.0
 11
427.5617840740344
 21
194.18402447284
 31
0.0
  0
ARC
  5
1F9
330
2
100
AcDbEntity
  8
4
100
AcDbCircle
 10
421.8050482107194
 20
193.18402447284
 30
0.0
 40
1.0
100
AcDbArc
 50
90.0
 51
180.0
  0
ARC
  5
1FA
330
2
100
AcDbEntity
  8
4
100
AcDbCircle
 10
426.9154631678082
 20
195.18402447284
 30
0.0
 40
1.0
100
AcDbArc
 50
270.0
 51
335.7508619348791
  0
LINE
  5
1FB
330
2
100
AcDbEntity
  8
4
100
AcDbLine
 10
429.8050472107191
 20
210.1838564728404
 30
0.0
 11
434.8138367107192
 21
210.1838564728404
 31
0.0
  0
LINE
  5
1FC
330
2
100
AcDbEntity
  8
4
100
AcDbLine
 10
453.9796082107193
 20
216.6838559728403
 30
0.0
 11
453.9796082107193
 21
220.6838564728404
 31
0.0
  0
LINE
  5
1FD
330
2
100
AcDbEntity
  8
4
100
AcDbLine
 10
453.3050477107192
 20
213.1838564728404
 30
0.0
 11
453.3050477107192
 21
214.6838564728404
 31
0.0
  0
LINE
  5
1FE
330
2
100
AcDbEntity
  8
4
100
AcDbLine
 10
452.3050472107191
 20
214.6838564728404
 30
0.0
 11
452.3050472107191
 21
216.6838559728403
 31
0.0
  0
LINE
  5
1FF
330
2
100
AcDbEntity
  8
4
100
AcDbLine
 10
450.8052917107191
 20
212.8098809728403
 30
0.0
 11
450.8052917107191
 21
213.1838564728404
 31
0.0
  0
ARC
  5
200
330
2
100
AcDbEntity
  8
4
100
AcDbCircle
 10
449.8052912107194
 20
212.8098809728403
 30
0.0
 40
1.0000005
100
AcDbArc
 50
272.856408000001
 51
0.0
  0
ARC
  5
201
330
2
100
AcDbEntity
  8
4
100
AcDbCircle
 10
504.8049497107193
 20
209.1836119728403
 30
0.0
 40
1.0
100
AcDbArc
 50
0.0
 51
90.0
  0
LINE
  5
202
330
2
100
AcDbEntity
  8
L-CENTER
 48
2.0
100
AcDbLine
 10
513.9365412107193
 20
189.3071744728403
 30
0.0
 11
486.676283160614
 21
189.3071744728403
 31
0.0
  0
LINE
  5
203
330
2
100
AcDbEntity
  8
4
100
AcDbLine
 10
514.8048027107191
 20
172.1838554728403
 30
0.0
 11
513.8048022107189
 21
172.1838554728403
 31
0.0
  0
LINE
  5
204
330
2
100
AcDbEntity
  8
4
100
AcDbLine
 10
513.000847210719
 20
178.3445009728403
 30
0.0
 11
508.8048027107191
 21
179.1838559728403
 31
0.0
  0
LINE
  5
205
330
2
100
AcDbEntity
  8
4
100
AcDbLine
 10
507.6301827167383
 20
185.0571744728402
 30
0.0
 11
508.8048027107191
 21
179.1838559728403
 31
0.0
  0
ARC
  5
206
330
2
100
AcDbEntity
  8
4
100
AcDbCircle
 10
512.8048032107192
 20
177.3640319728404
 30
0.0
 40
1.0000575
100
AcDbArc
 50
0.0
 51
78.6955499999933
  0
LINE
  5
207
330
2
100
AcDbEntity
  8
4
100
AcDbLine
 10
494.805048210719
 20
210.1836119728401
 30
0.0
 11
504.8049497107193
 21
210.1836119728403
 31
0.0
  0
LINE
  5
208
330
2
100
AcDbEntity
  8
4
100
AcDbLine
 10
475.630242210719
 20
216.6838559728403
 30
0.0
 11
475.630242210719
 21
220.6838564728404
 31
0.0
  0
LINE
  5
209
330
2
100
AcDbEntity
  8
4
100
AcDbLine
 10
477.3050477107192
 20
214.6838564728404
 30
0.0
 11
477.3050477107192
 21
216.6838559728403
 31
0.0
  0
LINE
  5
20A
330
2
100
AcDbEntity
  8
4
100
AcDbLine
 10
476.3050472107191
 20
213.1838564728404
 30
0.0
 11
476.3050472107191
 21
214.6838564728404
 31
0.0
  0
LINE
  5
20B
330
2
100
AcDbEntity
  8
4
100
AcDbLine
 10
478.8050477107192
 20
212.8098689728404
 30
0.0
 11
478.8050477107192
 21
213.1838564728404
 31
0.0
  0
ARC
  5
20C
330
2
100
AcDbEntity
  8
4
100
AcDbCircle
 10
479.805048210719
 20
212.8098689728404
 30
0.0
 40
1.0000005
100
AcDbArc
 50
180.0
 51
267.143544999996
  0
LINE
  5
23F
330
2
100
AcDbEntity
  8
4
100
AcDbLine
 10
534.8050472107191
 20
161.6838554728404
 30
0.0
 11
563.805048210719
 21
161.6838554728404
 31
0.0
  0
LINE
  5
240
330
2
100
AcDbEntity
  8
4
100
AcDbLine
 10
537.8050472107191
 20
163.6838564728403
 30
0.0
 11
564.8050472107191
 21
163.6838564728403
 31
0.0
  0
LINE
  5
241
330
2
100
AcDbEntity
  8
4
100
AcDbLine
 10
537.8050472107191
 20
163.6838564728403
 30
0.0
 11
537.8050472107191
 21
161.6838554728404
 31
0.0
  0
LINE
  5
273
330
2
100
AcDbEntity
  8
4
100
AcDbLine
 10
239.3504458415153
 20
55.18402347284029
 30
0.0
 11
239.3504458415153
 21
39.18402447284029
 31
0.0
  0
LINE
  5
274
330
2
100
AcDbEntity
  8
4
100
AcDbLine
 10
229.3504458415153
 20
55.18402347284029
 30
0.0
 11
229.3504458415153
 21
39.18402447284029
 31
0.0
  0
SPLINE
  5
275
330
2
100
AcDbEntity
  8
4
100
AcDbSpline
210
0.0
220
0.0
230
1.0
 70
     8
 71
     3
 72
    10
 73
     6
 74
     0
 42
0.000000001
 43
0.0000000001
 40
2.235209381867671
 40
2.235209381867671
 40
2.235209381867671
 40
2.235209381867671
 40
5.875090556585164
 40
13.86721888839414
 40
20.91869689698579
 40
20.91869689698579
 40
20.91869689698579
 40
20.91869689698579
 10
225.7044357324611
 20
55.18402347284029
 30
0.0
 10
226.1041311111581
 20
53.98310200708124
 30
0.0
 10
226.7358294561223
 20
50.19008491578575
 30
0.0
 10
219.0400503842371
 20
44.70186636296671
 30
0.0
 10
223.5940967963439
 20
41.95550863959784
 30
0.0
 10
224.1499530598527
 20
39.18402447283725
 30
0.0
  0
LINE
  5
27E
330
2
100
AcDbEntity
  8
4
100
AcDbLine
 10
507.104949710719
 20
193.5571744728403
 30
0.0
 11
507.104949710719
 21
185.0571744728403
 31
0.0
  0
LINE
  5
27F
330
2
100
AcDbEntity
  8
4
100
AcDbLine
 10
512.104949710719
 20
193.5571744728403
 30
0.0
 11
512.104949710719
 21
185.0571744728403
 31
0.0
  0
LINE
  5
280
330
2
100
AcDbEntity
  8
4
100
AcDbLine
 10
512.104949710719
 20
193.5571744728403
 30
0.0
 11
505.8049497107193
 21
193.5571744728403
 31
0.0
  0
LINE
  5
281
330
2
100
AcDbEntity
  8
4
100
AcDbLine
 10
512.104949710719
 20
185.0571744728403
 30
0.0
 11
505.8049497107193
 21
185.0571744728402
 31
0.0
  0
LINE
  5
282
330
2
100
AcDbEntity
  8
2
100
AcDbLine
 10
505.8049497107193
 20
189.3071744728403
 30
0.0
 11
507.104949710719
 21
190.6071744728403
 31
0.0
  0
LINE
  5
283
330
2
100
AcDbEntity
  8
2
100
AcDbLine
 10
505.8049497107193
 20
187.4686968417553
 30
0.0
 11
507.104949710719
 21
188.7686968417553
 31
0.0
  0
LINE
  5
284
330
2
100
AcDbEntity
  8
4
100
AcDbLine
 10
507.104949710719
 20
110.8105374728403
 30
0.0
 11
507.104949710719
 21
119.3105374728403
 31
0.0
  0
LINE
  5
285
330
2
100
AcDbEntity
  8
4
100
AcDbLine
 10
512.104949710719
 20
110.8105374728403
 30
0.0
 11
512.104949710719
 21
119.3105374728403
 31
0.0
  0
LINE
  5
286
330
2
100
AcDbEntity
  8
2
100
AcDbLine
 10
505.8049497107193
 20
116.8990151039253
 30
0.0
 11
507.104949710719
 21
115.5990151039254
 31
0.0
  0
LINE
  5
287
330
2
100
AcDbEntity
  8
2
100
AcDbLine
 10
505.8049497107193
 20
115.0605374728403
 30
0.0
 11
507.104949710719
 21
113.7605374728404
 31
0.0
  0
LINE
  5
288
330
2
100
AcDbEntity
  8
4
100
AcDbLine
 10
512.104949710719
 20
119.3105374728403
 30
0.0
 11
505.8049497107193
 21
119.3105374728404
 31
0.0
  0
LINE
  5
289
330
2
100
AcDbEntity
  8
4
100
AcDbLine
 10
512.104949710719
 20
110.8105374728403
 30
0.0
 11
505.8049497107193
 21
110.8105374728403
 31
0.0
  0
LINE
  5
28A
330
2
100
AcDbEntity
  8
L-CENTER
 48
2.0
100
AcDbLine
 10
513.9365412107193
 20
115.0605374728403
 30
0.0
 11
486.676283160614
 21
115.0605374728403
 31
0.0
  0
LINE
  5
28B
330
2
100
AcDbEntity
  8
4
100
AcDbLine
 10
142.9771278415152
 20
453.7178573646872
 30
0.0
 11
142.9771278415152
 21
447.4178573646873
 31
0.0
  0
LINE
  5
28C
330
2
100
AcDbEntity
  8
4
100
AcDbLine
 10
142.9771278415152
 20
453.7178573646872
 30
0.0
 11
151.4771278415152
 21
453.7178573646872
 31
0.0
  0
LINE
  5
28D
330
2
100
AcDbEntity
  8
4
100
AcDbLine
 10
142.9771278415152
 20
448.7178573646872
 30
0.0
 11
151.4771278415152
 21
448.7178573646872
 31
0.0
  0
LINE
  5
28E
330
2
100
AcDbEntity
  8
4
100
AcDbLine
 10
151.4771278415152
 20
453.7178573646872
 30
0.0
 11
151.4771278415154
 21
447.4178573646873
 31
0.0
  0
LINE
  5
28F
330
2
100
AcDbEntity
  8
L-CENTER
 48
2.0
100
AcDbLine
 10
147.2271278415152
 20
455.5494488646873
 30
0.0
 11
147.2271278415152
 21
428.2891908145823
 31
0.0
  0
LINE
  5
290
330
2
100
AcDbEntity
  8
4
100
AcDbLine
 10
142.9771278415152
 20
447.6800824123063
 30
0.0
 11
141.6004463415155
 21
447.4178573646873
 31
0.0
  0
LINE
  5
291
330
2
100
AcDbEntity
  8
4
100
AcDbLine
 10
225.7237648415154
 20
453.717857364687
 30
0.0
 11
225.7237648415154
 21
447.4178573646873
 31
0.0
  0
LINE
  5
292
330
2
100
AcDbEntity
  8
4
100
AcDbLine
 10
217.2237648415154
 20
453.717857364687
 30
0.0
 11
217.2237648415151
 21
447.4178573646873
 31
0.0
  0
LINE
  5
293
330
2
100
AcDbEntity
  8
4
100
AcDbLine
 10
225.7237648415154
 20
447.6800824123063
 30
0.0
 11
227.100446341515
 21
447.4178573646873
 31
0.0
  0
LINE
  5
294
330
2
100
AcDbEntity
  8
4
100
AcDbLine
 10
225.7237648415154
 20
448.7178573646872
 30
0.0
 11
217.2237648415154
 21
448.7178573646872
 31
0.0
  0
LINE
  5
295
330
2
100
AcDbEntity
  8
4
100
AcDbLine
 10
225.7237648415154
 20
453.7178573646872
 30
0.0
 11
217.2237648415154
 21
453.7178573646872
 31
0.0
  0
LINE
  5
296
330
2
100
AcDbEntity
  8
L-CENTER
 48
2.0
100
AcDbLine
 10
221.4737648415154
 20
455.5494488646873
 30
0.0
 11
221.4737648415154
 21
428.2891908145821
 31
0.0
  0
LINE
  5
47B
330
2
100
AcDbEntity
  8
4
100
AcDbLine
 10
467.3050472107194
 20
108.1840244728403
 30
0.0
 11
467.3050472107194
 21
103.1840249728403
 31
0.0
  0
LINE
  5
47C
330
2
100
AcDbEntity
  8
4
100
AcDbLine
 10
462.3050477107193
 20
108.1840244728403
 30
0.0
 11
462.3050477107193
 21
103.1840249728403
 31
0.0
  0
LINE
  5
47D
330
2
100
AcDbEntity
  8
4
100
AcDbLine
 10
462.3050477107193
 20
103.1840249728403
 30
0.0
 11
467.3050472107194
 21
103.1840249728403
 31
0.0
  0
LINE
  5
47E
330
2
100
AcDbEntity
  8
4
100
AcDbLine
 10
467.3050472107194
 20
108.1840244728403
 30
0.0
 11
462.3050477107193
 21
108.1840244728403
 31
0.0
  0
ARC
  5
47F
330
2
100
AcDbEntity
  8
4
100
AcDbCircle
 10
464.8050482107192
 20
99.18402447284029
 30
0.0
 40
6.999999000000001
100
AcDbArc
 50
110.9248399388124
 51
69.07516100000275
  0
CIRCLE
  5
48D
330
2
100
AcDbEntity
  8
4
100
AcDbCircle
 10
184.3504463415153
 20
59.18400897284027
 30
0.0
 40
5.2500005
  0
LINE
  5
492
330
2
100
AcDbEntity
  8
4
100
AcDbLine
 10
186.8504468415153
 20
163.6838564728404
 30
0.0
 11
181.8504458415154
 21
163.6838564728404
 31
0.0
  0
LINE
  5
493
330
2
100
AcDbEntity
  8
4
100
AcDbLine
 10
181.8504458415154
 20
158.6838554728404
 30
0.0
 11
186.8504468415153
 21
158.6838554728404
 31
0.0
  0
LINE
  5
494
330
2
100
AcDbEntity
  8
4
100
AcDbLine
 10
181.8504458415154
 20
158.6838554728404
 30
0.0
 11
181.8504458415154
 21
163.6838564728404
 31
0.0
  0
LINE
  5
495
330
2
100
AcDbEntity
  8
4
100
AcDbLine
 10
186.8504468415153
 20
158.6838554728404
 30
0.0
 11
186.8504468415153
 21
163.6838564728404
 31
0.0
  0
ARC
  5
496
330
2
100
AcDbEntity
  8
4
100
AcDbCircle
 10
184.3504463415152
 20
152.1838559728403
 30
0.0
 40
9.499945499999999
100
AcDbArc
 50
105.2576160761622
 51
74.74229800000028
  0
LINE
  5
497
330
2
100
AcDbEntity
  8
4
100
AcDbLine
 10
415.8050477107192
 20
172.1838554728403
 30
0.0
 11
414.8050477107192
 21
172.1838554728403
 31
0.0
  0
LINE
  5
498
330
2
100
AcDbEntity
  8
4
100
AcDbLine
 10
415.8050477107192
 20
132.1838564728403
 30
0.0
 11
414.8050477107192
 21
132.1838564728403
 31
0.0
  0
LINE
  5
499
330
2
100
AcDbEntity
  8
4
100
AcDbLine
 10
414.8050477107192
 20
172.1838554728403
 30
0.0
 11
414.8050477107192
 21
132.1838564728403
 31
0.0
  0
CIRCLE
  5
49A
330
2
100
AcDbEntity
  8
4
100
AcDbCircle
 10
184.3504463415153
 20
152.1838559728403
 30
0.0
 40
19.99999949999994
  0
LINE
  5
49B
330
2
100
AcDbEntity
  8
4
100
AcDbLine
 10
164.3504468415153
 20
356.4178568646873
 30
0.0
 11
204.3504458415152
 21
356.4178568646871
 31
0.0
  0
LINE
  5
49C
330
2
100
AcDbEntity
  8
4
100
AcDbLine
 10
194.3504468415151
 20
356.4178568646869
 30
0.0
 11
194.3504468415149
 21
336.4176123646871
 31
0.0
  0
LINE
  5
49D
330
2
100
AcDbEntity
  8
4
100
AcDbLine
 10
174.3504458415152
 20
356.4178568646871
 30
0.0
 11
174.350445841515
 21
336.4176123646873
 31
0.0
  0
LINE
  5
49E
330
2
100
AcDbEntity
  8
4
100
AcDbLine
 10
164.3504468415153
 20
356.4178568646873
 30
0.0
 11
164.3504468415153
 21
357.4178573646875
 31
0.0
  0
LINE
  5
49F
330
2
100
AcDbEntity
  8
4
100
AcDbLine
 10
181.8504463415149
 20
330.9176123646872
 30
0.0
 11
181.8504463415145
 21
306.4176123646872
 31
0.0
  0
LINE
  5
4A0
330
2
100
AcDbEntity
  8
4
100
AcDbLine
 10
186.8504463415149
 20
330.9176123646872
 30
0.0
 11
186.8504463415147
 21
306.4176123646872
 31
0.0
  0
LINE
  5
4A1
330
2
100
AcDbEntity
  8
4
100
AcDbLine
 10
193.850445841515
 20
336.4176123646872
 30
0.0
 11
193.8504458415148
 21
307.4176113646873
 31
0.0
  0
LINE
  5
4A2
330
2
100
AcDbEntity
  8
4
100
AcDbLine
 10
174.8504468415149
 20
336.4176123646873
 30
0.0
 11
174.8504468415147
 21
307.4176113646874
 31
0.0
  0
LINE
  5
4A3
330
2
100
AcDbEntity
  8
4
100
AcDbLine
 10
194.3504468415149
 20
336.4176123646871
 30
0.0
 11
174.350445841515
 21
336.4176123646873
 31
0.0
  0
ARC
  5
4A4
330
2
100
AcDbEntity
  8
4
100
AcDbCircle
 10
184.3504463415149
 20
330.9176123646872
 30
0.0
 40
2.5
100
AcDbArc
 50
0.0
 51
180.0
  0
LINE
  5
4A5
330
2
100
AcDbEntity
  8
4
100
AcDbLine
 10
174.8504468415147
 20
307.4176113646874
 30
0.0
 11
181.8504463415148
 21
307.4176113646873
 31
0.0
  0
LINE
  5
4A6
330
2
100
AcDbEntity
  8
4
100
AcDbLine
 10
192.8504468415147
 20
306.4176123646872
 30
0.0
 11
175.8504458415146
 21
306.4176123646873
 31
0.0
  0
LINE
  5
4A7
330
2
100
AcDbEntity
  8
4
100
AcDbLine
 10
174.8504468415147
 20
307.4176113646874
 30
0.0
 11
175.8504458415148
 21
306.4176123646873
 31
0.0
  0
LINE
  5
4A8
330
2
100
AcDbEntity
  8
4
100
AcDbLine
 10
192.8504468415147
 20
306.4176123646872
 30
0.0
 11
193.8504458415148
 21
307.4176113646873
 31
0.0
  0
LINE
  5
4A9
330
2
100
AcDbEntity
  8
4
100
AcDbLine
 10
186.8504463415148
 20
307.4176113646873
 30
0.0
 11
193.8504458415148
 21
307.4176113646873
 31
0.0
  0
LINE
  5
4AA
330
2
100
AcDbEntity
  8
4
100
AcDbLine
 10
204.3504458415152
 20
356.4178568646871
 30
0.0
 11
204.3504458415152
 21
357.4178573646873
 31
0.0
  0
LINE
  5
4AD
330
2
100
AcDbEntity
  8
4
100
AcDbLine
 10
364.8050492107197
 20
143.6838554728404
 30
0.0
 11
364.8050492107197
 21
163.6838564728403
 31
0.0
  0
LINE
  5
4AE
330
2
100
AcDbEntity
  8
4
100
AcDbLine
 10
394.8050492107197
 20
142.1838554728404
 30
0.0
 11
394.8050492107197
 21
162.1838564728403
 31
0.0
  0
LINE
  5
4AF
330
2
100
AcDbEntity
  8
4
100
AcDbLine
 10
365.8050482107199
 20
161.6838554728404
 30
0.0
 11
365.8050482107199
 21
142.6838564728403
 31
0.0
  0
LINE
  5
4B0
330
2
100
AcDbEntity
  8
4
100
AcDbLine
 10
414.8052937107198
 20
172.1838554728403
 30
0.0
 11
414.8052937107198
 21
132.1838564728403
 31
0.0
  0
LINE
  5
4B1
330
2
100
AcDbEntity
  8
4
100
AcDbLine
 10
365.8050482107199
 20
161.6838554728404
 30
0.0
 11
364.8050492107197
 21
160.6838564728403
 31
0.0
  0
LINE
  5
4B2
330
2
100
AcDbEntity
  8
4
100
AcDbLine
 10
414.8052937107198
 20
142.1838554728404
 30
0.0
 11
394.8050492107197
 21
142.1838554728404
 31
0.0
  0
LINE
  5
4B3
330
2
100
AcDbEntity
  8
4
100
AcDbLine
 10
414.8052937107198
 20
132.1838564728403
 30
0.0
 11
415.8052942107199
 21
132.1838564728403
 31
0.0
  0
LINE
  5
4B4
330
2
100
AcDbEntity
  8
4
100
AcDbLine
 10
394.8050492107197
 20
142.6838564728403
 30
0.0
 11
365.8050482107199
 21
142.6838564728403
 31
0.0
  0
LINE
  5
4B5
330
2
100
AcDbEntity
  8
4
100
AcDbLine
 10
364.8050492107197
 20
143.6838554728404
 30
0.0
 11
365.8050482107199
 21
142.6838564728403
 31
0.0
  0
LINE
  5
4B6
330
2
100
AcDbEntity
  8
4
100
AcDbLine
 10
414.8052937107198
 20
162.1838564728403
 30
0.0
 11
394.8050492107197
 21
162.1838564728403
 31
0.0
  0
LINE
  5
4B7
330
2
100
AcDbEntity
  8
4
100
AcDbLine
 10
414.8052937107198
 20
172.1838554728403
 30
0.0
 11
415.8052942107199
 21
172.1838554728403
 31
0.0
  0
LINE
  5
4B8
330
2
100
AcDbEntity
  8
4
100
AcDbLine
 10
394.8050492107197
 20
161.6838554728404
 30
0.0
 11
365.8050482107199
 21
161.6838554728404
 31
0.0
  0
LINE
  5
4B9
330
2
100
AcDbEntity
  8
4
100
AcDbLine
 10
391.8050492107197
 20
163.6838564728403
 30
0.0
 11
364.8050492107197
 21
163.6838564728403
 31
0.0
  0
LINE
  5
4BA
330
2
100
AcDbEntity
  8
4
100
AcDbLine
 10
391.8050492107197
 20
163.6838564728403
 30
0.0
 11
391.8050492107197
 21
161.6838554728404
 31
0.0
  0
ENDSEC
  0
SECTION
  2
OBJECTS
  0
DICTIONARY
  5
C
330
0
100
AcDbDictionary
281
     1
  3
ACAD_CIP_PREVIOUS_PRODUCT_INFO
350
432
  3
ACAD_COLOR
350
4A
  3
ACAD_DETAILVIEWSTYLE
350
42C
  3
ACAD_GROUP
350
37
  3
ACAD_LAYOUT
350
19
  3
ACAD_MATERIAL
350
E
  3
ACAD_MLEADERSTYLE
350
4D
  3
ACAD_MLINESTYLE
350
38
  3
ACAD_PLOTSETTINGS
350
39
  3
ACAD_PLOTSTYLENAME
350
B
  3
ACAD_SCALELIST
350
4B
  3
ACAD_SECTIONVIEWSTYLE
350
42A
  3
ACAD_TABLESTYLE
350
4C
  3
ACAD_VISUALSTYLE
350
2F
  3
ACDBHEADERROUNDTRIPXREC
350
4D7
  3
AcDbVariableDictionary
350
409
  3
DWGPROPS
350
4DA
  0
DICTIONARY
  5
31
330
2C
100
AcDbDictionary
280
     1
281
     1
  3
ACAD_XREC_ROUNDTRIP
360
4DB
  0
DICTIONARY
  5
22
330
21
100
AcDbDictionary
280
     1
281
     1
  3
ACAD_LAYERSTATES
360
23
  0
DICTIONARY
  5
8
330
7
100
AcDbDictionary
280
     1
281
     1
  3
ADSK_XREC_LAYER_RECONCILED
360
9
  0
DICTIONARY
  5
313
330
312
100
AcDbDictionary
280
     1
281
     1
  3
ADSK_XREC_LAYER_RECONCILED
360
314
  0
DICTIONARY
  5
4F
330
4E
100
AcDbDictionary
280
     1
281
     1
  3
ADSK_XREC_LAYER_RECONCILED
360
50
  0
DICTIONARY
  5
69
330
68
100
AcDbDictionary
280
     1
281
     1
  3
ADSK_XREC_LAYER_RECONCILED
360
6A
  0
DICTIONARY
  5
70
330
6F
100
AcDbDictionary
280
     1
281
     1
  3
ADSK_XREC_LAYER_RECONCILED
360
71
  0
DICTIONARY
  5
30B
330
30A
100
AcDbDictionary
280
     1
281
     1
  3
ADSK_XREC_LAYER_RECONCILED
360
30C
  0
DICTIONARY
  5
3
330
2
100
AcDbDictionary
280
     1
281
     1
  3
ACAD_SORTENTS
360
407
  0
XRECORD
  5
432
102
{ACAD_REACTORS
330
C
102
}
330
C
100
AcDbXrecord
280
     1
300
ACD
300
2014
300
ACD_F_S
  0
DICTIONARY
  5
4A
102
{ACAD_REACTORS
330
C
102
}
330
C
100
AcDbDictionary
281
     1
  0
DICTIONARY
  5
42C
102
{ACAD_REACTORS
330
C
102
}
330
C
100
AcDbDictionary
281
     1
  3
Imperial24
350
42D
  0
DICTIONARY
  5
37
102
{ACAD_REACTORS
330
C
102
}
330
C
100
AcDbDictionary
281
     1
  0
DICTIONARY
  5
19
102
{ACAD_REACTORS
330
C
102
}
330
C
100
AcDbDictionary
281
     1
  3
Model
350
18
  3
ﾚｲｱｳﾄ1
350
20
  0
DICTIONARY
  5
E
102
{ACAD_REACTORS
330
C
102
}
330
C
100
AcDbDictionary
281
     1
  3
ByBlock
350
42
  3
ByLayer
350
3A
  3
Global
350
D
  0
DICTIONARY
  5
4D
102
{ACAD_REACTORS
330
C
102
}
330
C
100
AcDbDictionary
281
     1
  3
Standard
350
429
  0
DICTIONARY
  5
38
102
{ACAD_REACTORS
330
C
102
}
330
C
100
AcDbDictionary
281
     1
  3
STANDARD
350
52
  0
DICTIONARY
  5
39
102
{ACAD_REACTORS
330
C
102
}
330
C
100
AcDbDictionary
281
     1
  0
ACDBDICTIONARYWDFLT
  5
B
102
{ACAD_REACTORS
330
C
102
}
330
C
100
AcDbDictionary
281
     1
  3
Normal
350
A
100
AcDbDictionaryWithDefault
340
A
  0
DICTIONARY
  5
4B
102
{ACAD_REACTORS
330
C
102
}
330
C
100
AcDbDictionary
281
     1
  3
A0
350
56
  3
A1
350
57
  3
A2
350
58
  3
A3
350
59
  3
A4
350
5A
  3
A5
350
5B
  3
A6
350
5C
  3
A7
350
5D
  3
A8
350
5E
  3
A9
350
5F
  3
B0
350
60
  3
B1
350
61
  3
B2
350
62
  3
B3
350
63
  3
B4
350
64
  3
B5
350
65
  3
B6
350
66
  0
DICTIONARY
  5
42A
102
{ACAD_REACTORS
330
C
102
}
330
C
100
AcDbDictionary
281
     1
  3
Imperial24
350
42B
  0
DICTIONARY
  5
4C
102
{ACAD_REACTORS
330
C
102
}
330
C
100
AcDbDictionary
281
     1
  3
Standard
350
53
  0
DICTIONARY
  5
2F
102
{ACAD_REACTORS
330
C
102
}
330
C
100
AcDbDictionary
281
     1
  3
2dWireframe
350
2E
  3
Basic
350
418
  3
Brighten
350
41C
  3
ColorChange
350
420
  3
Conceptual
350
41A
  3
Dim
350
41B
  3
EdgeColorOff
350
428
  3
Facepattern
350
41F
  3
Flat
350
414
  3
FlatWithEdges
350
415
  3
Gouraud
350
416
  3
GouraudWithEdges
350
417
  3
Hidden
350
419
  3
JitterOff
350
426
  3
Linepattern
350
41E
  3
OverhangOff
350
427
  3
Realistic
350
54
  3
Shaded
350
425
  3
Shaded with edges
350
424
  3
Shades of Gray
350
421
  3
Sketchy
350
422
  3
Thicken
350
41D
  3
Wireframe
350
55
  3
X-Ray
350
423
  0
DICTIONARY
  5
4D7
102
{ACAD_REACTORS
330
C
102
}
330
C
100
AcDbDictionary
281
     1
  3
COLORDICT
350
4D8
  3
MATERIALDICT
350
4D9
  0
DICTIONARY
  5
409
102
{ACAD_REACTORS
330
C
102
}
330
C
100
AcDbDictionary
281
     1
  3
CANNOSCALE
350
40F
  3
CMLEADERSTYLE
350
40B
  3
CTABLESTYLE
350
40A
  3
CVIEWDETAILSTYLE
350
40C
  3
CVIEWSECTIONSTYLE
350
40D
  3
DIMASSOC
350
4D5
  3
HIDETEXT
350
4D6
  3
LAYEREVAL
350
411
  3
LAYERNOTIFY
350
412
  3
LIGHTINGUNITS
350
410
  3
MSLTSCALE
350
40E
  3
XCLIPFRAME
350
473
  0
XRECORD
  5
4DA
102
{ACAD_REACTORS
330
C
102
}
330
C
100
AcDbXrecord
280
     1
  1
DWGPROPS COOKIE
  2

  3

  4

  6

  7

  8
sg-d04
  9

300
=
301
=
302
=
303
=
304
=
305
=
306
=
307
=
308
=
309
=
 40
0.0
 41
2457458.313303623
 42
2457870.205919676
  1

 90
        0
  0
XRECORD
  5
4DB
102
{ACAD_REACTORS
330
31
102
}
330
31
100
AcDbXrecord
280
     1
102
VTR_0.000_0.000_1.000_1.000_VISUALSTYLE
340
2E
102
VTR_0.000_0.000_1.000_1.000_GRIDDISPLAY
 70
     3
102
VTR_0.000_0.000_1.000_1.000_GRIDMAJOR
 70
     5
102
VTR_0.000_0.000_1.000_1.000_DEFAULTLIGHTING
280
     1
102
VTR_0.000_0.000_1.000_1.000_DEFAULTLIGHTINGTYPE
 70
     1
102
VTR_0.000_0.000_1.000_1.000_BRIGHTNESS
141
0.0
102
VTR_0.000_0.000_1.000_1.000_CONTRAST
142
0.0
  0
DICTIONARY
  5
23
102
{ACAD_REACTORS
330
22
102
}
330
22
100
AcDbDictionary
281
     1
  0
XRECORD
  5
9
102
{ACAD_REACTORS
330
8
102
}
330
8
100
AcDbXrecord
280
     1
290
     1
  0
XRECORD
  5
314
102
{ACAD_REACTORS
330
313
102
}
330
313
100
AcDbXrecord
280
     1
290
     1
  0
XRECORD
  5
50
102
{ACAD_REACTORS
330
4F
102
}
330
4F
100
AcDbXrecord
280
     1
290
     1
  0
XRECORD
  5
6A
102
{ACAD_REACTORS
330
69
102
}
330
69
100
AcDbXrecord
280
     1
290
     1
  0
XRECORD
  5
71
102
{ACAD_REACTORS
330
70
102
}
330
70
100
AcDbXrecord
280
     1
290
     1
  0
XRECORD
  5
30C
102
{ACAD_REACTORS
330
30B
102
}
330
30B
100
AcDbXrecord
280
     1
290
     1
  0
SORTENTSTABLE
  5
407
102
{ACAD_REACTORS
330
3
102
}
330
3
100
AcDbSortentsTable
330
2
331
0
  5
2E0
331
7B
  5
7D
331
7C
  5
7E
331
7D
  5
7F
331
7E
  5
80
331
7F
  5
81
331
80
  5
82
331
81
  5
83
331
82
  5
84
331
83
  5
85
331
84
  5
86
331
85
  5
87
331
86
  5
88
331
87
  5
89
331
88
  5
8A
331
89
  5
8B
331
8A
  5
8C
331
8B
  5
8D
331
8C
  5
8E
331
8D
  5
8F
331
8E
  5
90
331
8F
  5
91
331
90
  5
92
331
91
  5
93
331
92
  5
95
331
93
  5
96
331
94
  5
97
331
95
  5
98
331
96
  5
99
331
97
  5
9A
331
98
  5
9B
331
99
  5
9C
331
9A
  5
9D
331
9B
  5
9E
331
9C
  5
9F
331
9D
  5
A0
331
9E
  5
A1
331
9F
  5
A2
331
A0
  5
A3
331
A1
  5
A4
331
A2
  5
A5
331
A3
  5
A6
331
A4
  5
A7
331
A5
  5
A8
331
A6
  5
A9
331
A7
  5
AA
331
A8
  5
AB
331
A9
  5
AC
331
AA
  5
AD
331
AB
  5
AE
331
AC
  5
AF
331
AD
  5
B0
331
AE
  5
B1
331
AF
  5
B2
331
B0
  5
B3
331
B1
  5
B4
331
B2
  5
B5
331
B3
  5
B6
331
B4
  5
B7
331
B5
  5
B8
331
B6
  5
B9
331
B7
  5
BA
331
B8
  5
BB
331
B9
  5
BC
331
BA
  5
BD
331
BB
  5
BE
331
BC
  5
BF
331
BD
  5
C0
331
BE
  5
C1
331
BF
  5
C2
331
C0
  5
C3
331
C1
  5
C4
331
C2
  5
C5
331
C3
  5
C6
331
C4
  5
C7
331
C5
  5
C8
331
C6
  5
C9
331
C7
  5
CA
331
C8
  5
CB
331
C9
  5
CC
331
CA
  5
CD
331
CB
  5
CE
331
CC
  5
CF
331
CD
  5
D0
331
CE
  5
D1
331
CF
  5
D2
331
D0
  5
D3
331
D1
  5
D4
331
D2
  5
D5
331
D3
  5
D6
331
D4
  5
D7
331
D5
  5
D8
331
D6
  5
D9
331
D7
  5
DC
331
D8
  5
DD
331
D9
  5
DE
331
DA
  5
DF
331
DB
  5
E0
331
DC
  5
E1
331
DD
  5
E2
331
DE
  5
E3
331
DF
  5
E4
331
E0
  5
E5
331
E1
  5
E6
331
E2
  5
E7
331
E3
  5
E8
331
E4
  5
E9
331
E5
  5
EA
331
E6
  5
EB
331
E7
  5
EC
331
E8
  5
ED
331
E9
  5
EE
331
EA
  5
EF
331
EB
  5
F0
331
EC
  5
F1
331
ED
  5
F2
331
EE
  5
F3
331
EF
  5
F4
331
F0
  5
F5
331
F1
  5
F6
331
F2
  5
F7
331
F3
  5
F8
331
F4
  5
F9
331
F5
  5
FA
331
F6
  5
FB
331
F7
  5
FC
331
F8
  5
FD
331
F9
  5
FE
331
FA
  5
FF
331
FB
  5
100
331
FC
  5
101
331
FD
  5
102
331
FE
  5
103
331
FF
  5
104
331
100
  5
105
331
101
  5
106
331
102
  5
107
331
103
  5
108
331
104
  5
109
331
105
  5
10A
331
106
  5
10B
331
107
  5
10C
331
108
  5
10D
331
109
  5
10E
331
10A
  5
10F
331
10B
  5
110
331
10C
  5
111
331
10D
  5
112
331
10E
  5
113
331
10F
  5
114
331
110
  5
115
331
111
  5
116
331
112
  5
117
331
113
  5
118
331
114
  5
119
331
115
  5
11A
331
116
  5
11B
331
117
  5
11C
331
118
  5
11D
331
119
  5
11E
331
11A
  5
11F
331
11B
  5
120
331
11C
  5
121
331
11D
  5
122
331
11E
  5
123
331
11F
  5
124
331
120
  5
125
331
121
  5
126
331
122
  5
127
331
123
  5
128
331
124
  5
129
331
125
  5
12A
331
126
  5
12B
331
127
  5
12C
331
128
  5
12D
331
129
  5
12E
331
12A
  5
12F
331
12B
  5
130
331
12C
  5
131
331
12D
  5
132
331
12E
  5
133
331
12F
  5
134
331
130
  5
135
331
131
  5
136
331
132
  5
137
331
133
  5
138
331
134
  5
139
331
135
  5
13A
331
136
  5
13B
331
137
  5
13C
331
138
  5
13D
331
139
  5
13E
331
13A
  5
13F
331
13B
  5
140
331
13C
  5
141
331
13D
  5
142
331
13E
  5
143
331
13F
  5
144
331
140
  5
145
331
141
  5
146
331
142
  5
147
331
143
  5
148
331
144
  5
149
331
145
  5
14A
331
147
  5
14C
331
148
  5
14D
331
149
  5
14E
331
14A
  5
14F
331
14B
  5
150
331
14C
  5
151
331
14D
  5
152
331
14E
  5
153
331
14F
  5
154
331
150
  5
155
331
151
  5
156
331
152
  5
157
331
153
  5
158
331
155
  5
15A
331
156
  5
15B
331
158
  5
15D
331
159
  5
15E
331
15A
  5
15F
331
15B
  5
160
331
15C
  5
161
331
15D
  5
162
331
15E
  5
163
331
15F
  5
164
331
160
  5
165
331
161
  5
166
331
162
  5
167
331
163
  5
168
331
164
  5
169
331
165
  5
16A
331
166
  5
16B
331
167
  5
16C
331
168
  5
16D
331
169
  5
16E
331
16A
  5
16F
331
16B
  5
170
331
16C
  5
171
331
16D
  5
172
331
16E
  5
173
331
16F
  5
174
331
170
  5
175
331
171
  5
176
331
172
  5
177
331
173
  5
178
331
174
  5
179
331
175
  5
17A
331
176
  5
17B
331
177
  5
17C
331
178
  5
17D
331
179
  5
17E
331
17A
  5
17F
331
17B
  5
180
331
17C
  5
181
331
17D
  5
182
331
17E
  5
183
331
17F
  5
184
331
180
  5
185
331
181
  5
186
331
182
  5
187
331
183
  5
188
331
184
  5
189
331
185
  5
18A
331
186
  5
18B
331
187
  5
18C
331
188
  5
18D
331
189
  5
18E
331
18A
  5
18F
331
18B
  5
190
331
18C
  5
191
331
18D
  5
192
331
18E
  5
193
331
18F
  5
194
331
190
  5
195
331
191
  5
196
331
192
  5
197
331
193
  5
198
331
194
  5
199
331
195
  5
19A
331
197
  5
19C
331
198
  5
19D
331
199
  5
19E
331
19A
  5
19F
331
19B
  5
1A0
331
19C
  5
1A1
331
19D
  5
1A2
331
19E
  5
1A3
331
19F
  5
1A4
331
1A0
  5
1A5
331
1A1
  5
1A6
331
1A2
  5
1A7
331
1A3
  5
1A9
331
1A4
  5
1AA
331
1A5
  5
1AB
331
1A6
  5
1AC
331
1A7
  5
1AD
331
1A8
  5
1AE
331
1A9
  5
1AF
331
1AA
  5
1B0
331
1AB
  5
1B1
331
1AC
  5
1B2
331
1AD
  5
1B3
331
1AE
  5
1B4
331
1AF
  5
1B5
331
1B0
  5
1B6
331
1B1
  5
1B7
331
1B2
  5
1B8
331
1B3
  5
1B9
331
1B4
  5
1BA
331
1B5
  5
1BB
331
1B6
  5
1BC
331
1B7
  5
1BD
331
1B8
  5
1BE
331
1B9
  5
1BF
331
1BA
  5
1C0
331
1BB
  5
1C1
331
1BC
  5
1C2
331
1BD
  5
1C3
331
1BE
  5
1C4
331
1BF
  5
1C5
331
1C0
  5
1C6
331
1C1
  5
1C7
331
1C2
  5
1C8
331
1C3
  5
1C9
331
1C4
  5
1CA
331
1C5
  5
1CB
331
1C6
  5
1CC
331
1C7
  5
1CD
331
1C8
  5
1CE
331
1C9
  5
1CF
331
1CA
  5
1D0
331
1CB
  5
1D1
331
1CC
  5
1D2
331
1CD
  5
1D3
331
1CE
  5
1D4
331
1CF
  5
1D5
331
1D0
  5
1D6
331
1D1
  5
1D7
331
1D2
  5
1D8
331
1D3
  5
1D9
331
1D4
  5
1DA
331
1D5
  5
1DB
331
1D6
  5
1DC
331
1D7
  5
1DD
331
1D8
  5
1DE
331
1D9
  5
1DF
331
1DA
  5
1E0
331
1DE
  5
1E4
331
1EE
  5
1F4
331
1EF
  5
1F5
331
1F0
  5
1F6
331
1F1
  5
1F7
331
1F2
  5
1F8
331
1F3
  5
1F9
331
1F4
  5
1FA
331
1F5
  5
1FB
331
1F6
  5
1FC
331
1F7
  5
1FD
331
1F8
  5
1FE
331
1F9
  5
1FF
331
1FA
  5
200
331
1FB
  5
201
331
1FC
  5
202
331
1FD
  5
203
331
1FE
  5
204
331
1FF
  5
205
331
200
  5
206
331
201
  5
207
331
202
  5
208
331
203
  5
209
331
204
  5
20A
331
205
  5
20B
331
206
  5
20C
331
207
  5
20D
331
208
  5
20E
331
209
  5
20F
331
20A
  5
210
331
20B
  5
211
331
20C
  5
212
331
23F
  5
246
331
240
  5
247
331
241
  5
248
331
273
  5
279
331
274
  5
27A
331
275
  5
27B
331
27E
  5
284
331
27F
  5
285
331
280
  5
286
331
281
  5
287
331
282
  5
288
331
283
  5
289
331
284
  5
28A
331
285
  5
28B
331
286
  5
28C
331
287
  5
28D
331
288
  5
28E
331
289
  5
28F
331
28A
  5
290
331
28B
  5
291
331
28C
  5
292
331
28D
  5
293
331
28E
  5
294
331
28F
  5
295
331
290
  5
296
331
291
  5
297
331
292
  5
298
331
293
  5
299
331
294
  5
29A
331
295
  5
29B
331
296
  5
29C
331
47B
  5
481
331
47C
  5
482
331
47D
  5
483
331
47E
  5
485
331
47F
  5
487
331
48D
  5
94
331
492
  5
493
331
493
  5
494
331
494
  5
495
331
495
  5
496
331
496
  5
497
331
497
  5
498
331
498
  5
499
331
499
  5
1A8
  0
ACDBDETAILVIEWSTYLE
  5
42D
102
{ACAD_REACTORS
330
42C
102
}
102
{ACAD_XDICTIONARY
360
447
102
}
330
42C
100
AcDbModelDocViewStyle
 70
     0
  3
Imperial24
290
     0
100
AcDbDetailViewStyle
 70
     0
 71
     0
 90
        3
 71
     1
340
25
 40
0.24
340
0
 40
0.24
300

 40
0.36
280
     3
 71
     2
340
16
 90
       25
 71
     3
340
25
 40
0.24
 90
        1
 40
0.75
 90
        1
300
%<\AcVar ViewType \f "%tc1">% %<\AcVar ViewDetailId>%\PSCALE %<\AcVar ViewScale \f "%sn">%
 71
     4
340
16
 90
       25
340
16
 90
       25
280
     0
  0
LAYOUT
  5
18
102
{ACAD_REACTORS
330
19
102
}
330
19
100
AcDbPlotSettings
  1

  2
Bullzip PDF Printer.pc3
  4
A3
  6

 40
0.2
 41
0.0
 42
0.0
 43
0.0
 44
420.2
 45
297.1
 46
25.0
 47
12.0
 48
39.99999990666674
 49
0.0
140
612.999998594167
141
408.74999904625
142
1.0
143
1.5
 70
 11936
 72
     1
 73
     0
 74
     4
  7
monochrome.ctb
 75
     0
147
0.6666666666666666
148
-39.99999990666674
149
0.0
100
AcDbLayout
  1
Model
 70
     0
 71
     0
 10
0.0
 20
0.0
 11
12.0
 21
9.0
 12
0.0
 22
0.0
 32
0.0
 14
115.3847468415152
 24
27.2968952321097
 34
0.0
 15
567.7166147107193
 25
510.9239242893573
 35
0.0
146
0.0
 13
0.0
 23
0.0
 33
0.0
 16
1.0
 26
0.0
 36
0.0
 17
0.0
 27
1.0
 37
0.0
 76
     0
330
2
331
2D
1001
ACAD_PSEXT
1000
Bullzip PDF Printer.pc3
1000
Bullzip PDF Printer
1000
BULLZIP
1000
Bullzip PDF Printer 10.1.0.1871
1070
     0
  0
LAYOUT
  5
20
102
{ACAD_REACTORS
330
19
102
}
330
19
100
AcDbPlotSettings
  1

  2
TiffWriter Advance
  4

  6

 40
0.0
 41
0.0
 42
0.0
 43
0.0
 44
0.0
 45
0.0
 46
0.0
 47
0.0
 48
0.0
 49
0.0
140
0.0
141
0.0
142
1.0
143
1.0
 70
   688
 72
     0
 73
     0
 74
     5
  7
monochrome.ctb
 75
    16
147
1.0
148
0.0
149
0.0
100
AcDbLayout
  1
ﾚｲｱｳﾄ1
 70
     0
 71
     1
 10
0.0
 20
0.0
 11
12.0
 21
9.0
 12
0.0
 22
0.0
 32
0.0
 14
1.000000000000000E+20
 24
1.000000000000000E+20
 34
1.000000000000000E+20
 15
-1.000000000000000E+20
 25
-1.000000000000000E+20
 35
-1.000000000000000E+20
146
0.0
 13
0.0
 23
0.0
 33
0.0
 16
1.0
 26
0.0
 36
0.0
 17
0.0
 27
1.0
 37
0.0
 76
     0
330
1B
  0
MATERIAL
  5
42
102
{ACAD_REACTORS
330
E
102
}
102
{ACAD_XDICTIONARY
360
4DD
102
}
330
E
100
AcDbMaterial
  1
ByBlock
 72
     0
 73
     2
 43
0.0208333333333333
 43
0.0
 43
0.0
 43
0.0
 43
0.0
 43
0.0208333333333333
 43
0.0
 43
0.0
 43
0.0
 43
0.0
 43
1.0
 43
0.0
 43
0.0
 43
0.0
 43
0.0
 43
1.0
 77
     0
 78
     2
 47
0.0208333333333333
 47
0.0
 47
0.0
 47
0.0
 47
0.0
 47
0.0208333333333333
 47
0.0
 47
0.0
 47
0.0
 47
0.0
 47
1.0
 47
0.0
 47
0.0
 47
0.0
 47
0.0
 47
1.0
171
     0
172
     2
 49
0.0208333333333333
 49
0.0
 49
0.0
 49
0.0
 49
0.0
 49
0.0208333333333333
 49
0.0
 49
0.0
 49
0.0
 49
0.0
 49
1.0
 49
0.0
 49
0.0
 49
0.0
 49
0.0
 49
1.0
175
     0
176
     2
142
0.0208333333333333
142
0.0
142
0.0
142
0.0
142
0.0
142
0.0208333333333333
142
0.0
142
0.0
142
0.0
142
0.0
142
1.0
142
0.0
142
0.0
142
0.0
142
0.0
142
1.0
179
     0
270
     2
144
0.0208333333333333
144
0.0
144
0.0
144
0.0
144
0.0
144
0.0208333333333333
144
0.0
144
0.0
144
0.0
144
0.0
144
1.0
144
0.0
144
0.0
144
0.0
144
0.0
144
1.0
274
     2
147
0.0208333333333333
147
0.0
147
0.0
147
0.0
147
0.0
147
0.0208333333333333
147
0.0
147
0.0
147
0.0
147
0.0
147
1.0
147
0.0
147
0.0
147
0.0
147
0.0
147
1.0
  0
MATERIAL
  5
3A
102
{ACAD_REACTORS
330
E
102
}
102
{ACAD_XDICTIONARY
360
4DF
102
}
330
E
100
AcDbMaterial
  1
ByLayer
 72
     0
 73
     2
 43
0.0208333333333333
 43
0.0
 43
0.0
 43
0.0
 43
0.0
 43
0.0208333333333333
 43
0.0
 43
0.0
 43
0.0
 43
0.0
 43
1.0
 43
0.0
 43
0.0
 43
0.0
 43
0.0
 43
1.0
 77
     0
 78
     2
 47
0.0208333333333333
 47
0.0
 47
0.0
 47
0.0
 47
0.0
 47
0.0208333333333333
 47
0.0
 47
0.0
 47
0.0
 47
0.0
 47
1.0
 47
0.0
 47
0.0
 47
0.0
 47
0.0
 47
1.0
171
     0
172
     2
 49
0.0208333333333333
 49
0.0
 49
0.0
 49
0.0
 49
0.0
 49
0.0208333333333333
 49
0.0
 49
0.0
 49
0.0
 49
0.0
 49
1.0
 49
0.0
 49
0.0
 49
0.0
 49
0.0
 49
1.0
175
     0
176
     2
142
0.0208333333333333
142
0.0
142
0.0
142
0.0
142
0.0
142
0.0208333333333333
142
0.0
142
0.0
142
0.0
142
0.0
142
1.0
142
0.0
142
0.0
142
0.0
142
0.0
142
1.0
179
     0
270
     2
144
0.0208333333333333
144
0.0
144
0.0
144
0.0
144
0.0
144
0.0208333333333333
144
0.0
144
0.0
144
0.0
144
0.0
144
1.0
144
0.0
144
0.0
144
0.0
144
0.0
144
1.0
274
     2
147
0.0208333333333333
147
0.0
147
0.0
147
0.0
147
0.0
147
0.0208333333333333
147
0.0
147
0.0
147
0.0
147
0.0
147
1.0
147
0.0
147
0.0
147
0.0
147
0.0
147
1.0
  0
MATERIAL
  5
D
102
{ACAD_REACTORS
330
E
102
}
102
{ACAD_XDICTIONARY
360
4E1
102
}
330
E
100
AcDbMaterial
  1
Global
 72
     0
 73
     2
 43
0.0208333333333333
 43
0.0
 43
0.0
 43
0.0
 43
0.0
 43
0.0208333333333333
 43
0.0
 43
0.0
 43
0.0
 43
0.0
 43
1.0
 43
0.0
 43
0.0
 43
0.0
 43
0.0
 43
1.0
 77
     0
 78
     2
 47
0.0208333333333333
 47
0.0
 47
0.0
 47
0.0
 47
0.0
 47
0.0208333333333333
 47
0.0
 47
0.0
 47
0.0
 47
0.0
 47
1.0
 47
0.0
 47
0.0
 47
0.0
 47
0.0
 47
1.0
171
     0
172
     2
 49
0.0208333333333333
 49
0.0
 49
0.0
 49
0.0
 49
0.0
 49
0.0208333333333333
 49
0.0
 49
0.0
 49
0.0
 49
0.0
 49
1.0
 49
0.0
 49
0.0
 49
0.0
 49
0.0
 49
1.0
175
     0
176
     2
142
0.0208333333333333
142
0.0
142
0.0
142
0.0
142
0.0
142
0.0208333333333333
142
0.0
142
0.0
142
0.0
142
0.0
142
1.0
142
0.0
142
0.0
142
0.0
142
0.0
142
1.0
179
     0
270
     2
144
0.0208333333333333
144
0.0
144
0.0
144
0.0
144
0.0
144
0.0208333333333333
144
0.0
144
0.0
144
0.0
144
0.0
144
1.0
144
0.0
144
0.0
144
0.0
144
0.0
144
1.0
274
     2
147
0.0208333333333333
147
0.0
147
0.0
147
0.0
147
0.0
147
0.0208333333333333
147
0.0
147
0.0
147
0.0
147
0.0
147
1.0
147
0.0
147
0.0
147
0.0
147
0.0
147
1.0
1001
ACAD
1070
    -1
1070
     3
1070
     0
1000

1071
        0
  0
MLEADERSTYLE
  5
429
102
{ACAD_REACTORS
330
4D
102
}
102
{ACAD_XDICTIONARY
360
4E3
102
}
330
4D
100
AcDbMLeaderStyle
170
     2
171
     1
172
     0
 90
        2
 40
0.0
 41
0.0
173
     1
 91
-1056964608
340
28
 92
       -2
290
     1
 42
0.09
291
     1
 43
0.36
  3
Standard
341
0
 44
0.18
300

342
25
174
     1
178
     6
175
     1
176
     0
 93
-1056964608
 45
0.18
292
     0
297
     0
 46
0.18
343
0
 94
-1056964608
 47
1.0
 49
1.0
140
1.0
293
     1
141
0.0
294
     1
177
     0
142
1.0
295
     1
296
     0
143
0.125
1001
ACAD_MLEADERVER
1070
     2
  0
MLINESTYLE
  5
52
102
{ACAD_REACTORS
330
38
102
}
330
38
100
AcDbMlineStyle
  2
STANDARD
 70
     0
  3

 62
     0
 51
90.0
 52
90.0
 71
     2
 49
0.5
 62
   256
  6
BYLAYER
 49
-0.5
 62
   256
  6
BYLAYER
  0
ACDBPLACEHOLDER
  5
A
102
{ACAD_REACTORS
330
B
102
}
330
B
  0
SCALE
  5
56
102
{ACAD_REACTORS
330
4B
102
}
330
4B
100
AcDbScale
 70
     0
300
1:1
140
1.0
141
1.0
290
     1
  0
SCALE
  5
57
102
{ACAD_REACTORS
330
4B
102
}
330
4B
100
AcDbScale
 70
     0
300
1/128" = 1'-0"
140
0.0078125
141
12.0
290
     0
  0
SCALE
  5
58
102
{ACAD_REACTORS
330
4B
102
}
330
4B
100
AcDbScale
 70
     0
300
1/64" = 1'-0"
140
0.015625
141
12.0
290
     0
  0
SCALE
  5
59
102
{ACAD_REACTORS
330
4B
102
}
330
4B
100
AcDbScale
 70
     0
300
1/32" = 1'-0"
140
0.03125
141
12.0
290
     0
  0
SCALE
  5
5A
102
{ACAD_REACTORS
330
4B
102
}
330
4B
100
AcDbScale
 70
     0
300
1/16" = 1'-0"
140
0.0625
141
12.0
290
     0
  0
SCALE
  5
5B
102
{ACAD_REACTORS
330
4B
102
}
330
4B
100
AcDbScale
 70
     0
300
3/32" = 1'-0"
140
0.09375
141
12.0
290
     0
  0
SCALE
  5
5C
102
{ACAD_REACTORS
330
4B
102
}
330
4B
100
AcDbScale
 70
     0
300
1/8" = 1'-0"
140
0.125
141
12.0
290
     0
  0
SCALE
  5
5D
102
{ACAD_REACTORS
330
4B
102
}
330
4B
100
AcDbScale
 70
     0
300
3/16" = 1'-0"
140
0.1875
141
12.0
290
     0
  0
SCALE
  5
5E
102
{ACAD_REACTORS
330
4B
102
}
330
4B
100
AcDbScale
 70
     0
300
1/4" = 1'-0"
140
0.25
141
12.0
290
     0
  0
SCALE
  5
5F
102
{ACAD_REACTORS
330
4B
102
}
330
4B
100
AcDbScale
 70
     0
300
3/8" = 1'-0"
140
0.375
141
12.0
290
     0
  0
SCALE
  5
60
102
{ACAD_REACTORS
330
4B
102
}
330
4B
100
AcDbScale
 70
     0
300
1/2" = 1'-0"
140
0.5
141
12.0
290
     0
  0
SCALE
  5
61
102
{ACAD_REACTORS
330
4B
102
}
330
4B
100
AcDbScale
 70
     0
300
3/4" = 1'-0"
140
0.75
141
12.0
290
     0
  0
SCALE
  5
62
102
{ACAD_REACTORS
330
4B
102
}
330
4B
100
AcDbScale
 70
     0
300
1" = 1'-0"
140
1.0
141
12.0
290
     0
  0
SCALE
  5
63
102
{ACAD_REACTORS
330
4B
102
}
330
4B
100
AcDbScale
 70
     0
300
1-1/2" = 1'-0"
140
1.5
141
12.0
290
     0
  0
SCALE
  5
64
102
{ACAD_REACTORS
330
4B
102
}
330
4B
100
AcDbScale
 70
     0
300
3" = 1'-0"
140
3.0
141
12.0
290
     0
  0
SCALE
  5
65
102
{ACAD_REACTORS
330
4B
102
}
330
4B
100
AcDbScale
 70
     0
300
6" = 1'-0"
140
6.0
141
12.0
290
     0
  0
SCALE
  5
66
102
{ACAD_REACTORS
330
4B
102
}
330
4B
100
AcDbScale
 70
     0
300
1'-0" = 1'-0"
140
12.0
141
12.0
290
     0
  0
ACDBSECTIONVIEWSTYLE
  5
42B
102
{ACAD_REACTORS
330
42A
102
}
102
{ACAD_XDICTIONARY
360
445
102
}
330
42A
100
AcDbModelDocViewStyle
 70
     0
  3
Imperial24
290
     0
100
AcDbSectionViewStyle
 70
     0
 71
     0
 90
       78
 71
     1
340
25
 40
0.24
340
0
340
0
 40
0.24
300
I, O, Q, S, X, Z
 40
0.48
 90
        3
 40
0.18
 90
        1
 71
     2
340
16
 90
       25
340
16
 90
       50
 40
0.24
 40
0.0
 40
0.24
 71
     3
340
25
 40
0.24
 90
        1
 40
0.75
 90
        1
300
%<\AcVar ViewType \f "%tc1">% %<\AcVar ViewSectionStartId>%-%<\AcVar ViewSectionEndId>%\PSCALE %<\AcVar ViewScale \f "%sn">%
 71
     4
300
ANSI31
 40
1.0
 90
        0
290
     0
290
     0
 90
        6
 40
0.0
 40
1.570796326794897
 40
0.2617993877991494
 40
1.308996938995747
 40
-0.2617993877991494
 40
1.832595714594046
  0
TABLESTYLE
  5
53
102
{ACAD_REACTORS
330
4C
102
}
330
4C
100
AcDbTableStyle
  3
Standard
 70
     0
 71
     0
 40
0.06
 41
0.06
280
     0
281
     0
  7
STANDARD
140
0.18
170
     2
 62
     0
 63
   257
283
     0
274
    -2
284
     1
 64
     0
275
    -2
285
     1
 65
     0
276
    -2
286
     1
 66
     0
277
    -2
287
     1
 67
     0
278
    -2
288
     1
 68
     0
279
    -2
289
     1
 69
     0
  7
STANDARD
140
0.25
170
     5
 62
     0
 63
   257
283
     0
274
    -2
284
     1
 64
     0
275
    -2
285
     1
 65
     0
276
    -2
286
     1
 66
     0
277
    -2
287
     1
 67
     0
278
    -2
288
     1
 68
     0
279
    -2
289
     1
 69
     0
  7
STANDARD
140
0.18
170
     5
 62
     0
 63
   257
283
     0
274
    -2
284
     1
 64
     0
275
    -2
285
     1
 65
     0
276
    -2
286
     1
 66
     0
277
    -2
287
     1
 67
     0
278
    -2
288
     1
 68
     0
279
    -2
289
     1
 69
     0
  0
VISUALSTYLE
  5
2E
102
{ACAD_REACTORS
330
2F
102
}
102
{ACAD_XDICTIONARY
360
4E6
102
}
330
2F
100
AcDbVisualStyle
  2
2dWireframe
 70
     4
 71
     0
 72
     2
 73
     0
 90
        0
 40
0.6
 41
30.0
 62
     5
 63
     7
 74
     1
 91
        4
 64
     7
 65
   257
 75
     1
175
     1
 42
1.0
 92
        0
 66
   257
 43
1.0
 76
     1
 77
     6
 78
     2
 67
     7
 79
     5
170
     0
171
     0
290
     0
174
     0
 93
        1
 44
0.0
173
     0
291
     0
 45
0.0
1001
ACAD
1000
AcDbSavedByObjectVersion
1070
     0
  0
VISUALSTYLE
  5
418
102
{ACAD_REACTORS
330
2F
102
}
102
{ACAD_XDICTIONARY
360
4E8
102
}
330
2F
100
AcDbVisualStyle
  2
Basic
 70
     7
 71
     1
 72
     0
 73
     1
 90
        0
 40
0.6
 41
30.0
 62
     5
 63
     7
 74
     0
 91
        4
 64
     7
 65
   257
 75
     1
175
     1
 42
1.0
 92
        8
 66
     7
 43
1.0
 76
     1
 77
     6
 78
     2
 67
     7
 79
     5
170
     0
171
     0
290
     0
174
     0
 93
        1
 44
0.0
173
     0
291
     1
 45
0.0
1001
ACAD
1000
AcDbSavedByObjectVersion
1070
     0
  0
VISUALSTYLE
  5
41C
102
{ACAD_REACTORS
330
2F
102
}
102
{ACAD_XDICTIONARY
360
4EA
102
}
330
2F
100
AcDbVisualStyle
  2
Brighten
 70
    12
 71
     2
 72
     2
 73
     0
 90
        0
 40
0.6
 41
30.0
 62
     5
 63
     7
 74
     1
 91
        4
 64
     7
 65
   257
 75
     1
175
     1
 42
1.0
 92
        8
 66
     7
 43
1.0
 76
     1
 77
     6
 78
     2
 67
     7
 79
     5
170
     0
171
     0
290
     0
174
     0
 93
        1
 44
50.0
173
     0
291
     1
 45
0.0
1001
ACAD
1000
AcDbSavedByObjectVersion
1070
     0
  0
VISUALSTYLE
  5
420
102
{ACAD_REACTORS
330
2F
102
}
102
{ACAD_XDICTIONARY
360
4EC
102
}
330
2F
100
AcDbVisualStyle
  2
ColorChange
 70
    16
 71
     2
 72
     2
 73
     3
 90
        0
 40
0.6
 41
30.0
 62
     5
 63
     8
 74
     1
 91
        4
 64
     7
 65
   257
 75
     1
175
     1
 42
1.0
 92
        8
 66
     8
 43
1.0
 76
     1
 77
     6
 78
     2
 67
     7
 79
     5
170
     0
171
     0
290
     0
174
     0
 93
        1
 44
0.0
173
     0
291
     1
 45
0.0
1001
ACAD
1000
AcDbSavedByObjectVersion
1070
     0
  0
VISUALSTYLE
  5
41A
102
{ACAD_REACTORS
330
2F
102
}
102
{ACAD_XDICTIONARY
360
4EE
102
}
330
2F
100
AcDbVisualStyle
  2
Conceptual
 70
     9
 71
     3
 72
     2
 73
     0
 90
        0
 40
0.6
 41
30.0
 62
     5
 63
     7
 74
     2
 91
        2
 64
     7
 65
   257
 75
     1
175
     1
 42
179.0
 92
        8
 66
     7
 43
1.0
 76
     1
 77
     6
 78
     2
 67
     7
 79
     3
170
     0
171
     0
290
     0
174
     0
 93
        1
 44
0.0
173
     0
291
     0
 45
0.0
1001
ACAD
1000
AcDbSavedByObjectVersion
1070
     0
  0
VISUALSTYLE
  5
41B
102
{ACAD_REACTORS
330
2F
102
}
102
{ACAD_XDICTIONARY
360
4F0
102
}
330
2F
100
AcDbVisualStyle
  2
Dim
 70
    11
 71
     2
 72
     2
 73
     0
 90
        0
 40
0.6
 41
30.0
 62
     5
 63
     7
 74
     1
 91
        4
 64
     7
 65
   257
 75
     1
175
     1
 42
1.0
 92
        8
 66
     7
 43
1.0
 76
     1
 77
     6
 78
     2
 67
     7
 79
     5
170
     0
171
     0
290
     0
174
     0
 93
        1
 44
-50.0
173
     0
291
     1
 45
0.0
1001
ACAD
1000
AcDbSavedByObjectVersion
1070
     0
  0
VISUALSTYLE
  5
428
102
{ACAD_REACTORS
330
2F
102
}
102
{ACAD_XDICTIONARY
360
4F2
102
}
330
2F
100
AcDbVisualStyle
  2
EdgeColorOff
 70
    22
 71
     2
 72
     2
 73
     0
 90
        0
 40
0.6
 41
30.0
 62
     5
 63
     7
 74
     1
 91
        4
 64
     7
 65
   257
 75
     1
175
     1
 42
1.0
 92
        8
 66
     7
 43
1.0
 76
     1
 77
     6
 78
     2
 67
     7
 79
     5
170
     0
171
     0
290
     0
174
     0
 93
        1
 44
0.0
173
     0
291
     1
 45
0.0
1001
ACAD
1000
AcDbSavedByObjectVersion
1070
     0
  0
VISUALSTYLE
  5
41F
102
{ACAD_REACTORS
330
2F
102
}
102
{ACAD_XDICTIONARY
360
4F4
102
}
330
2F
100
AcDbVisualStyle
  2
Facepattern
 70
    15
 71
     2
 72
     2
 73
     0
 90
        0
 40
0.6
 41
30.0
 62
     5
 63
     7
 74
     1
 91
        4
 64
     7
 65
   257
 75
     1
175
     1
 42
1.0
 92
        8
 66
     7
 43
1.0
 76
     1
 77
     6
 78
     2
 67
     7
 79
     5
170
     0
171
     0
290
     0
174
     0
 93
        1
 44
0.0
173
     0
291
     1
 45
0.0
1001
ACAD
1000
AcDbSavedByObjectVersion
1070
     0
  0
VISUALSTYLE
  5
414
102
{ACAD_REACTORS
330
2F
102
}
102
{ACAD_XDICTIONARY
360
4F6
102
}
330
2F
100
AcDbVisualStyle
  2
Flat
 70
     0
 71
     2
 72
     1
 73
     1
 90
        2
 40
0.6
 41
30.0
 62
     5
 63
     7
 74
     0
 91
        0
 64
     7
 65
   257
 75
     1
175
     1
 42
1.0
 92
        8
 66
     7
 43
1.0
 76
     1
 77
     6
 78
     2
 67
     7
 79
     5
170
     0
171
     0
290
     0
174
     0
 93
       13
 44
0.0
173
     0
291
     1
 45
0.0
1001
ACAD
1000
AcDbSavedByObjectVersion
1070
     0
  0
VISUALSTYLE
  5
415
102
{ACAD_REACTORS
330
2F
102
}
102
{ACAD_XDICTIONARY
360
4F8
102
}
330
2F
100
AcDbVisualStyle
  2
FlatWithEdges
 70
     1
 71
     2
 72
     1
 73
     1
 90
        2
 40
0.6
 41
30.0
 62
     5
 63
     7
 74
     1
 91
        0
 64
     7
 65
   257
 75
     1
175
     1
 42
1.0
 92
        0
 66
   257
 43
1.0
 76
     1
 77
     6
 78
     2
 67
     7
 79
     5
170
     0
171
     0
290
     0
174
     0
 93
       13
 44
0.0
173
     0
291
     1
 45
0.0
1001
ACAD
1000
AcDbSavedByObjectVersion
1070
     0
  0
VISUALSTYLE
  5
416
102
{ACAD_REACTORS
330
2F
102
}
102
{ACAD_XDICTIONARY
360
4FA
102
}
330
2F
100
AcDbVisualStyle
  2
Gouraud
 70
     2
 71
     2
 72
     2
 73
     1
 90
        2
 40
0.6
 41
30.0
 62
     5
 63
     7
 74
     0
 91
        0
 64
     7
 65
   257
 75
     1
175
     1
 42
1.0
 92
        0
 66
     7
 43
1.0
 76
     1
 77
     6
 78
     2
 67
     7
 79
     5
170
     0
171
     0
290
     0
174
     0
 93
       13
 44
0.0
173
     0
291
     1
 45
0.0
1001
ACAD
1000
AcDbSavedByObjectVersion
1070
     0
  0
VISUALSTYLE
  5
417
102
{ACAD_REACTORS
330
2F
102
}
102
{ACAD_XDICTIONARY
360
4FC
102
}
330
2F
100
AcDbVisualStyle
  2
GouraudWithEdges
 70
     3
 71
     2
 72
     2
 73
     1
 90
        2
 40
0.6
 41
30.0
 62
     5
 63
     7
 74
     1
 91
        0
 64
     7
 65
   257
 75
     1
175
     1
 42
1.0
 92
        0
 66
   257
 43
1.0
 76
     1
 77
     6
 78
     2
 67
     7
 79
     5
170
     0
171
     0
290
     0
174
     0
 93
       13
 44
0.0
173
     0
291
     1
 45
0.0
1001
ACAD
1000
AcDbSavedByObjectVersion
1070
     0
  0
VISUALSTYLE
  5
419
102
{ACAD_REACTORS
330
2F
102
}
102
{ACAD_XDICTIONARY
360
4FE
102
}
330
2F
100
AcDbVisualStyle
  2
Hidden
 70
     6
 71
     1
 72
     2
 73
     2
 90
        0
 40
0.6
 41
30.0
 62
     5
 63
     7
 74
     2
 91
        2
 64
     7
 65
   257
 75
     2
175
     1
 42
40.0
 92
        0
 66
   257
 43
1.0
 76
     1
 77
     6
 78
     2
 67
     7
 79
     3
170
     0
171
     0
290
     0
174
     0
 93
        1
 44
0.0
173
     0
291
     0
 45
0.0
1001
ACAD
1000
AcDbSavedByObjectVersion
1070
     0
  0
VISUALSTYLE
  5
426
102
{ACAD_REACTORS
330
2F
102
}
102
{ACAD_XDICTIONARY
360
500
102
}
330
2F
100
AcDbVisualStyle
  2
JitterOff
 70
    20
 71
     2
 72
     2
 73
     0
 90
        0
 40
0.6
 41
30.0
 62
     5
 63
     7
 74
     1
 91
        4
 64
     7
 65
   257
 75
     1
175
     1
 42
1.0
 92
       10
 66
     7
 43
1.0
 76
     1
 77
     6
 78
     2
 67
     7
 79
     5
170
     0
171
     0
290
     0
174
     0
 93
        1
 44
0.0
173
     0
291
     1
 45
0.0
1001
ACAD
1000
AcDbSavedByObjectVersion
1070
     0
  0
VISUALSTYLE
  5
41E
102
{ACAD_REACTORS
330
2F
102
}
102
{ACAD_XDICTIONARY
360
502
102
}
330
2F
100
AcDbVisualStyle
  2
Linepattern
 70
    14
 71
     2
 72
     2
 73
     0
 90
        0
 40
0.6
 41
30.0
 62
     5
 63
     7
 74
     1
 91
        4
 64
     7
 65
   257
 75
     7
175
     7
 42
1.0
 92
        8
 66
     7
 43
1.0
 76
     1
 77
     6
 78
     2
 67
     7
 79
     5
170
     0
171
     0
290
     0
174
     0
 93
        1
 44
0.0
173
     0
291
     1
 45
0.0
1001
ACAD
1000
AcDbSavedByObjectVersion
1070
     0
  0
VISUALSTYLE
  5
427
102
{ACAD_REACTORS
330
2F
102
}
102
{ACAD_XDICTIONARY
360
504
102
}
330
2F
100
AcDbVisualStyle
  2
OverhangOff
 70
    21
 71
     2
 72
     2
 73
     0
 90
        0
 40
0.6
 41
30.0
 62
     5
 63
     7
 74
     1
 91
        4
 64
     7
 65
   257
 75
     1
175
     1
 42
1.0
 92
        9
 66
     7
 43
1.0
 76
     1
 77
     6
 78
     2
 67
     7
 79
     5
170
     0
171
     0
290
     0
174
     0
 93
        1
 44
0.0
173
     0
291
     1
 45
0.0
1001
ACAD
1000
AcDbSavedByObjectVersion
1070
     0
  0
VISUALSTYLE
  5
54
102
{ACAD_REACTORS
330
2F
102
}
102
{ACAD_XDICTIONARY
360
506
102
}
330
2F
100
AcDbVisualStyle
  2
Realistic
 70
     8
 71
     2
 72
     3
 73
     0
 90
        2
 40
0.6
 41
30.0
 62
     5
 63
     7
 74
     0
 91
        0
 64
     7
 65
   257
 75
     1
175
     1
 42
1.0
 92
        8
 66
   257
 43
1.0
 76
     1
 77
     6
 78
     2
 67
     7
 79
     3
170
     0
171
     0
290
     0
174
     0
 93
       13
 44
0.0
173
     0
291
     0
 45
0.0
1001
ACAD
1000
AcDbSavedByObjectVersion
1070
     0
  0
VISUALSTYLE
  5
425
102
{ACAD_REACTORS
330
2F
102
}
102
{ACAD_XDICTIONARY
360
508
102
}
330
2F
100
AcDbVisualStyle
  2
Shaded
 70
    27
 71
     2
 72
     2
 73
     1
 90
        2
 40
0.6
 41
30.0
 62
     5
 63
     7
 74
     0
 91
        4
 64
     7
 65
   257
 75
     1
175
     1
 42
1.0
 92
        8
 66
   257
 43
1.0
 76
     1
 77
     6
 78
     2
 67
     8
 79
     3
170
     0
171
     0
290
     0
174
     0
 93
        5
 44
0.0
173
     0
291
     0
 45
0.0
1001
ACAD
1000
AcDbSavedByObjectVersion
1070
     0
  0
VISUALSTYLE
  5
424
102
{ACAD_REACTORS
330
2F
102
}
102
{ACAD_XDICTIONARY
360
50A
102
}
330
2F
100
AcDbVisualStyle
  2
Shaded with edges
 70
    26
 71
     2
 72
     2
 73
     1
 90
        2
 40
0.6
 41
30.0
 62
     5
 63
     7
 74
     1
 91
       10
 64
     7
 65
   257
 75
     2
175
     1
 42
1.0
 92
        8
 66
   257
 43
1.0
 76
     1
 77
     6
 78
     2
 67
     7
 79
     3
170
     0
171
     0
290
     0
174
     0
 93
        5
 44
0.0
173
     0
291
     0
 45
0.0
1001
ACAD
1000
AcDbSavedByObjectVersion
1070
     0
  0
VISUALSTYLE
  5
421
102
{ACAD_REACTORS
330
2F
102
}
102
{ACAD_XDICTIONARY
360
50C
102
}
330
2F
100
AcDbVisualStyle
  2
Shades of Gray
 70
    23
 71
     2
 72
     2
 73
     3
 90
        0
 40
0.6
 41
30.0
 62
     5
 63
     7
 74
     2
 91
        2
 64
     7
 65
     7
 75
     1
175
     1
 42
40.0
 92
        8
 66
     7
 43
1.0
 76
     1
 77
     6
 78
     2
 67
     7
 79
     3
170
     0
171
     0
290
     0
174
     0
 93
        1
 44
0.0
173
     0
291
     0
 45
0.0
1001
ACAD
1000
AcDbSavedByObjectVersion
1070
     0
  0
VISUALSTYLE
  5
422
102
{ACAD_REACTORS
330
2F
102
}
102
{ACAD_XDICTIONARY
360
50E
102
}
330
2F
100
AcDbVisualStyle
  2
Sketchy
 70
    24
 71
     1
 72
     2
 73
     2
 90
        0
 40
0.6
 41
30.0
 62
     5
 63
     7
 74
     2
 91
        2
 64
     7
 65
     7
 75
     1
175
     1
 42
40.0
 92
       11
 66
     7
 43
1.0
 76
     1
 77
     6
 78
     2
 67
     7
 79
     6
170
     0
171
     0
290
     0
174
     0
 93
        1
 44
0.0
173
     0
291
     0
 45
0.0
1001
ACAD
1000
AcDbSavedByObjectVersion
1070
     0
  0
VISUALSTYLE
  5
41D
102
{ACAD_REACTORS
330
2F
102
}
102
{ACAD_XDICTIONARY
360
510
102
}
330
2F
100
AcDbVisualStyle
  2
Thicken
 70
    13
 71
     2
 72
     2
 73
     0
 90
        0
 40
0.6
 41
30.0
 62
     5
 63
     7
 74
     1
 91
        4
 64
     7
 65
   257
 75
     1
175
     1
 42
1.0
 92
       12
 66
     7
 43
1.0
 76
     1
 77
     6
 78
     2
 67
     7
 79
     5
170
     0
171
     0
290
     0
174
     0
 93
        1
 44
0.0
173
     0
291
     1
 45
0.0
1001
ACAD
1000
AcDbSavedByObjectVersion
1070
     0
  0
VISUALSTYLE
  5
55
102
{ACAD_REACTORS
330
2F
102
}
102
{ACAD_XDICTIONARY
360
512
102
}
330
2F
100
AcDbVisualStyle
  2
Wireframe
 70
     5
 71
     0
 72
     2
 73
     0
 90
        0
 40
0.6
 41
30.0
 62
     5
 63
     7
 74
     1
 91
        4
 64
     7
 65
   257
 75
     1
175
     1
 42
1.0
 92
        0
 66
   257
 43
1.0
 76
     1
 77
     6
 78
     2
 67
     7
 79
     3
170
     0
171
     0
290
     0
174
     0
 93
        1
 44
0.0
173
     0
291
     0
 45
0.0
1001
ACAD
1000
AcDbSavedByObjectVersion
1070
     0
  0
VISUALSTYLE
  5
423
102
{ACAD_REACTORS
330
2F
102
}
102
{ACAD_XDICTIONARY
360
514
102
}
330
2F
100
AcDbVisualStyle
  2
X-Ray
 70
    25
 71
     2
 72
     2
 73
     1
 90
        1
 40
0.5
 41
30.0
 62
     5
 63
     7
 74
     1
 91
        0
 64
     7
 65
   257
 75
     1
175
     1
 42
1.0
 92
        8
 66
     7
 43
1.0
 76
     1
 77
     6
 78
     2
 67
     7
 79
     3
170
     0
171
     0
290
     0
174
     0
 93
       13
 44
0.0
173
     0
291
     0
 45
0.0
1001
ACAD
1000
AcDbSavedByObjectVersion
1070
     0
  0
XRECORD
  5
4D8
102
{ACAD_REACTORS
330
4D7
102
}
330
4D7
100
AcDbXrecord
280
     1
340
4A
  0
XRECORD
  5
4D9
102
{ACAD_REACTORS
330
4D7
102
}
330
4D7
100
AcDbXrecord
280
     1
340
E
  0
DICTIONARYVAR
  5
40F
102
{ACAD_REACTORS
330
409
102
}
330
409
100
DictionaryVariables
280
     0
  1
1:1
  0
DICTIONARYVAR
  5
40B
102
{ACAD_REACTORS
330
409
102
}
330
409
100
DictionaryVariables
280
     0
  1
Standard
  0
DICTIONARYVAR
  5
40A
102
{ACAD_REACTORS
330
409
102
}
330
409
100
DictionaryVariables
280
     0
  1
Standard
  0
DICTIONARYVAR
  5
40C
102
{ACAD_REACTORS
330
409
102
}
330
409
100
DictionaryVariables
280
     0
  1
Imperial24
  0
DICTIONARYVAR
  5
40D
102
{ACAD_REACTORS
330
409
102
}
330
409
100
DictionaryVariables
280
     0
  1
Imperial24
  0
DICTIONARYVAR
  5
4D5
102
{ACAD_REACTORS
330
409
102
}
330
409
100
DictionaryVariables
280
     0
  1
0
  0
DICTIONARYVAR
  5
4D6
102
{ACAD_REACTORS
330
409
102
}
330
409
100
DictionaryVariables
280
     0
  1
1
  0
DICTIONARYVAR
  5
411
102
{ACAD_REACTORS
330
409
102
}
330
409
100
DictionaryVariables
280
     0
  1
1
  0
DICTIONARYVAR
  5
412
102
{ACAD_REACTORS
330
409
102
}
330
409
100
DictionaryVariables
280
     0
  1
15
  0
DICTIONARYVAR
  5
410
102
{ACAD_REACTORS
330
409
102
}
330
409
100
DictionaryVariables
280
     0
  1
0
  0
DICTIONARYVAR
  5
40E
102
{ACAD_REACTORS
330
409
102
}
330
409
100
DictionaryVariables
280
     0
  1
0
  0
DICTIONARYVAR
  5
473
102
{ACAD_REACTORS
330
409
102
}
330
409
100
DictionaryVariables
280
     0
  1
0
  0
DICTIONARY
  5
447
330
42D
100
AcDbDictionary
280
     1
281
     1
  3
ACAD_XREC_ROUNDTRIP
360
4DC
  0
DICTIONARY
  5
4DD
330
42
100
AcDbDictionary
280
     1
281
     1
  3
ACAD_XREC_ROUNDTRIP
360
4DE
  0
DICTIONARY
  5
4DF
330
3A
100
AcDbDictionary
280
     1
281
     1
  3
ACAD_XREC_ROUNDTRIP
360
4E0
  0
DICTIONARY
  5
4E1
330
D
100
AcDbDictionary
280
     1
281
     1
  3
ACAD_XREC_ROUNDTRIP
360
4E2
  0
DICTIONARY
  5
4E3
330
429
100
AcDbDictionary
280
     1
281
     1
  3
ACAD_XREC_ROUNDTRIP
360
4E4
  0
DICTIONARY
  5
445
330
42B
100
AcDbDictionary
280
     1
281
     1
  3
ACAD_XREC_ROUNDTRIP
360
4E5
  0
DICTIONARY
  5
4E6
330
2E
100
AcDbDictionary
280
     1
281
     1
  3
ACAD_XREC_ROUNDTRIP
360
4E7
  0
DICTIONARY
  5
4E8
330
418
100
AcDbDictionary
280
     1
281
     1
  3
ACAD_XREC_ROUNDTRIP
360
4E9
  0
DICTIONARY
  5
4EA
330
41C
100
AcDbDictionary
280
     1
281
     1
  3
ACAD_XREC_ROUNDTRIP
360
4EB
  0
DICTIONARY
  5
4EC
330
420
100
AcDbDictionary
280
     1
281
     1
  3
ACAD_XREC_ROUNDTRIP
360
4ED
  0
DICTIONARY
  5
4EE
330
41A
100
AcDbDictionary
280
     1
281
     1
  3
ACAD_XREC_ROUNDTRIP
360
4EF
  0
DICTIONARY
  5
4F0
330
41B
100
AcDbDictionary
280
     1
281
     1
  3
ACAD_XREC_ROUNDTRIP
360
4F1
  0
DICTIONARY
  5
4F2
330
428
100
AcDbDictionary
280
     1
281
     1
  3
ACAD_XREC_ROUNDTRIP
360
4F3
  0
DICTIONARY
  5
4F4
330
41F
100
AcDbDictionary
280
     1
281
     1
  3
ACAD_XREC_ROUNDTRIP
360
4F5
  0
DICTIONARY
  5
4F6
330
414
100
AcDbDictionary
280
     1
281
     1
  3
ACAD_XREC_ROUNDTRIP
360
4F7
  0
DICTIONARY
  5
4F8
330
415
100
AcDbDictionary
280
     1
281
     1
  3
ACAD_XREC_ROUNDTRIP
360
4F9
  0
DICTIONARY
  5
4FA
330
416
100
AcDbDictionary
280
     1
281
     1
  3
ACAD_XREC_ROUNDTRIP
360
4FB
  0
DICTIONARY
  5
4FC
330
417
100
AcDbDictionary
280
     1
281
     1
  3
ACAD_XREC_ROUNDTRIP
360
4FD
  0
DICTIONARY
  5
4FE
330
419
100
AcDbDictionary
280
     1
281
     1
  3
ACAD_XREC_ROUNDTRIP
360
4FF
  0
DICTIONARY
  5
500
330
426
100
AcDbDictionary
280
     1
281
     1
  3
ACAD_XREC_ROUNDTRIP
360
501
  0
DICTIONARY
  5
502
330
41E
100
AcDbDictionary
280
     1
281
     1
  3
ACAD_XREC_ROUNDTRIP
360
503
  0
DICTIONARY
  5
504
330
427
100
AcDbDictionary
280
     1
281
     1
  3
ACAD_XREC_ROUNDTRIP
360
505
  0
DICTIONARY
  5
506
330
54
100
AcDbDictionary
280
     1
281
     1
  3
ACAD_XREC_ROUNDTRIP
360
507
  0
DICTIONARY
  5
508
330
425
100
AcDbDictionary
280
     1
281
     1
  3
ACAD_XREC_ROUNDTRIP
360
509
  0
DICTIONARY
  5
50A
330
424
100
AcDbDictionary
280
     1
281
     1
  3
ACAD_XREC_ROUNDTRIP
360
50B
  0
DICTIONARY
  5
50C
330
421
100
AcDbDictionary
280
     1
281
     1
  3
ACAD_XREC_ROUNDTRIP
360
50D
  0
DICTIONARY
  5
50E
330
422
100
AcDbDictionary
280
     1
281
     1
  3
ACAD_XREC_ROUNDTRIP
360
50F
  0
DICTIONARY
  5
510
330
41D
100
AcDbDictionary
280
     1
281
     1
  3
ACAD_XREC_ROUNDTRIP
360
511
  0
DICTIONARY
  5
512
330
55
100
AcDbDictionary
280
     1
281
     1
  3
ACAD_XREC_ROUNDTRIP
360
513
  0
DICTIONARY
  5
514
330
423
100
AcDbDictionary
280
     1
281
     1
  3
ACAD_XREC_ROUNDTRIP
360
515
  0
XRECORD
  5
4DC
102
{ACAD_REACTORS
330
447
102
}
330
447
100
AcDbXrecord
280
     1
102
DISPLAYNAME
  1
Imperial24
102
FLAGS
 90
        0
  0
XRECORD
  5
4DE
102
{ACAD_REACTORS
330
4DD
102
}
330
4DD
100
AcDbXrecord
280
     1
102
MATERIAL
148
0.0
149
0.0
149
0.0
 93
        0
 94
      127
282
     0
 72
     0
 77
     0
171
     0
175
     0
179
     0
273
     0
  0
XRECORD
  5
4E0
102
{ACAD_REACTORS
330
4DF
102
}
330
4DF
100
AcDbXrecord
280
     1
102
MATERIAL
148
0.0
149
0.0
149
0.0
 93
        0
 94
      127
282
     0
 72
     0
 77
     0
171
     0
175
     0
179
     0
273
     0
  0
XRECORD
  5
4E2
102
{ACAD_REACTORS
330
4E1
102
}
330
4E1
100
AcDbXrecord
280
     1
102
MATERIAL
148
0.0
149
0.0
149
0.0
 93
        0
 94
      127
282
     0
 72
     0
 77
     0
171
     0
175
     0
179
     0
273
     0
  0
XRECORD
  5
4E4
102
{ACAD_REACTORS
330
4E3
102
}
330
4E3
100
AcDbXrecord
280
     1
102
ACAD_ROUNDTRIP_2012_MLEADER_STYLE
298
     1
  0
XRECORD
  5
4E5
102
{ACAD_REACTORS
330
445
102
}
330
445
100
AcDbXrecord
280
     1
102
DISPLAYNAME
  1
Imperial24
102
FLAGS
 90
        0
  0
XRECORD
  5
4E7
102
{ACAD_REACTORS
330
4E6
102
}
330
4E6
100
AcDbXrecord
280
     1
102
RTVSPropertyOp0
 70
     1
102
RTVSPropertyOp1
 70
     1
102
RTVSPropertyOp2
 70
     1
102
RTVSPropertyOp3
 70
     1
102
RTVSPropertyOp4
 70
     1
102
RTVSPropertyOp5
 70
     1
102
RTVSPropertyOp6
 70
     1
102
RTVSPropertyOp7
 70
     1
102
RTVSPropertyOp8
 70
     1
102
RTVSPropertyOp9
 70
     1
102
RTVSPropertyOp10
 70
     1
102
RTVSPropertyOp11
 70
     1
102
RTVSPropertyOp12
 70
     1
102
RTVSPropertyOp13
 70
     1
102
RTVSPropertyOp14
 70
     1
102
RTVSPropertyOp15
 70
     1
102
RTVSPropertyOp16
 70
     1
102
RTVSPropertyOp17
 70
     1
102
RTVSPropertyOp18
 70
     1
102
RTVSPropertyOp19
 70
     1
102
RTVSPropertyOp20
 70
     1
102
RTVSPropertyOp21
 70
     1
102
RTVSPropertyOp22
 70
     1
102
RTVSPropertyOp23
 70
     1
102
RTVSPropertyOp24
 70
     1
102
RTVSPropertyOp25
 70
     1
102
RTVSPropertyOp26
 70
     1
102
RTVSPropertyOp27
 70
     1
102
RTVSPropertyOp28
 70
     1
102
RTVSPropertyOp29
 70
     1
102
RTVSPropertyOp30
 70
     1
102
RTVSPropertyOp31
 70
     1
102
RTVSPropertyOp32
 70
     1
102
RTVSPropertyOp33
 70
     1
102
RTVSPropertyOp34
 70
     1
102
RTVSPropertyOp35
 70
     1
102
RTVSPropertyOp36
 70
     1
102
RTVSPropertyOp37
 70
     1
102
RTVSPropertyOp38
 70
     1
102
RTVSPropertyOp39
 70
     1
102
RTVSPropertyOp40
 70
     1
102
RTVSPropertyOp41
 70
     1
102
RTVSPropertyOp42
 70
     1
102
RTVSPropertyOp43
 70
     1
102
RTVSPropertyOp44
 70
     1
102
RTVSPropertyOp45
 70
     1
102
RTVSPropertyOp46
 70
     1
102
RTVSPropertyOp47
 70
     1
102
RTVSPropertyOp48
 70
     1
102
RTVSPropertyOp49
 70
     1
102
RTVSPropertyOp50
 70
     1
102
RTVSPropertyOp51
 70
     0
102
RTVSPropertyOp52
 70
     0
102
RTVSPropertyOp53
 70
     1
102
RTVSPropertyOp54
 70
     1
102
RTVSPropertyOp55
 70
     1
102
RTVSPropertyOp56
 70
     1
102
RTVSPropertyOp57
 70
     1
102
RTVSPost2010Prop28
280
     1
102
RTVSPost2010PropOp28
 70
     1
102
RTVSPost2010Prop29
280
     1
102
RTVSPost2010PropOp29
 70
     1
102
RTVSPost2010Prop30
280
     0
102
RTVSPost2010PropOp30
 70
     1
102
RTVSPost2010Prop31
280
     0
102
RTVSPost2010PropOp31
 70
     1
102
RTVSPost2010Prop32
280
     0
102
RTVSPost2010PropOp32
 70
     1
102
RTVSPost2010Prop33
280
     0
102
RTVSPost2010PropOp33
 70
     1
102
RTVSPost2010Prop34
280
     0
102
RTVSPost2010PropOp34
 70
     1
102
RTVSPost2010Prop35
280
     0
102
RTVSPost2010PropOp35
 70
     1
102
RTVSPost2010Prop36
280
     0
102
RTVSPost2010PropOp36
 70
     1
102
RTVSPost2010Prop37
 90
       50
102
RTVSPost2010PropOp37
 70
     1
102
RTVSPost2010Prop38
140
0.0
102
RTVSPost2010PropOp38
 70
     1
102
RTVSPost2010Prop39
140
1.0
102
RTVSPost2010PropOp39
 70
     1
102
RTVSPost2010Prop40
 90
        0
102
RTVSPost2010PropOp40
 70
     1
102
RTVSPost2010Prop41ColorIndex
 90
       18
102
RTVSPost2010Prop41ColorRGB
 90
        0
102
RTVSPost2010PropOp41
 70
     1
102
RTVSPost2010Prop42
 90
       50
102
RTVSPost2010PropOp42
 70
     1
102
RTVSPost2010Prop43
 90
        3
102
RTVSPost2010PropOp43
 70
     1
102
RTVSPost2010Prop44ColorIndex
 90
        5
102
RTVSPost2010Prop44ColorRGB
 90
      255
102
RTVSPost2010PropOp44
 70
     1
102
RTVSPost2010Prop45
280
     0
102
RTVSPost2010PropOp45
 70
     1
102
RTVSPost2010Prop46
 90
       50
102
RTVSPost2010PropOp46
 70
     1
102
RTVSPost2010Prop47
 90
       50
102
RTVSPost2010PropOp47
 70
     1
102
RTVSPost2010Prop48
 90
       50
102
RTVSPost2010PropOp48
 70
     1
102
RTVSPost2010Prop49
280
     0
102
RTVSPost2010PropOp49
 70
     1
102
RTVSPost2010Prop50
 90
       50
102
RTVSPost2010PropOp50
 70
     1
102
RTVSPost2010Prop51ColorIndex
 90
      256
102
RTVSPost2010Prop51ColorRGB
 90
-16777216
102
RTVSPost2010PropOp51
 70
     0
102
RTVSPost2010Prop52
140
1.0
102
RTVSPost2010PropOp52
 70
     0
102
RTVSPost2010Prop53
 90
        2
102
RTVSPost2010PropOp53
 70
     1
102
RTVSPost2010Prop54
  1
strokes_ogs.tif
102
RTVSPost2010PropOp54
 70
     1
102
RTVSPost2010Prop55
280
     0
102
RTVSPost2010PropOp55
 70
     1
102
RTVSPost2010Prop56
140
1.0
102
RTVSPost2010PropOp56
 70
     1
102
RTVSPost2010Prop57
140
1.0
102
RTVSPost2010PropOp57
 70
     1
  0
XRECORD
  5
4E9
102
{ACAD_REACTORS
330
4E8
102
}
330
4E8
100
AcDbXrecord
280
     1
102
RTVSPropertyOp0
 70
     1
102
RTVSPropertyOp1
 70
     1
102
RTVSPropertyOp2
 70
     1
102
RTVSPropertyOp3
 70
     1
102
RTVSPropertyOp4
 70
     1
102
RTVSPropertyOp5
 70
     1
102
RTVSPropertyOp6
 70
     1
102
RTVSPropertyOp7
 70
     1
102
RTVSPropertyOp8
 70
     1
102
RTVSPropertyOp9
 70
     1
102
RTVSPropertyOp10
 70
     1
102
RTVSPropertyOp11
 70
     1
102
RTVSPropertyOp12
 70
     1
102
RTVSPropertyOp13
 70
     1
102
RTVSPropertyOp14
 70
     1
102
RTVSPropertyOp15
 70
     1
102
RTVSPropertyOp16
 70
     1
102
RTVSPropertyOp17
 70
     1
102
RTVSPropertyOp18
 70
     1
102
RTVSPropertyOp19
 70
     1
102
RTVSPropertyOp20
 70
     1
102
RTVSPropertyOp21
 70
     1
102
RTVSPropertyOp22
 70
     1
102
RTVSPropertyOp23
 70
     1
102
RTVSPropertyOp24
 70
     1
102
RTVSPropertyOp25
 70
     1
102
RTVSPropertyOp26
 70
     1
102
RTVSPropertyOp27
 70
     1
102
RTVSPropertyOp28
 70
     1
102
RTVSPropertyOp29
 70
     1
102
RTVSPropertyOp30
 70
     1
102
RTVSPropertyOp31
 70
     1
102
RTVSPropertyOp32
 70
     1
102
RTVSPropertyOp33
 70
     1
102
RTVSPropertyOp34
 70
     1
102
RTVSPropertyOp35
 70
     1
102
RTVSPropertyOp36
 70
     1
102
RTVSPropertyOp37
 70
     1
102
RTVSPropertyOp38
 70
     1
102
RTVSPropertyOp39
 70
     1
102
RTVSPropertyOp40
 70
     1
102
RTVSPropertyOp41
 70
     1
102
RTVSPropertyOp42
 70
     1
102
RTVSPropertyOp43
 70
     1
102
RTVSPropertyOp44
 70
     1
102
RTVSPropertyOp45
 70
     1
102
RTVSPropertyOp46
 70
     1
102
RTVSPropertyOp47
 70
     1
102
RTVSPropertyOp48
 70
     1
102
RTVSPropertyOp49
 70
     1
102
RTVSPropertyOp50
 70
     1
102
RTVSPropertyOp51
 70
     0
102
RTVSPropertyOp52
 70
     0
102
RTVSPropertyOp53
 70
     1
102
RTVSPropertyOp54
 70
     1
102
RTVSPropertyOp55
 70
     1
102
RTVSPropertyOp56
 70
     1
102
RTVSPropertyOp57
 70
     1
102
RTVSPost2010Prop28
280
     0
102
RTVSPost2010PropOp28
 70
     1
102
RTVSPost2010Prop29
280
     1
102
RTVSPost2010PropOp29
 70
     1
102
RTVSPost2010Prop30
280
     1
102
RTVSPost2010PropOp30
 70
     1
102
RTVSPost2010Prop31
280
     0
102
RTVSPost2010PropOp31
 70
     1
102
RTVSPost2010Prop32
280
     0
102
RTVSPost2010PropOp32
 70
     1
102
RTVSPost2010Prop33
280
     0
102
RTVSPost2010PropOp33
 70
     1
102
RTVSPost2010Prop34
280
     0
102
RTVSPost2010PropOp34
 70
     1
102
RTVSPost2010Prop35
280
     0
102
RTVSPost2010PropOp35
 70
     1
102
RTVSPost2010Prop36
280
     0
102
RTVSPost2010PropOp36
 70
     1
102
RTVSPost2010Prop37
 90
       50
102
RTVSPost2010PropOp37
 70
     1
102
RTVSPost2010Prop38
140
0.0
102
RTVSPost2010PropOp38
 70
     1
102
RTVSPost2010Prop39
140
1.0
102
RTVSPost2010PropOp39
 70
     1
102
RTVSPost2010Prop40
 90
        0
102
RTVSPost2010PropOp40
 70
     1
102
RTVSPost2010Prop41ColorIndex
 90
       18
102
RTVSPost2010Prop41ColorRGB
 90
        0
102
RTVSPost2010PropOp41
 70
     1
102
RTVSPost2010Prop42
 90
       50
102
RTVSPost2010PropOp42
 70
     1
102
RTVSPost2010Prop43
 90
        3
102
RTVSPost2010PropOp43
 70
     1
102
RTVSPost2010Prop44ColorIndex
 90
        5
102
RTVSPost2010Prop44ColorRGB
 90
      255
102
RTVSPost2010PropOp44
 70
     1
102
RTVSPost2010Prop45
280
     0
102
RTVSPost2010PropOp45
 70
     1
102
RTVSPost2010Prop46
 90
       50
102
RTVSPost2010PropOp46
 70
     1
102
RTVSPost2010Prop47
 90
       50
102
RTVSPost2010PropOp47
 70
     1
102
RTVSPost2010Prop48
 90
       50
102
RTVSPost2010PropOp48
 70
     1
102
RTVSPost2010Prop49
280
     0
102
RTVSPost2010PropOp49
 70
     1
102
RTVSPost2010Prop50
 90
       50
102
RTVSPost2010PropOp50
 70
     1
102
RTVSPost2010Prop51ColorIndex
 90
      256
102
RTVSPost2010Prop51ColorRGB
 90
-16777216
102
RTVSPost2010PropOp51
 70
     0
102
RTVSPost2010Prop52
140
1.0
102
RTVSPost2010PropOp52
 70
     0
102
RTVSPost2010Prop53
 90
        2
102
RTVSPost2010PropOp53
 70
     1
102
RTVSPost2010Prop54
  1
strokes_ogs.tif
102
RTVSPost2010PropOp54
 70
     1
102
RTVSPost2010Prop55
280
     0
102
RTVSPost2010PropOp55
 70
     1
102
RTVSPost2010Prop56
140
1.0
102
RTVSPost2010PropOp56
 70
     1
102
RTVSPost2010Prop57
140
1.0
102
RTVSPost2010PropOp57
 70
     1
  0
XRECORD
  5
4EB
102
{ACAD_REACTORS
330
4EA
102
}
330
4EA
100
AcDbXrecord
280
     1
102
RTVSPropertyOp0
 70
     1
102
RTVSPropertyOp1
 70
     1
102
RTVSPropertyOp2
 70
     1
102
RTVSPropertyOp3
 70
     1
102
RTVSPropertyOp4
 70
     1
102
RTVSPropertyOp5
 70
     1
102
RTVSPropertyOp6
 70
     1
102
RTVSPropertyOp7
 70
     1
102
RTVSPropertyOp8
 70
     1
102
RTVSPropertyOp9
 70
     1
102
RTVSPropertyOp10
 70
     1
102
RTVSPropertyOp11
 70
     1
102
RTVSPropertyOp12
 70
     1
102
RTVSPropertyOp13
 70
     1
102
RTVSPropertyOp14
 70
     1
102
RTVSPropertyOp15
 70
     1
102
RTVSPropertyOp16
 70
     1
102
RTVSPropertyOp17
 70
     1
102
RTVSPropertyOp18
 70
     1
102
RTVSPropertyOp19
 70
     1
102
RTVSPropertyOp20
 70
     1
102
RTVSPropertyOp21
 70
     1
102
RTVSPropertyOp22
 70
     1
102
RTVSPropertyOp23
 70
     1
102
RTVSPropertyOp24
 70
     1
102
RTVSPropertyOp25
 70
     1
102
RTVSPropertyOp26
 70
     1
102
RTVSPropertyOp27
 70
     1
102
RTVSPropertyOp28
 70
     1
102
RTVSPropertyOp29
 70
     1
102
RTVSPropertyOp30
 70
     1
102
RTVSPropertyOp31
 70
     1
102
RTVSPropertyOp32
 70
     1
102
RTVSPropertyOp33
 70
     1
102
RTVSPropertyOp34
 70
     1
102
RTVSPropertyOp35
 70
     1
102
RTVSPropertyOp36
 70
     1
102
RTVSPropertyOp37
 70
     1
102
RTVSPropertyOp38
 70
     1
102
RTVSPropertyOp39
 70
     1
102
RTVSPropertyOp40
 70
     1
102
RTVSPropertyOp41
 70
     1
102
RTVSPropertyOp42
 70
     1
102
RTVSPropertyOp43
 70
     1
102
RTVSPropertyOp44
 70
     1
102
RTVSPropertyOp45
 70
     1
102
RTVSPropertyOp46
 70
     1
102
RTVSPropertyOp47
 70
     1
102
RTVSPropertyOp48
 70
     1
102
RTVSPropertyOp49
 70
     1
102
RTVSPropertyOp50
 70
     1
102
RTVSPropertyOp51
 70
     0
102
RTVSPropertyOp52
 70
     0
102
RTVSPropertyOp53
 70
     1
102
RTVSPropertyOp54
 70
     1
102
RTVSPropertyOp55
 70
     1
102
RTVSPropertyOp56
 70
     1
102
RTVSPropertyOp57
 70
     1
102
RTVSPost2010Prop28
280
     0
102
RTVSPost2010PropOp28
 70
     1
102
RTVSPost2010Prop29
280
     1
102
RTVSPost2010PropOp29
 70
     1
102
RTVSPost2010Prop30
280
     1
102
RTVSPost2010PropOp30
 70
     1
102
RTVSPost2010Prop31
280
     0
102
RTVSPost2010PropOp31
 70
     1
102
RTVSPost2010Prop32
280
     0
102
RTVSPost2010PropOp32
 70
     1
102
RTVSPost2010Prop33
280
     0
102
RTVSPost2010PropOp33
 70
     1
102
RTVSPost2010Prop34
280
     0
102
RTVSPost2010PropOp34
 70
     1
102
RTVSPost2010Prop35
280
     0
102
RTVSPost2010PropOp35
 70
     1
102
RTVSPost2010Prop36
280
     0
102
RTVSPost2010PropOp36
 70
     1
102
RTVSPost2010Prop37
 90
       50
102
RTVSPost2010PropOp37
 70
     1
102
RTVSPost2010Prop38
140
0.0
102
RTVSPost2010PropOp38
 70
     1
102
RTVSPost2010Prop39
140
1.0
102
RTVSPost2010PropOp39
 70
     1
102
RTVSPost2010Prop40
 90
        0
102
RTVSPost2010PropOp40
 70
     1
102
RTVSPost2010Prop41ColorIndex
 90
       18
102
RTVSPost2010Prop41ColorRGB
 90
        0
102
RTVSPost2010PropOp41
 70
     1
102
RTVSPost2010Prop42
 90
       50
102
RTVSPost2010PropOp42
 70
     1
102
RTVSPost2010Prop43
 90
        3
102
RTVSPost2010PropOp43
 70
     1
102
RTVSPost2010Prop44ColorIndex
 90
        5
102
RTVSPost2010Prop44ColorRGB
 90
      255
102
RTVSPost2010PropOp44
 70
     1
102
RTVSPost2010Prop45
280
     0
102
RTVSPost2010PropOp45
 70
     1
102
RTVSPost2010Prop46
 90
       50
102
RTVSPost2010PropOp46
 70
     1
102
RTVSPost2010Prop47
 90
       50
102
RTVSPost2010PropOp47
 70
     1
102
RTVSPost2010Prop48
 90
       50
102
RTVSPost2010PropOp48
 70
     1
102
RTVSPost2010Prop49
280
     0
102
RTVSPost2010PropOp49
 70
     1
102
RTVSPost2010Prop50
 90
       50
102
RTVSPost2010PropOp50
 70
     1
102
RTVSPost2010Prop51ColorIndex
 90
      256
102
RTVSPost2010Prop51ColorRGB
 90
-16777216
102
RTVSPost2010PropOp51
 70
     0
102
RTVSPost2010Prop52
140
1.0
102
RTVSPost2010PropOp52
 70
     0
102
RTVSPost2010Prop53
 90
        2
102
RTVSPost2010PropOp53
 70
     1
102
RTVSPost2010Prop54
  1
strokes_ogs.tif
102
RTVSPost2010PropOp54
 70
     1
102
RTVSPost2010Prop55
280
     0
102
RTVSPost2010PropOp55
 70
     1
102
RTVSPost2010Prop56
140
1.0
102
RTVSPost2010PropOp56
 70
     1
102
RTVSPost2010Prop57
140
1.0
102
RTVSPost2010PropOp57
 70
     1
  0
XRECORD
  5
4ED
102
{ACAD_REACTORS
330
4EC
102
}
330
4EC
100
AcDbXrecord
280
     1
102
RTVSPropertyOp0
 70
     1
102
RTVSPropertyOp1
 70
     1
102
RTVSPropertyOp2
 70
     1
102
RTVSPropertyOp3
 70
     1
102
RTVSPropertyOp4
 70
     1
102
RTVSPropertyOp5
 70
     1
102
RTVSPropertyOp6
 70
     1
102
RTVSPropertyOp7
 70
     1
102
RTVSPropertyOp8
 70
     1
102
RTVSPropertyOp9
 70
     1
102
RTVSPropertyOp10
 70
     1
102
RTVSPropertyOp11
 70
     1
102
RTVSPropertyOp12
 70
     1
102
RTVSPropertyOp13
 70
     1
102
RTVSPropertyOp14
 70
     1
102
RTVSPropertyOp15
 70
     1
102
RTVSPropertyOp16
 70
     1
102
RTVSPropertyOp17
 70
     1
102
RTVSPropertyOp18
 70
     1
102
RTVSPropertyOp19
 70
     1
102
RTVSPropertyOp20
 70
     1
102
RTVSPropertyOp21
 70
     1
102
RTVSPropertyOp22
 70
     1
102
RTVSPropertyOp23
 70
     1
102
RTVSPropertyOp24
 70
     1
102
RTVSPropertyOp25
 70
     1
102
RTVSPropertyOp26
 70
     1
102
RTVSPropertyOp27
 70
     1
102
RTVSPropertyOp28
 70
     1
102
RTVSPropertyOp29
 70
     1
102
RTVSPropertyOp30
 70
     1
102
RTVSPropertyOp31
 70
     1
102
RTVSPropertyOp32
 70
     1
102
RTVSPropertyOp33
 70
     1
102
RTVSPropertyOp34
 70
     1
102
RTVSPropertyOp35
 70
     1
102
RTVSPropertyOp36
 70
     1
102
RTVSPropertyOp37
 70
     1
102
RTVSPropertyOp38
 70
     1
102
RTVSPropertyOp39
 70
     1
102
RTVSPropertyOp40
 70
     1
102
RTVSPropertyOp41
 70
     1
102
RTVSPropertyOp42
 70
     1
102
RTVSPropertyOp43
 70
     1
102
RTVSPropertyOp44
 70
     1
102
RTVSPropertyOp45
 70
     1
102
RTVSPropertyOp46
 70
     1
102
RTVSPropertyOp47
 70
     1
102
RTVSPropertyOp48
 70
     1
102
RTVSPropertyOp49
 70
     1
102
RTVSPropertyOp50
 70
     1
102
RTVSPropertyOp51
 70
     0
102
RTVSPropertyOp52
 70
     0
102
RTVSPropertyOp53
 70
     1
102
RTVSPropertyOp54
 70
     1
102
RTVSPropertyOp55
 70
     1
102
RTVSPropertyOp56
 70
     1
102
RTVSPropertyOp57
 70
     1
102
RTVSPost2010Prop28
280
     0
102
RTVSPost2010PropOp28
 70
     1
102
RTVSPost2010Prop29
280
     1
102
RTVSPost2010PropOp29
 70
     1
102
RTVSPost2010Prop30
280
     1
102
RTVSPost2010PropOp30
 70
     1
102
RTVSPost2010Prop31
280
     0
102
RTVSPost2010PropOp31
 70
     1
102
RTVSPost2010Prop32
280
     0
102
RTVSPost2010PropOp32
 70
     1
102
RTVSPost2010Prop33
280
     0
102
RTVSPost2010PropOp33
 70
     1
102
RTVSPost2010Prop34
280
     0
102
RTVSPost2010PropOp34
 70
     1
102
RTVSPost2010Prop35
280
     0
102
RTVSPost2010PropOp35
 70
     1
102
RTVSPost2010Prop36
280
     0
102
RTVSPost2010PropOp36
 70
     1
102
RTVSPost2010Prop37
 90
       50
102
RTVSPost2010PropOp37
 70
     1
102
RTVSPost2010Prop38
140
0.0
102
RTVSPost2010PropOp38
 70
     1
102
RTVSPost2010Prop39
140
1.0
102
RTVSPost2010PropOp39
 70
     1
102
RTVSPost2010Prop40
 90
        0
102
RTVSPost2010PropOp40
 70
     1
102
RTVSPost2010Prop41ColorIndex
 90
       18
102
RTVSPost2010Prop41ColorRGB
 90
        0
102
RTVSPost2010PropOp41
 70
     1
102
RTVSPost2010Prop42
 90
       50
102
RTVSPost2010PropOp42
 70
     1
102
RTVSPost2010Prop43
 90
        3
102
RTVSPost2010PropOp43
 70
     1
102
RTVSPost2010Prop44ColorIndex
 90
        5
102
RTVSPost2010Prop44ColorRGB
 90
      255
102
RTVSPost2010PropOp44
 70
     1
102
RTVSPost2010Prop45
280
     0
102
RTVSPost2010PropOp45
 70
     1
102
RTVSPost2010Prop46
 90
       50
102
RTVSPost2010PropOp46
 70
     1
102
RTVSPost2010Prop47
 90
       50
102
RTVSPost2010PropOp47
 70
     1
102
RTVSPost2010Prop48
 90
       50
102
RTVSPost2010PropOp48
 70
     1
102
RTVSPost2010Prop49
280
     0
102
RTVSPost2010PropOp49
 70
     1
102
RTVSPost2010Prop50
 90
       50
102
RTVSPost2010PropOp50
 70
     1
102
RTVSPost2010Prop51ColorIndex
 90
      256
102
RTVSPost2010Prop51ColorRGB
 90
-16777216
102
RTVSPost2010PropOp51
 70
     0
102
RTVSPost2010Prop52
140
1.0
102
RTVSPost2010PropOp52
 70
     0
102
RTVSPost2010Prop53
 90
        2
102
RTVSPost2010PropOp53
 70
     1
102
RTVSPost2010Prop54
  1
strokes_ogs.tif
102
RTVSPost2010PropOp54
 70
     1
102
RTVSPost2010Prop55
280
     0
102
RTVSPost2010PropOp55
 70
     1
102
RTVSPost2010Prop56
140
1.0
102
RTVSPost2010PropOp56
 70
     1
102
RTVSPost2010Prop57
140
1.0
102
RTVSPost2010PropOp57
 70
     1
  0
XRECORD
  5
4EF
102
{ACAD_REACTORS
330
4EE
102
}
330
4EE
100
AcDbXrecord
280
     1
102
RTVSPropertyOp0
 70
     1
102
RTVSPropertyOp1
 70
     1
102
RTVSPropertyOp2
 70
     1
102
RTVSPropertyOp3
 70
     1
102
RTVSPropertyOp4
 70
     1
102
RTVSPropertyOp5
 70
     1
102
RTVSPropertyOp6
 70
     1
102
RTVSPropertyOp7
 70
     1
102
RTVSPropertyOp8
 70
     1
102
RTVSPropertyOp9
 70
     1
102
RTVSPropertyOp10
 70
     1
102
RTVSPropertyOp11
 70
     1
102
RTVSPropertyOp12
 70
     1
102
RTVSPropertyOp13
 70
     1
102
RTVSPropertyOp14
 70
     1
102
RTVSPropertyOp15
 70
     1
102
RTVSPropertyOp16
 70
     1
102
RTVSPropertyOp17
 70
     1
102
RTVSPropertyOp18
 70
     1
102
RTVSPropertyOp19
 70
     1
102
RTVSPropertyOp20
 70
     1
102
RTVSPropertyOp21
 70
     1
102
RTVSPropertyOp22
 70
     1
102
RTVSPropertyOp23
 70
     1
102
RTVSPropertyOp24
 70
     1
102
RTVSPropertyOp25
 70
     1
102
RTVSPropertyOp26
 70
     1
102
RTVSPropertyOp27
 70
     1
102
RTVSPropertyOp28
 70
     1
102
RTVSPropertyOp29
 70
     1
102
RTVSPropertyOp30
 70
     1
102
RTVSPropertyOp31
 70
     1
102
RTVSPropertyOp32
 70
     1
102
RTVSPropertyOp33
 70
     1
102
RTVSPropertyOp34
 70
     1
102
RTVSPropertyOp35
 70
     1
102
RTVSPropertyOp36
 70
     1
102
RTVSPropertyOp37
 70
     1
102
RTVSPropertyOp38
 70
     1
102
RTVSPropertyOp39
 70
     1
102
RTVSPropertyOp40
 70
     1
102
RTVSPropertyOp41
 70
     1
102
RTVSPropertyOp42
 70
     1
102
RTVSPropertyOp43
 70
     1
102
RTVSPropertyOp44
 70
     1
102
RTVSPropertyOp45
 70
     1
102
RTVSPropertyOp46
 70
     1
102
RTVSPropertyOp47
 70
     1
102
RTVSPropertyOp48
 70
     1
102
RTVSPropertyOp49
 70
     1
102
RTVSPropertyOp50
 70
     1
102
RTVSPropertyOp51
 70
     0
102
RTVSPropertyOp52
 70
     0
102
RTVSPropertyOp53
 70
     1
102
RTVSPropertyOp54
 70
     1
102
RTVSPropertyOp55
 70
     1
102
RTVSPropertyOp56
 70
     1
102
RTVSPropertyOp57
 70
     1
102
RTVSPost2010Prop28
280
     0
102
RTVSPost2010PropOp28
 70
     1
102
RTVSPost2010Prop29
280
     1
102
RTVSPost2010PropOp29
 70
     1
102
RTVSPost2010Prop30
280
     1
102
RTVSPost2010PropOp30
 70
     1
102
RTVSPost2010Prop31
280
     0
102
RTVSPost2010PropOp31
 70
     1
102
RTVSPost2010Prop32
280
     0
102
RTVSPost2010PropOp32
 70
     1
102
RTVSPost2010Prop33
280
     0
102
RTVSPost2010PropOp33
 70
     1
102
RTVSPost2010Prop34
280
     0
102
RTVSPost2010PropOp34
 70
     1
102
RTVSPost2010Prop35
280
     0
102
RTVSPost2010PropOp35
 70
     1
102
RTVSPost2010Prop36
280
     0
102
RTVSPost2010PropOp36
 70
     1
102
RTVSPost2010Prop37
 90
       50
102
RTVSPost2010PropOp37
 70
     1
102
RTVSPost2010Prop38
140
0.0
102
RTVSPost2010PropOp38
 70
     1
102
RTVSPost2010Prop39
140
1.0
102
RTVSPost2010PropOp39
 70
     1
102
RTVSPost2010Prop40
 90
        0
102
RTVSPost2010PropOp40
 70
     1
102
RTVSPost2010Prop41ColorIndex
 90
       18
102
RTVSPost2010Prop41ColorRGB
 90
        0
102
RTVSPost2010PropOp41
 70
     1
102
RTVSPost2010Prop42
 90
       50
102
RTVSPost2010PropOp42
 70
     1
102
RTVSPost2010Prop43
 90
        3
102
RTVSPost2010PropOp43
 70
     1
102
RTVSPost2010Prop44ColorIndex
 90
        5
102
RTVSPost2010Prop44ColorRGB
 90
      255
102
RTVSPost2010PropOp44
 70
     1
102
RTVSPost2010Prop45
280
     0
102
RTVSPost2010PropOp45
 70
     1
102
RTVSPost2010Prop46
 90
       50
102
RTVSPost2010PropOp46
 70
     1
102
RTVSPost2010Prop47
 90
       50
102
RTVSPost2010PropOp47
 70
     1
102
RTVSPost2010Prop48
 90
       50
102
RTVSPost2010PropOp48
 70
     1
102
RTVSPost2010Prop49
280
     0
102
RTVSPost2010PropOp49
 70
     1
102
RTVSPost2010Prop50
 90
       50
102
RTVSPost2010PropOp50
 70
     1
102
RTVSPost2010Prop51ColorIndex
 90
      256
102
RTVSPost2010Prop51ColorRGB
 90
-16777216
102
RTVSPost2010PropOp51
 70
     0
102
RTVSPost2010Prop52
140
1.0
102
RTVSPost2010PropOp52
 70
     0
102
RTVSPost2010Prop53
 90
        2
102
RTVSPost2010PropOp53
 70
     1
102
RTVSPost2010Prop54
  1
strokes_ogs.tif
102
RTVSPost2010PropOp54
 70
     1
102
RTVSPost2010Prop55
280
     0
102
RTVSPost2010PropOp55
 70
     1
102
RTVSPost2010Prop56
140
1.0
102
RTVSPost2010PropOp56
 70
     1
102
RTVSPost2010Prop57
140
1.0
102
RTVSPost2010PropOp57
 70
     1
  0
XRECORD
  5
4F1
102
{ACAD_REACTORS
330
4F0
102
}
330
4F0
100
AcDbXrecord
280
     1
102
RTVSPropertyOp0
 70
     1
102
RTVSPropertyOp1
 70
     1
102
RTVSPropertyOp2
 70
     1
102
RTVSPropertyOp3
 70
     1
102
RTVSPropertyOp4
 70
     1
102
RTVSPropertyOp5
 70
     1
102
RTVSPropertyOp6
 70
     1
102
RTVSPropertyOp7
 70
     1
102
RTVSPropertyOp8
 70
     1
102
RTVSPropertyOp9
 70
     1
102
RTVSPropertyOp10
 70
     1
102
RTVSPropertyOp11
 70
     1
102
RTVSPropertyOp12
 70
     1
102
RTVSPropertyOp13
 70
     1
102
RTVSPropertyOp14
 70
     1
102
RTVSPropertyOp15
 70
     1
102
RTVSPropertyOp16
 70
     1
102
RTVSPropertyOp17
 70
     1
102
RTVSPropertyOp18
 70
     1
102
RTVSPropertyOp19
 70
     1
102
RTVSPropertyOp20
 70
     1
102
RTVSPropertyOp21
 70
     1
102
RTVSPropertyOp22
 70
     1
102
RTVSPropertyOp23
 70
     1
102
RTVSPropertyOp24
 70
     1
102
RTVSPropertyOp25
 70
     1
102
RTVSPropertyOp26
 70
     1
102
RTVSPropertyOp27
 70
     1
102
RTVSPropertyOp28
 70
     1
102
RTVSPropertyOp29
 70
     1
102
RTVSPropertyOp30
 70
     1
102
RTVSPropertyOp31
 70
     1
102
RTVSPropertyOp32
 70
     1
102
RTVSPropertyOp33
 70
     1
102
RTVSPropertyOp34
 70
     1
102
RTVSPropertyOp35
 70
     1
102
RTVSPropertyOp36
 70
     1
102
RTVSPropertyOp37
 70
     1
102
RTVSPropertyOp38
 70
     1
102
RTVSPropertyOp39
 70
     1
102
RTVSPropertyOp40
 70
     1
102
RTVSPropertyOp41
 70
     1
102
RTVSPropertyOp42
 70
     1
102
RTVSPropertyOp43
 70
     1
102
RTVSPropertyOp44
 70
     1
102
RTVSPropertyOp45
 70
     1
102
RTVSPropertyOp46
 70
     1
102
RTVSPropertyOp47
 70
     1
102
RTVSPropertyOp48
 70
     1
102
RTVSPropertyOp49
 70
     1
102
RTVSPropertyOp50
 70
     1
102
RTVSPropertyOp51
 70
     0
102
RTVSPropertyOp52
 70
     0
102
RTVSPropertyOp53
 70
     1
102
RTVSPropertyOp54
 70
     1
102
RTVSPropertyOp55
 70
     1
102
RTVSPropertyOp56
 70
     1
102
RTVSPropertyOp57
 70
     1
102
RTVSPost2010Prop28
280
     0
102
RTVSPost2010PropOp28
 70
     1
102
RTVSPost2010Prop29
280
     1
102
RTVSPost2010PropOp29
 70
     1
102
RTVSPost2010Prop30
280
     1
102
RTVSPost2010PropOp30
 70
     1
102
RTVSPost2010Prop31
280
     0
102
RTVSPost2010PropOp31
 70
     1
102
RTVSPost2010Prop32
280
     0
102
RTVSPost2010PropOp32
 70
     1
102
RTVSPost2010Prop33
280
     0
102
RTVSPost2010PropOp33
 70
     1
102
RTVSPost2010Prop34
280
     0
102
RTVSPost2010PropOp34
 70
     1
102
RTVSPost2010Prop35
280
     0
102
RTVSPost2010PropOp35
 70
     1
102
RTVSPost2010Prop36
280
     0
102
RTVSPost2010PropOp36
 70
     1
102
RTVSPost2010Prop37
 90
       50
102
RTVSPost2010PropOp37
 70
     1
102
RTVSPost2010Prop38
140
0.0
102
RTVSPost2010PropOp38
 70
     1
102
RTVSPost2010Prop39
140
1.0
102
RTVSPost2010PropOp39
 70
     1
102
RTVSPost2010Prop40
 90
        0
102
RTVSPost2010PropOp40
 70
     1
102
RTVSPost2010Prop41ColorIndex
 90
       18
102
RTVSPost2010Prop41ColorRGB
 90
        0
102
RTVSPost2010PropOp41
 70
     1
102
RTVSPost2010Prop42
 90
       50
102
RTVSPost2010PropOp42
 70
     1
102
RTVSPost2010Prop43
 90
        3
102
RTVSPost2010PropOp43
 70
     1
102
RTVSPost2010Prop44ColorIndex
 90
        5
102
RTVSPost2010Prop44ColorRGB
 90
      255
102
RTVSPost2010PropOp44
 70
     1
102
RTVSPost2010Prop45
280
     0
102
RTVSPost2010PropOp45
 70
     1
102
RTVSPost2010Prop46
 90
       50
102
RTVSPost2010PropOp46
 70
     1
102
RTVSPost2010Prop47
 90
       50
102
RTVSPost2010PropOp47
 70
     1
102
RTVSPost2010Prop48
 90
       50
102
RTVSPost2010PropOp48
 70
     1
102
RTVSPost2010Prop49
280
     0
102
RTVSPost2010PropOp49
 70
     1
102
RTVSPost2010Prop50
 90
       50
102
RTVSPost2010PropOp50
 70
     1
102
RTVSPost2010Prop51ColorIndex
 90
      256
102
RTVSPost2010Prop51ColorRGB
 90
-16777216
102
RTVSPost2010PropOp51
 70
     0
102
RTVSPost2010Prop52
140
1.0
102
RTVSPost2010PropOp52
 70
     0
102
RTVSPost2010Prop53
 90
        2
102
RTVSPost2010PropOp53
 70
     1
102
RTVSPost2010Prop54
  1
strokes_ogs.tif
102
RTVSPost2010PropOp54
 70
     1
102
RTVSPost2010Prop55
280
     0
102
RTVSPost2010PropOp55
 70
     1
102
RTVSPost2010Prop56
140
1.0
102
RTVSPost2010PropOp56
 70
     1
102
RTVSPost2010Prop57
140
1.0
102
RTVSPost2010PropOp57
 70
     1
  0
XRECORD
  5
4F3
102
{ACAD_REACTORS
330
4F2
102
}
330
4F2
100
AcDbXrecord
280
     1
102
RTVSPropertyOp0
 70
     0
102
RTVSPropertyOp1
 70
     0
102
RTVSPropertyOp2
 70
     0
102
RTVSPropertyOp3
 70
     0
102
RTVSPropertyOp4
 70
     0
102
RTVSPropertyOp5
 70
     0
102
RTVSPropertyOp6
 70
     0
102
RTVSPropertyOp7
 70
     0
102
RTVSPropertyOp8
 70
     0
102
RTVSPropertyOp9
 70
     0
102
RTVSPropertyOp10
 70
     0
102
RTVSPropertyOp11
 70
     0
102
RTVSPropertyOp12
 70
     0
102
RTVSPropertyOp13
 70
     0
102
RTVSPropertyOp14
 70
     2
102
RTVSPropertyOp15
 70
     0
102
RTVSPropertyOp16
 70
     0
102
RTVSPropertyOp17
 70
     0
102
RTVSPropertyOp18
 70
     0
102
RTVSPropertyOp19
 70
     0
102
RTVSPropertyOp20
 70
     0
102
RTVSPropertyOp21
 70
     0
102
RTVSPropertyOp22
 70
     0
102
RTVSPropertyOp23
 70
     0
102
RTVSPropertyOp24
 70
     0
102
RTVSPropertyOp25
 70
     0
102
RTVSPropertyOp26
 70
     0
102
RTVSPropertyOp27
 70
     0
102
RTVSPropertyOp28
 70
     0
102
RTVSPropertyOp29
 70
     0
102
RTVSPropertyOp30
 70
     0
102
RTVSPropertyOp31
 70
     0
102
RTVSPropertyOp32
 70
     0
102
RTVSPropertyOp33
 70
     0
102
RTVSPropertyOp34
 70
     0
102
RTVSPropertyOp35
 70
     0
102
RTVSPropertyOp36
 70
     0
102
RTVSPropertyOp37
 70
     0
102
RTVSPropertyOp38
 70
     0
102
RTVSPropertyOp39
 70
     0
102
RTVSPropertyOp40
 70
     0
102
RTVSPropertyOp41
 70
     0
102
RTVSPropertyOp42
 70
     0
102
RTVSPropertyOp43
 70
     0
102
RTVSPropertyOp44
 70
     0
102
RTVSPropertyOp45
 70
     0
102
RTVSPropertyOp46
 70
     0
102
RTVSPropertyOp47
 70
     0
102
RTVSPropertyOp48
 70
     0
102
RTVSPropertyOp49
 70
     0
102
RTVSPropertyOp50
 70
     0
102
RTVSPropertyOp51
 70
     0
102
RTVSPropertyOp52
 70
     0
102
RTVSPropertyOp53
 70
     0
102
RTVSPropertyOp54
 70
     0
102
RTVSPropertyOp55
 70
     0
102
RTVSPropertyOp56
 70
     0
102
RTVSPropertyOp57
 70
     0
102
RTVSPost2010Prop28
280
     0
102
RTVSPost2010PropOp28
 70
     0
102
RTVSPost2010Prop29
280
     1
102
RTVSPost2010PropOp29
 70
     0
102
RTVSPost2010Prop30
280
     1
102
RTVSPost2010PropOp30
 70
     0
102
RTVSPost2010Prop31
280
     0
102
RTVSPost2010PropOp31
 70
     0
102
RTVSPost2010Prop32
280
     0
102
RTVSPost2010PropOp32
 70
     0
102
RTVSPost2010Prop33
280
     0
102
RTVSPost2010PropOp33
 70
     0
102
RTVSPost2010Prop34
280
     0
102
RTVSPost2010PropOp34
 70
     0
102
RTVSPost2010Prop35
280
     0
102
RTVSPost2010PropOp35
 70
     0
102
RTVSPost2010Prop36
280
     0
102
RTVSPost2010PropOp36
 70
     0
102
RTVSPost2010Prop37
 90
       50
102
RTVSPost2010PropOp37
 70
     0
102
RTVSPost2010Prop38
140
0.0
102
RTVSPost2010PropOp38
 70
     0
102
RTVSPost2010Prop39
140
1.0
102
RTVSPost2010PropOp39
 70
     0
102
RTVSPost2010Prop40
 90
        0
102
RTVSPost2010PropOp40
 70
     0
102
RTVSPost2010Prop41ColorIndex
 90
       18
102
RTVSPost2010Prop41ColorRGB
 90
        0
102
RTVSPost2010PropOp41
 70
     0
102
RTVSPost2010Prop42
 90
       50
102
RTVSPost2010PropOp42
 70
     0
102
RTVSPost2010Prop43
 90
        3
102
RTVSPost2010PropOp43
 70
     0
102
RTVSPost2010Prop44ColorIndex
 90
        5
102
RTVSPost2010Prop44ColorRGB
 90
      255
102
RTVSPost2010PropOp44
 70
     0
102
RTVSPost2010Prop45
280
     0
102
RTVSPost2010PropOp45
 70
     0
102
RTVSPost2010Prop46
 90
       50
102
RTVSPost2010PropOp46
 70
     0
102
RTVSPost2010Prop47
 90
       50
102
RTVSPost2010PropOp47
 70
     0
102
RTVSPost2010Prop48
 90
       50
102
RTVSPost2010PropOp48
 70
     0
102
RTVSPost2010Prop49
280
     0
102
RTVSPost2010PropOp49
 70
     0
102
RTVSPost2010Prop50
 90
       50
102
RTVSPost2010PropOp50
 70
     0
102
RTVSPost2010Prop51ColorIndex
 90
      256
102
RTVSPost2010Prop51ColorRGB
 90
-16777216
102
RTVSPost2010PropOp51
 70
     0
102
RTVSPost2010Prop52
140
1.0
102
RTVSPost2010PropOp52
 70
     0
102
RTVSPost2010Prop53
 90
        2
102
RTVSPost2010PropOp53
 70
     0
102
RTVSPost2010Prop54
  1
strokes_ogs.tif
102
RTVSPost2010PropOp54
 70
     0
102
RTVSPost2010Prop55
280
     0
102
RTVSPost2010PropOp55
 70
     0
102
RTVSPost2010Prop56
140
1.0
102
RTVSPost2010PropOp56
 70
     0
102
RTVSPost2010Prop57
140
1.0
102
RTVSPost2010PropOp57
 70
     0
  0
XRECORD
  5
4F5
102
{ACAD_REACTORS
330
4F4
102
}
330
4F4
100
AcDbXrecord
280
     1
102
RTVSPropertyOp0
 70
     1
102
RTVSPropertyOp1
 70
     1
102
RTVSPropertyOp2
 70
     1
102
RTVSPropertyOp3
 70
     1
102
RTVSPropertyOp4
 70
     1
102
RTVSPropertyOp5
 70
     1
102
RTVSPropertyOp6
 70
     1
102
RTVSPropertyOp7
 70
     1
102
RTVSPropertyOp8
 70
     1
102
RTVSPropertyOp9
 70
     1
102
RTVSPropertyOp10
 70
     1
102
RTVSPropertyOp11
 70
     1
102
RTVSPropertyOp12
 70
     1
102
RTVSPropertyOp13
 70
     1
102
RTVSPropertyOp14
 70
     1
102
RTVSPropertyOp15
 70
     1
102
RTVSPropertyOp16
 70
     1
102
RTVSPropertyOp17
 70
     1
102
RTVSPropertyOp18
 70
     1
102
RTVSPropertyOp19
 70
     1
102
RTVSPropertyOp20
 70
     1
102
RTVSPropertyOp21
 70
     1
102
RTVSPropertyOp22
 70
     1
102
RTVSPropertyOp23
 70
     1
102
RTVSPropertyOp24
 70
     1
102
RTVSPropertyOp25
 70
     1
102
RTVSPropertyOp26
 70
     1
102
RTVSPropertyOp27
 70
     1
102
RTVSPropertyOp28
 70
     1
102
RTVSPropertyOp29
 70
     1
102
RTVSPropertyOp30
 70
     1
102
RTVSPropertyOp31
 70
     1
102
RTVSPropertyOp32
 70
     1
102
RTVSPropertyOp33
 70
     1
102
RTVSPropertyOp34
 70
     1
102
RTVSPropertyOp35
 70
     1
102
RTVSPropertyOp36
 70
     1
102
RTVSPropertyOp37
 70
     1
102
RTVSPropertyOp38
 70
     1
102
RTVSPropertyOp39
 70
     1
102
RTVSPropertyOp40
 70
     1
102
RTVSPropertyOp41
 70
     1
102
RTVSPropertyOp42
 70
     1
102
RTVSPropertyOp43
 70
     1
102
RTVSPropertyOp44
 70
     1
102
RTVSPropertyOp45
 70
     1
102
RTVSPropertyOp46
 70
     1
102
RTVSPropertyOp47
 70
     1
102
RTVSPropertyOp48
 70
     1
102
RTVSPropertyOp49
 70
     1
102
RTVSPropertyOp50
 70
     1
102
RTVSPropertyOp51
 70
     0
102
RTVSPropertyOp52
 70
     0
102
RTVSPropertyOp53
 70
     1
102
RTVSPropertyOp54
 70
     1
102
RTVSPropertyOp55
 70
     1
102
RTVSPropertyOp56
 70
     1
102
RTVSPropertyOp57
 70
     1
102
RTVSPost2010Prop28
280
     0
102
RTVSPost2010PropOp28
 70
     1
102
RTVSPost2010Prop29
280
     1
102
RTVSPost2010PropOp29
 70
     1
102
RTVSPost2010Prop30
280
     1
102
RTVSPost2010PropOp30
 70
     1
102
RTVSPost2010Prop31
280
     0
102
RTVSPost2010PropOp31
 70
     1
102
RTVSPost2010Prop32
280
     0
102
RTVSPost2010PropOp32
 70
     1
102
RTVSPost2010Prop33
280
     0
102
RTVSPost2010PropOp33
 70
     1
102
RTVSPost2010Prop34
280
     0
102
RTVSPost2010PropOp34
 70
     1
102
RTVSPost2010Prop35
280
     0
102
RTVSPost2010PropOp35
 70
     1
102
RTVSPost2010Prop36
280
     0
102
RTVSPost2010PropOp36
 70
     1
102
RTVSPost2010Prop37
 90
       50
102
RTVSPost2010PropOp37
 70
     1
102
RTVSPost2010Prop38
140
0.0
102
RTVSPost2010PropOp38
 70
     1
102
RTVSPost2010Prop39
140
1.0
102
RTVSPost2010PropOp39
 70
     1
102
RTVSPost2010Prop40
 90
        0
102
RTVSPost2010PropOp40
 70
     1
102
RTVSPost2010Prop41ColorIndex
 90
       18
102
RTVSPost2010Prop41ColorRGB
 90
        0
102
RTVSPost2010PropOp41
 70
     1
102
RTVSPost2010Prop42
 90
       50
102
RTVSPost2010PropOp42
 70
     1
102
RTVSPost2010Prop43
 90
        3
102
RTVSPost2010PropOp43
 70
     1
102
RTVSPost2010Prop44ColorIndex
 90
        5
102
RTVSPost2010Prop44ColorRGB
 90
      255
102
RTVSPost2010PropOp44
 70
     1
102
RTVSPost2010Prop45
280
     0
102
RTVSPost2010PropOp45
 70
     1
102
RTVSPost2010Prop46
 90
       50
102
RTVSPost2010PropOp46
 70
     1
102
RTVSPost2010Prop47
 90
       50
102
RTVSPost2010PropOp47
 70
     1
102
RTVSPost2010Prop48
 90
       50
102
RTVSPost2010PropOp48
 70
     1
102
RTVSPost2010Prop49
280
     0
102
RTVSPost2010PropOp49
 70
     1
102
RTVSPost2010Prop50
 90
       50
102
RTVSPost2010PropOp50
 70
     1
102
RTVSPost2010Prop51ColorIndex
 90
      256
102
RTVSPost2010Prop51ColorRGB
 90
-16777216
102
RTVSPost2010PropOp51
 70
     0
102
RTVSPost2010Prop52
140
1.0
102
RTVSPost2010PropOp52
 70
     0
102
RTVSPost2010Prop53
 90
        2
102
RTVSPost2010PropOp53
 70
     1
102
RTVSPost2010Prop54
  1
strokes_ogs.tif
102
RTVSPost2010PropOp54
 70
     1
102
RTVSPost2010Prop55
280
     0
102
RTVSPost2010PropOp55
 70
     1
102
RTVSPost2010Prop56
140
1.0
102
RTVSPost2010PropOp56
 70
     1
102
RTVSPost2010Prop57
140
1.0
102
RTVSPost2010PropOp57
 70
     1
  0
XRECORD
  5
4F7
102
{ACAD_REACTORS
330
4F6
102
}
330
4F6
100
AcDbXrecord
280
     1
102
RTVSPropertyOp0
 70
     1
102
RTVSPropertyOp1
 70
     1
102
RTVSPropertyOp2
 70
     1
102
RTVSPropertyOp3
 70
     1
102
RTVSPropertyOp4
 70
     1
102
RTVSPropertyOp5
 70
     1
102
RTVSPropertyOp6
 70
     1
102
RTVSPropertyOp7
 70
     1
102
RTVSPropertyOp8
 70
     1
102
RTVSPropertyOp9
 70
     1
102
RTVSPropertyOp10
 70
     1
102
RTVSPropertyOp11
 70
     1
102
RTVSPropertyOp12
 70
     1
102
RTVSPropertyOp13
 70
     1
102
RTVSPropertyOp14
 70
     1
102
RTVSPropertyOp15
 70
     1
102
RTVSPropertyOp16
 70
     1
102
RTVSPropertyOp17
 70
     1
102
RTVSPropertyOp18
 70
     1
102
RTVSPropertyOp19
 70
     1
102
RTVSPropertyOp20
 70
     1
102
RTVSPropertyOp21
 70
     1
102
RTVSPropertyOp22
 70
     1
102
RTVSPropertyOp23
 70
     1
102
RTVSPropertyOp24
 70
     1
102
RTVSPropertyOp25
 70
     1
102
RTVSPropertyOp26
 70
     1
102
RTVSPropertyOp27
 70
     1
102
RTVSPropertyOp28
 70
     1
102
RTVSPropertyOp29
 70
     1
102
RTVSPropertyOp30
 70
     1
102
RTVSPropertyOp31
 70
     1
102
RTVSPropertyOp32
 70
     1
102
RTVSPropertyOp33
 70
     1
102
RTVSPropertyOp34
 70
     1
102
RTVSPropertyOp35
 70
     1
102
RTVSPropertyOp36
 70
     1
102
RTVSPropertyOp37
 70
     1
102
RTVSPropertyOp38
 70
     1
102
RTVSPropertyOp39
 70
     1
102
RTVSPropertyOp40
 70
     1
102
RTVSPropertyOp41
 70
     1
102
RTVSPropertyOp42
 70
     1
102
RTVSPropertyOp43
 70
     1
102
RTVSPropertyOp44
 70
     1
102
RTVSPropertyOp45
 70
     1
102
RTVSPropertyOp46
 70
     1
102
RTVSPropertyOp47
 70
     1
102
RTVSPropertyOp48
 70
     1
102
RTVSPropertyOp49
 70
     1
102
RTVSPropertyOp50
 70
     1
102
RTVSPropertyOp51
 70
     0
102
RTVSPropertyOp52
 70
     0
102
RTVSPropertyOp53
 70
     1
102
RTVSPropertyOp54
 70
     1
102
RTVSPropertyOp55
 70
     1
102
RTVSPropertyOp56
 70
     1
102
RTVSPropertyOp57
 70
     1
102
RTVSPost2010Prop28
280
     0
102
RTVSPost2010PropOp28
 70
     1
102
RTVSPost2010Prop29
280
     1
102
RTVSPost2010PropOp29
 70
     1
102
RTVSPost2010Prop30
280
     1
102
RTVSPost2010PropOp30
 70
     1
102
RTVSPost2010Prop31
280
     0
102
RTVSPost2010PropOp31
 70
     1
102
RTVSPost2010Prop32
280
     0
102
RTVSPost2010PropOp32
 70
     1
102
RTVSPost2010Prop33
280
     0
102
RTVSPost2010PropOp33
 70
     1
102
RTVSPost2010Prop34
280
     0
102
RTVSPost2010PropOp34
 70
     1
102
RTVSPost2010Prop35
280
     0
102
RTVSPost2010PropOp35
 70
     1
102
RTVSPost2010Prop36
280
     0
102
RTVSPost2010PropOp36
 70
     1
102
RTVSPost2010Prop37
 90
       50
102
RTVSPost2010PropOp37
 70
     1
102
RTVSPost2010Prop38
140
0.0
102
RTVSPost2010PropOp38
 70
     1
102
RTVSPost2010Prop39
140
1.0
102
RTVSPost2010PropOp39
 70
     1
102
RTVSPost2010Prop40
 90
        0
102
RTVSPost2010PropOp40
 70
     1
102
RTVSPost2010Prop41ColorIndex
 90
       18
102
RTVSPost2010Prop41ColorRGB
 90
        0
102
RTVSPost2010PropOp41
 70
     1
102
RTVSPost2010Prop42
 90
       50
102
RTVSPost2010PropOp42
 70
     1
102
RTVSPost2010Prop43
 90
        3
102
RTVSPost2010PropOp43
 70
     1
102
RTVSPost2010Prop44ColorIndex
 90
        5
102
RTVSPost2010Prop44ColorRGB
 90
      255
102
RTVSPost2010PropOp44
 70
     1
102
RTVSPost2010Prop45
280
     0
102
RTVSPost2010PropOp45
 70
     1
102
RTVSPost2010Prop46
 90
       50
102
RTVSPost2010PropOp46
 70
     1
102
RTVSPost2010Prop47
 90
       50
102
RTVSPost2010PropOp47
 70
     1
102
RTVSPost2010Prop48
 90
       50
102
RTVSPost2010PropOp48
 70
     1
102
RTVSPost2010Prop49
280
     0
102
RTVSPost2010PropOp49
 70
     1
102
RTVSPost2010Prop50
 90
       50
102
RTVSPost2010PropOp50
 70
     1
102
RTVSPost2010Prop51ColorIndex
 90
      256
102
RTVSPost2010Prop51ColorRGB
 90
-16777216
102
RTVSPost2010PropOp51
 70
     0
102
RTVSPost2010Prop52
140
1.0
102
RTVSPost2010PropOp52
 70
     0
102
RTVSPost2010Prop53
 90
        2
102
RTVSPost2010PropOp53
 70
     1
102
RTVSPost2010Prop54
  1
strokes_ogs.tif
102
RTVSPost2010PropOp54
 70
     1
102
RTVSPost2010Prop55
280
     0
102
RTVSPost2010PropOp55
 70
     1
102
RTVSPost2010Prop56
140
1.0
102
RTVSPost2010PropOp56
 70
     1
102
RTVSPost2010Prop57
140
1.0
102
RTVSPost2010PropOp57
 70
     1
  0
XRECORD
  5
4F9
102
{ACAD_REACTORS
330
4F8
102
}
330
4F8
100
AcDbXrecord
280
     1
102
RTVSPropertyOp0
 70
     1
102
RTVSPropertyOp1
 70
     1
102
RTVSPropertyOp2
 70
     1
102
RTVSPropertyOp3
 70
     1
102
RTVSPropertyOp4
 70
     1
102
RTVSPropertyOp5
 70
     1
102
RTVSPropertyOp6
 70
     1
102
RTVSPropertyOp7
 70
     1
102
RTVSPropertyOp8
 70
     1
102
RTVSPropertyOp9
 70
     1
102
RTVSPropertyOp10
 70
     1
102
RTVSPropertyOp11
 70
     1
102
RTVSPropertyOp12
 70
     1
102
RTVSPropertyOp13
 70
     1
102
RTVSPropertyOp14
 70
     1
102
RTVSPropertyOp15
 70
     1
102
RTVSPropertyOp16
 70
     1
102
RTVSPropertyOp17
 70
     1
102
RTVSPropertyOp18
 70
     1
102
RTVSPropertyOp19
 70
     1
102
RTVSPropertyOp20
 70
     1
102
RTVSPropertyOp21
 70
     1
102
RTVSPropertyOp22
 70
     1
102
RTVSPropertyOp23
 70
     1
102
RTVSPropertyOp24
 70
     1
102
RTVSPropertyOp25
 70
     1
102
RTVSPropertyOp26
 70
     1
102
RTVSPropertyOp27
 70
     1
102
RTVSPropertyOp28
 70
     1
102
RTVSPropertyOp29
 70
     1
102
RTVSPropertyOp30
 70
     1
102
RTVSPropertyOp31
 70
     1
102
RTVSPropertyOp32
 70
     1
102
RTVSPropertyOp33
 70
     1
102
RTVSPropertyOp34
 70
     1
102
RTVSPropertyOp35
 70
     1
102
RTVSPropertyOp36
 70
     1
102
RTVSPropertyOp37
 70
     1
102
RTVSPropertyOp38
 70
     1
102
RTVSPropertyOp39
 70
     1
102
RTVSPropertyOp40
 70
     1
102
RTVSPropertyOp41
 70
     1
102
RTVSPropertyOp42
 70
     1
102
RTVSPropertyOp43
 70
     1
102
RTVSPropertyOp44
 70
     1
102
RTVSPropertyOp45
 70
     1
102
RTVSPropertyOp46
 70
     1
102
RTVSPropertyOp47
 70
     1
102
RTVSPropertyOp48
 70
     1
102
RTVSPropertyOp49
 70
     1
102
RTVSPropertyOp50
 70
     1
102
RTVSPropertyOp51
 70
     0
102
RTVSPropertyOp52
 70
     0
102
RTVSPropertyOp53
 70
     1
102
RTVSPropertyOp54
 70
     1
102
RTVSPropertyOp55
 70
     1
102
RTVSPropertyOp56
 70
     1
102
RTVSPropertyOp57
 70
     1
102
RTVSPost2010Prop28
280
     0
102
RTVSPost2010PropOp28
 70
     1
102
RTVSPost2010Prop29
280
     1
102
RTVSPost2010PropOp29
 70
     1
102
RTVSPost2010Prop30
280
     1
102
RTVSPost2010PropOp30
 70
     1
102
RTVSPost2010Prop31
280
     0
102
RTVSPost2010PropOp31
 70
     1
102
RTVSPost2010Prop32
280
     0
102
RTVSPost2010PropOp32
 70
     1
102
RTVSPost2010Prop33
280
     0
102
RTVSPost2010PropOp33
 70
     1
102
RTVSPost2010Prop34
280
     0
102
RTVSPost2010PropOp34
 70
     1
102
RTVSPost2010Prop35
280
     0
102
RTVSPost2010PropOp35
 70
     1
102
RTVSPost2010Prop36
280
     0
102
RTVSPost2010PropOp36
 70
     1
102
RTVSPost2010Prop37
 90
       50
102
RTVSPost2010PropOp37
 70
     1
102
RTVSPost2010Prop38
140
0.0
102
RTVSPost2010PropOp38
 70
     1
102
RTVSPost2010Prop39
140
1.0
102
RTVSPost2010PropOp39
 70
     1
102
RTVSPost2010Prop40
 90
        0
102
RTVSPost2010PropOp40
 70
     1
102
RTVSPost2010Prop41ColorIndex
 90
       18
102
RTVSPost2010Prop41ColorRGB
 90
        0
102
RTVSPost2010PropOp41
 70
     1
102
RTVSPost2010Prop42
 90
       50
102
RTVSPost2010PropOp42
 70
     1
102
RTVSPost2010Prop43
 90
        3
102
RTVSPost2010PropOp43
 70
     1
102
RTVSPost2010Prop44ColorIndex
 90
        5
102
RTVSPost2010Prop44ColorRGB
 90
      255
102
RTVSPost2010PropOp44
 70
     1
102
RTVSPost2010Prop45
280
     0
102
RTVSPost2010PropOp45
 70
     1
102
RTVSPost2010Prop46
 90
       50
102
RTVSPost2010PropOp46
 70
     1
102
RTVSPost2010Prop47
 90
       50
102
RTVSPost2010PropOp47
 70
     1
102
RTVSPost2010Prop48
 90
       50
102
RTVSPost2010PropOp48
 70
     1
102
RTVSPost2010Prop49
280
     0
102
RTVSPost2010PropOp49
 70
     1
102
RTVSPost2010Prop50
 90
       50
102
RTVSPost2010PropOp50
 70
     1
102
RTVSPost2010Prop51ColorIndex
 90
      256
102
RTVSPost2010Prop51ColorRGB
 90
-16777216
102
RTVSPost2010PropOp51
 70
     0
102
RTVSPost2010Prop52
140
1.0
102
RTVSPost2010PropOp52
 70
     0
102
RTVSPost2010Prop53
 90
        2
102
RTVSPost2010PropOp53
 70
     1
102
RTVSPost2010Prop54
  1
strokes_ogs.tif
102
RTVSPost2010PropOp54
 70
     1
102
RTVSPost2010Prop55
280
     0
102
RTVSPost2010PropOp55
 70
     1
102
RTVSPost2010Prop56
140
1.0
102
RTVSPost2010PropOp56
 70
     1
102
RTVSPost2010Prop57
140
1.0
102
RTVSPost2010PropOp57
 70
     1
  0
XRECORD
  5
4FB
102
{ACAD_REACTORS
330
4FA
102
}
330
4FA
100
AcDbXrecord
280
     1
102
RTVSPropertyOp0
 70
     1
102
RTVSPropertyOp1
 70
     1
102
RTVSPropertyOp2
 70
     1
102
RTVSPropertyOp3
 70
     1
102
RTVSPropertyOp4
 70
     1
102
RTVSPropertyOp5
 70
     1
102
RTVSPropertyOp6
 70
     1
102
RTVSPropertyOp7
 70
     1
102
RTVSPropertyOp8
 70
     1
102
RTVSPropertyOp9
 70
     1
102
RTVSPropertyOp10
 70
     1
102
RTVSPropertyOp11
 70
     1
102
RTVSPropertyOp12
 70
     1
102
RTVSPropertyOp13
 70
     1
102
RTVSPropertyOp14
 70
     1
102
RTVSPropertyOp15
 70
     1
102
RTVSPropertyOp16
 70
     1
102
RTVSPropertyOp17
 70
     1
102
RTVSPropertyOp18
 70
     1
102
RTVSPropertyOp19
 70
     1
102
RTVSPropertyOp20
 70
     1
102
RTVSPropertyOp21
 70
     1
102
RTVSPropertyOp22
 70
     1
102
RTVSPropertyOp23
 70
     1
102
RTVSPropertyOp24
 70
     1
102
RTVSPropertyOp25
 70
     1
102
RTVSPropertyOp26
 70
     1
102
RTVSPropertyOp27
 70
     1
102
RTVSPropertyOp28
 70
     1
102
RTVSPropertyOp29
 70
     1
102
RTVSPropertyOp30
 70
     1
102
RTVSPropertyOp31
 70
     1
102
RTVSPropertyOp32
 70
     1
102
RTVSPropertyOp33
 70
     1
102
RTVSPropertyOp34
 70
     1
102
RTVSPropertyOp35
 70
     1
102
RTVSPropertyOp36
 70
     1
102
RTVSPropertyOp37
 70
     1
102
RTVSPropertyOp38
 70
     1
102
RTVSPropertyOp39
 70
     1
102
RTVSPropertyOp40
 70
     1
102
RTVSPropertyOp41
 70
     1
102
RTVSPropertyOp42
 70
     1
102
RTVSPropertyOp43
 70
     1
102
RTVSPropertyOp44
 70
     1
102
RTVSPropertyOp45
 70
     1
102
RTVSPropertyOp46
 70
     1
102
RTVSPropertyOp47
 70
     1
102
RTVSPropertyOp48
 70
     1
102
RTVSPropertyOp49
 70
     1
102
RTVSPropertyOp50
 70
     1
102
RTVSPropertyOp51
 70
     0
102
RTVSPropertyOp52
 70
     0
102
RTVSPropertyOp53
 70
     1
102
RTVSPropertyOp54
 70
     1
102
RTVSPropertyOp55
 70
     1
102
RTVSPropertyOp56
 70
     1
102
RTVSPropertyOp57
 70
     1
102
RTVSPost2010Prop28
280
     0
102
RTVSPost2010PropOp28
 70
     1
102
RTVSPost2010Prop29
280
     1
102
RTVSPost2010PropOp29
 70
     1
102
RTVSPost2010Prop30
280
     1
102
RTVSPost2010PropOp30
 70
     1
102
RTVSPost2010Prop31
280
     0
102
RTVSPost2010PropOp31
 70
     1
102
RTVSPost2010Prop32
280
     0
102
RTVSPost2010PropOp32
 70
     1
102
RTVSPost2010Prop33
280
     0
102
RTVSPost2010PropOp33
 70
     1
102
RTVSPost2010Prop34
280
     0
102
RTVSPost2010PropOp34
 70
     1
102
RTVSPost2010Prop35
280
     0
102
RTVSPost2010PropOp35
 70
     1
102
RTVSPost2010Prop36
280
     0
102
RTVSPost2010PropOp36
 70
     1
102
RTVSPost2010Prop37
 90
       50
102
RTVSPost2010PropOp37
 70
     1
102
RTVSPost2010Prop38
140
0.0
102
RTVSPost2010PropOp38
 70
     1
102
RTVSPost2010Prop39
140
1.0
102
RTVSPost2010PropOp39
 70
     1
102
RTVSPost2010Prop40
 90
        0
102
RTVSPost2010PropOp40
 70
     1
102
RTVSPost2010Prop41ColorIndex
 90
       18
102
RTVSPost2010Prop41ColorRGB
 90
        0
102
RTVSPost2010PropOp41
 70
     1
102
RTVSPost2010Prop42
 90
       50
102
RTVSPost2010PropOp42
 70
     1
102
RTVSPost2010Prop43
 90
        3
102
RTVSPost2010PropOp43
 70
     1
102
RTVSPost2010Prop44ColorIndex
 90
        5
102
RTVSPost2010Prop44ColorRGB
 90
      255
102
RTVSPost2010PropOp44
 70
     1
102
RTVSPost2010Prop45
280
     0
102
RTVSPost2010PropOp45
 70
     1
102
RTVSPost2010Prop46
 90
       50
102
RTVSPost2010PropOp46
 70
     1
102
RTVSPost2010Prop47
 90
       50
102
RTVSPost2010PropOp47
 70
     1
102
RTVSPost2010Prop48
 90
       50
102
RTVSPost2010PropOp48
 70
     1
102
RTVSPost2010Prop49
280
     0
102
RTVSPost2010PropOp49
 70
     1
102
RTVSPost2010Prop50
 90
       50
102
RTVSPost2010PropOp50
 70
     1
102
RTVSPost2010Prop51ColorIndex
 90
      256
102
RTVSPost2010Prop51ColorRGB
 90
-16777216
102
RTVSPost2010PropOp51
 70
     0
102
RTVSPost2010Prop52
140
1.0
102
RTVSPost2010PropOp52
 70
     0
102
RTVSPost2010Prop53
 90
        2
102
RTVSPost2010PropOp53
 70
     1
102
RTVSPost2010Prop54
  1
strokes_ogs.tif
102
RTVSPost2010PropOp54
 70
     1
102
RTVSPost2010Prop55
280
     0
102
RTVSPost2010PropOp55
 70
     1
102
RTVSPost2010Prop56
140
1.0
102
RTVSPost2010PropOp56
 70
     1
102
RTVSPost2010Prop57
140
1.0
102
RTVSPost2010PropOp57
 70
     1
  0
XRECORD
  5
4FD
102
{ACAD_REACTORS
330
4FC
102
}
330
4FC
100
AcDbXrecord
280
     1
102
RTVSPropertyOp0
 70
     1
102
RTVSPropertyOp1
 70
     1
102
RTVSPropertyOp2
 70
     1
102
RTVSPropertyOp3
 70
     1
102
RTVSPropertyOp4
 70
     1
102
RTVSPropertyOp5
 70
     1
102
RTVSPropertyOp6
 70
     1
102
RTVSPropertyOp7
 70
     1
102
RTVSPropertyOp8
 70
     1
102
RTVSPropertyOp9
 70
     1
102
RTVSPropertyOp10
 70
     1
102
RTVSPropertyOp11
 70
     1
102
RTVSPropertyOp12
 70
     1
102
RTVSPropertyOp13
 70
     1
102
RTVSPropertyOp14
 70
     1
102
RTVSPropertyOp15
 70
     1
102
RTVSPropertyOp16
 70
     1
102
RTVSPropertyOp17
 70
     1
102
RTVSPropertyOp18
 70
     1
102
RTVSPropertyOp19
 70
     1
102
RTVSPropertyOp20
 70
     1
102
RTVSPropertyOp21
 70
     1
102
RTVSPropertyOp22
 70
     1
102
RTVSPropertyOp23
 70
     1
102
RTVSPropertyOp24
 70
     1
102
RTVSPropertyOp25
 70
     1
102
RTVSPropertyOp26
 70
     1
102
RTVSPropertyOp27
 70
     1
102
RTVSPropertyOp28
 70
     1
102
RTVSPropertyOp29
 70
     1
102
RTVSPropertyOp30
 70
     1
102
RTVSPropertyOp31
 70
     1
102
RTVSPropertyOp32
 70
     1
102
RTVSPropertyOp33
 70
     1
102
RTVSPropertyOp34
 70
     1
102
RTVSPropertyOp35
 70
     1
102
RTVSPropertyOp36
 70
     1
102
RTVSPropertyOp37
 70
     1
102
RTVSPropertyOp38
 70
     1
102
RTVSPropertyOp39
 70
     1
102
RTVSPropertyOp40
 70
     1
102
RTVSPropertyOp41
 70
     1
102
RTVSPropertyOp42
 70
     1
102
RTVSPropertyOp43
 70
     1
102
RTVSPropertyOp44
 70
     1
102
RTVSPropertyOp45
 70
     1
102
RTVSPropertyOp46
 70
     1
102
RTVSPropertyOp47
 70
     1
102
RTVSPropertyOp48
 70
     1
102
RTVSPropertyOp49
 70
     1
102
RTVSPropertyOp50
 70
     1
102
RTVSPropertyOp51
 70
     0
102
RTVSPropertyOp52
 70
     0
102
RTVSPropertyOp53
 70
     1
102
RTVSPropertyOp54
 70
     1
102
RTVSPropertyOp55
 70
     1
102
RTVSPropertyOp56
 70
     1
102
RTVSPropertyOp57
 70
     1
102
RTVSPost2010Prop28
280
     0
102
RTVSPost2010PropOp28
 70
     1
102
RTVSPost2010Prop29
280
     1
102
RTVSPost2010PropOp29
 70
     1
102
RTVSPost2010Prop30
280
     1
102
RTVSPost2010PropOp30
 70
     1
102
RTVSPost2010Prop31
280
     0
102
RTVSPost2010PropOp31
 70
     1
102
RTVSPost2010Prop32
280
     0
102
RTVSPost2010PropOp32
 70
     1
102
RTVSPost2010Prop33
280
     0
102
RTVSPost2010PropOp33
 70
     1
102
RTVSPost2010Prop34
280
     0
102
RTVSPost2010PropOp34
 70
     1
102
RTVSPost2010Prop35
280
     0
102
RTVSPost2010PropOp35
 70
     1
102
RTVSPost2010Prop36
280
     0
102
RTVSPost2010PropOp36
 70
     1
102
RTVSPost2010Prop37
 90
       50
102
RTVSPost2010PropOp37
 70
     1
102
RTVSPost2010Prop38
140
0.0
102
RTVSPost2010PropOp38
 70
     1
102
RTVSPost2010Prop39
140
1.0
102
RTVSPost2010PropOp39
 70
     1
102
RTVSPost2010Prop40
 90
        0
102
RTVSPost2010PropOp40
 70
     1
102
RTVSPost2010Prop41ColorIndex
 90
       18
102
RTVSPost2010Prop41ColorRGB
 90
        0
102
RTVSPost2010PropOp41
 70
     1
102
RTVSPost2010Prop42
 90
       50
102
RTVSPost2010PropOp42
 70
     1
102
RTVSPost2010Prop43
 90
        3
102
RTVSPost2010PropOp43
 70
     1
102
RTVSPost2010Prop44ColorIndex
 90
        5
102
RTVSPost2010Prop44ColorRGB
 90
      255
102
RTVSPost2010PropOp44
 70
     1
102
RTVSPost2010Prop45
280
     0
102
RTVSPost2010PropOp45
 70
     1
102
RTVSPost2010Prop46
 90
       50
102
RTVSPost2010PropOp46
 70
     1
102
RTVSPost2010Prop47
 90
       50
102
RTVSPost2010PropOp47
 70
     1
102
RTVSPost2010Prop48
 90
       50
102
RTVSPost2010PropOp48
 70
     1
102
RTVSPost2010Prop49
280
     0
102
RTVSPost2010PropOp49
 70
     1
102
RTVSPost2010Prop50
 90
       50
102
RTVSPost2010PropOp50
 70
     1
102
RTVSPost2010Prop51ColorIndex
 90
      256
102
RTVSPost2010Prop51ColorRGB
 90
-16777216
102
RTVSPost2010PropOp51
 70
     0
102
RTVSPost2010Prop52
140
1.0
102
RTVSPost2010PropOp52
 70
     0
102
RTVSPost2010Prop53
 90
        2
102
RTVSPost2010PropOp53
 70
     1
102
RTVSPost2010Prop54
  1
strokes_ogs.tif
102
RTVSPost2010PropOp54
 70
     1
102
RTVSPost2010Prop55
280
     0
102
RTVSPost2010PropOp55
 70
     1
102
RTVSPost2010Prop56
140
1.0
102
RTVSPost2010PropOp56
 70
     1
102
RTVSPost2010Prop57
140
1.0
102
RTVSPost2010PropOp57
 70
     1
  0
XRECORD
  5
4FF
102
{ACAD_REACTORS
330
4FE
102
}
330
4FE
100
AcDbXrecord
280
     1
102
RTVSPropertyOp0
 70
     1
102
RTVSPropertyOp1
 70
     1
102
RTVSPropertyOp2
 70
     1
102
RTVSPropertyOp3
 70
     1
102
RTVSPropertyOp4
 70
     1
102
RTVSPropertyOp5
 70
     1
102
RTVSPropertyOp6
 70
     1
102
RTVSPropertyOp7
 70
     1
102
RTVSPropertyOp8
 70
     1
102
RTVSPropertyOp9
 70
     1
102
RTVSPropertyOp10
 70
     1
102
RTVSPropertyOp11
 70
     1
102
RTVSPropertyOp12
 70
     1
102
RTVSPropertyOp13
 70
     1
102
RTVSPropertyOp14
 70
     1
102
RTVSPropertyOp15
 70
     1
102
RTVSPropertyOp16
 70
     1
102
RTVSPropertyOp17
 70
     1
102
RTVSPropertyOp18
 70
     1
102
RTVSPropertyOp19
 70
     1
102
RTVSPropertyOp20
 70
     1
102
RTVSPropertyOp21
 70
     1
102
RTVSPropertyOp22
 70
     1
102
RTVSPropertyOp23
 70
     1
102
RTVSPropertyOp24
 70
     1
102
RTVSPropertyOp25
 70
     1
102
RTVSPropertyOp26
 70
     1
102
RTVSPropertyOp27
 70
     1
102
RTVSPropertyOp28
 70
     1
102
RTVSPropertyOp29
 70
     1
102
RTVSPropertyOp30
 70
     1
102
RTVSPropertyOp31
 70
     1
102
RTVSPropertyOp32
 70
     1
102
RTVSPropertyOp33
 70
     1
102
RTVSPropertyOp34
 70
     1
102
RTVSPropertyOp35
 70
     1
102
RTVSPropertyOp36
 70
     1
102
RTVSPropertyOp37
 70
     1
102
RTVSPropertyOp38
 70
     1
102
RTVSPropertyOp39
 70
     1
102
RTVSPropertyOp40
 70
     1
102
RTVSPropertyOp41
 70
     1
102
RTVSPropertyOp42
 70
     1
102
RTVSPropertyOp43
 70
     1
102
RTVSPropertyOp44
 70
     1
102
RTVSPropertyOp45
 70
     1
102
RTVSPropertyOp46
 70
     1
102
RTVSPropertyOp47
 70
     1
102
RTVSPropertyOp48
 70
     1
102
RTVSPropertyOp49
 70
     1
102
RTVSPropertyOp50
 70
     1
102
RTVSPropertyOp51
 70
     0
102
RTVSPropertyOp52
 70
     0
102
RTVSPropertyOp53
 70
     1
102
RTVSPropertyOp54
 70
     1
102
RTVSPropertyOp55
 70
     1
102
RTVSPropertyOp56
 70
     1
102
RTVSPropertyOp57
 70
     1
102
RTVSPost2010Prop28
280
     0
102
RTVSPost2010PropOp28
 70
     1
102
RTVSPost2010Prop29
280
     1
102
RTVSPost2010PropOp29
 70
     1
102
RTVSPost2010Prop30
280
     1
102
RTVSPost2010PropOp30
 70
     1
102
RTVSPost2010Prop31
280
     0
102
RTVSPost2010PropOp31
 70
     1
102
RTVSPost2010Prop32
280
     0
102
RTVSPost2010PropOp32
 70
     1
102
RTVSPost2010Prop33
280
     0
102
RTVSPost2010PropOp33
 70
     1
102
RTVSPost2010Prop34
280
     0
102
RTVSPost2010PropOp34
 70
     1
102
RTVSPost2010Prop35
280
     0
102
RTVSPost2010PropOp35
 70
     1
102
RTVSPost2010Prop36
280
     0
102
RTVSPost2010PropOp36
 70
     1
102
RTVSPost2010Prop37
 90
       50
102
RTVSPost2010PropOp37
 70
     1
102
RTVSPost2010Prop38
140
0.0
102
RTVSPost2010PropOp38
 70
     1
102
RTVSPost2010Prop39
140
1.0
102
RTVSPost2010PropOp39
 70
     1
102
RTVSPost2010Prop40
 90
        0
102
RTVSPost2010PropOp40
 70
     1
102
RTVSPost2010Prop41ColorIndex
 90
       18
102
RTVSPost2010Prop41ColorRGB
 90
        0
102
RTVSPost2010PropOp41
 70
     1
102
RTVSPost2010Prop42
 90
       50
102
RTVSPost2010PropOp42
 70
     1
102
RTVSPost2010Prop43
 90
        3
102
RTVSPost2010PropOp43
 70
     1
102
RTVSPost2010Prop44ColorIndex
 90
        5
102
RTVSPost2010Prop44ColorRGB
 90
      255
102
RTVSPost2010PropOp44
 70
     1
102
RTVSPost2010Prop45
280
     0
102
RTVSPost2010PropOp45
 70
     1
102
RTVSPost2010Prop46
 90
       50
102
RTVSPost2010PropOp46
 70
     1
102
RTVSPost2010Prop47
 90
       50
102
RTVSPost2010PropOp47
 70
     1
102
RTVSPost2010Prop48
 90
       50
102
RTVSPost2010PropOp48
 70
     1
102
RTVSPost2010Prop49
280
     0
102
RTVSPost2010PropOp49
 70
     1
102
RTVSPost2010Prop50
 90
       50
102
RTVSPost2010PropOp50
 70
     1
102
RTVSPost2010Prop51ColorIndex
 90
      256
102
RTVSPost2010Prop51ColorRGB
 90
-16777216
102
RTVSPost2010PropOp51
 70
     0
102
RTVSPost2010Prop52
140
1.0
102
RTVSPost2010PropOp52
 70
     0
102
RTVSPost2010Prop53
 90
        2
102
RTVSPost2010PropOp53
 70
     1
102
RTVSPost2010Prop54
  1
strokes_ogs.tif
102
RTVSPost2010PropOp54
 70
     1
102
RTVSPost2010Prop55
280
     0
102
RTVSPost2010PropOp55
 70
     1
102
RTVSPost2010Prop56
140
1.0
102
RTVSPost2010PropOp56
 70
     1
102
RTVSPost2010Prop57
140
1.0
102
RTVSPost2010PropOp57
 70
     1
  0
XRECORD
  5
501
102
{ACAD_REACTORS
330
500
102
}
330
500
100
AcDbXrecord
280
     1
102
RTVSPropertyOp0
 70
     0
102
RTVSPropertyOp1
 70
     0
102
RTVSPropertyOp2
 70
     0
102
RTVSPropertyOp3
 70
     0
102
RTVSPropertyOp4
 70
     0
102
RTVSPropertyOp5
 70
     0
102
RTVSPropertyOp6
 70
     0
102
RTVSPropertyOp7
 70
     0
102
RTVSPropertyOp8
 70
     0
102
RTVSPropertyOp9
 70
     0
102
RTVSPropertyOp10
 70
     0
102
RTVSPropertyOp11
 70
     0
102
RTVSPropertyOp12
 70
     0
102
RTVSPropertyOp13
 70
     0
102
RTVSPropertyOp14
 70
     2
102
RTVSPropertyOp15
 70
     0
102
RTVSPropertyOp16
 70
     0
102
RTVSPropertyOp17
 70
     0
102
RTVSPropertyOp18
 70
     0
102
RTVSPropertyOp19
 70
     0
102
RTVSPropertyOp20
 70
     0
102
RTVSPropertyOp21
 70
     0
102
RTVSPropertyOp22
 70
     0
102
RTVSPropertyOp23
 70
     0
102
RTVSPropertyOp24
 70
     0
102
RTVSPropertyOp25
 70
     0
102
RTVSPropertyOp26
 70
     0
102
RTVSPropertyOp27
 70
     0
102
RTVSPropertyOp28
 70
     0
102
RTVSPropertyOp29
 70
     0
102
RTVSPropertyOp30
 70
     0
102
RTVSPropertyOp31
 70
     0
102
RTVSPropertyOp32
 70
     0
102
RTVSPropertyOp33
 70
     0
102
RTVSPropertyOp34
 70
     0
102
RTVSPropertyOp35
 70
     0
102
RTVSPropertyOp36
 70
     0
102
RTVSPropertyOp37
 70
     0
102
RTVSPropertyOp38
 70
     0
102
RTVSPropertyOp39
 70
     0
102
RTVSPropertyOp40
 70
     0
102
RTVSPropertyOp41
 70
     0
102
RTVSPropertyOp42
 70
     0
102
RTVSPropertyOp43
 70
     0
102
RTVSPropertyOp44
 70
     0
102
RTVSPropertyOp45
 70
     0
102
RTVSPropertyOp46
 70
     0
102
RTVSPropertyOp47
 70
     0
102
RTVSPropertyOp48
 70
     0
102
RTVSPropertyOp49
 70
     0
102
RTVSPropertyOp50
 70
     0
102
RTVSPropertyOp51
 70
     0
102
RTVSPropertyOp52
 70
     0
102
RTVSPropertyOp53
 70
     0
102
RTVSPropertyOp54
 70
     0
102
RTVSPropertyOp55
 70
     0
102
RTVSPropertyOp56
 70
     0
102
RTVSPropertyOp57
 70
     0
102
RTVSPost2010Prop28
280
     0
102
RTVSPost2010PropOp28
 70
     0
102
RTVSPost2010Prop29
280
     1
102
RTVSPost2010PropOp29
 70
     0
102
RTVSPost2010Prop30
280
     1
102
RTVSPost2010PropOp30
 70
     0
102
RTVSPost2010Prop31
280
     0
102
RTVSPost2010PropOp31
 70
     0
102
RTVSPost2010Prop32
280
     0
102
RTVSPost2010PropOp32
 70
     0
102
RTVSPost2010Prop33
280
     0
102
RTVSPost2010PropOp33
 70
     0
102
RTVSPost2010Prop34
280
     0
102
RTVSPost2010PropOp34
 70
     0
102
RTVSPost2010Prop35
280
     0
102
RTVSPost2010PropOp35
 70
     0
102
RTVSPost2010Prop36
280
     0
102
RTVSPost2010PropOp36
 70
     0
102
RTVSPost2010Prop37
 90
       50
102
RTVSPost2010PropOp37
 70
     0
102
RTVSPost2010Prop38
140
0.0
102
RTVSPost2010PropOp38
 70
     0
102
RTVSPost2010Prop39
140
1.0
102
RTVSPost2010PropOp39
 70
     0
102
RTVSPost2010Prop40
 90
        0
102
RTVSPost2010PropOp40
 70
     0
102
RTVSPost2010Prop41ColorIndex
 90
       18
102
RTVSPost2010Prop41ColorRGB
 90
        0
102
RTVSPost2010PropOp41
 70
     0
102
RTVSPost2010Prop42
 90
       50
102
RTVSPost2010PropOp42
 70
     0
102
RTVSPost2010Prop43
 90
        3
102
RTVSPost2010PropOp43
 70
     0
102
RTVSPost2010Prop44ColorIndex
 90
        5
102
RTVSPost2010Prop44ColorRGB
 90
      255
102
RTVSPost2010PropOp44
 70
     0
102
RTVSPost2010Prop45
280
     0
102
RTVSPost2010PropOp45
 70
     0
102
RTVSPost2010Prop46
 90
       50
102
RTVSPost2010PropOp46
 70
     0
102
RTVSPost2010Prop47
 90
       50
102
RTVSPost2010PropOp47
 70
     0
102
RTVSPost2010Prop48
 90
       50
102
RTVSPost2010PropOp48
 70
     0
102
RTVSPost2010Prop49
280
     0
102
RTVSPost2010PropOp49
 70
     0
102
RTVSPost2010Prop50
 90
       50
102
RTVSPost2010PropOp50
 70
     0
102
RTVSPost2010Prop51ColorIndex
 90
      256
102
RTVSPost2010Prop51ColorRGB
 90
-16777216
102
RTVSPost2010PropOp51
 70
     0
102
RTVSPost2010Prop52
140
1.0
102
RTVSPost2010PropOp52
 70
     0
102
RTVSPost2010Prop53
 90
        2
102
RTVSPost2010PropOp53
 70
     0
102
RTVSPost2010Prop54
  1
strokes_ogs.tif
102
RTVSPost2010PropOp54
 70
     0
102
RTVSPost2010Prop55
280
     0
102
RTVSPost2010PropOp55
 70
     0
102
RTVSPost2010Prop56
140
1.0
102
RTVSPost2010PropOp56
 70
     0
102
RTVSPost2010Prop57
140
1.0
102
RTVSPost2010PropOp57
 70
     0
  0
XRECORD
  5
503
102
{ACAD_REACTORS
330
502
102
}
330
502
100
AcDbXrecord
280
     1
102
RTVSPropertyOp0
 70
     1
102
RTVSPropertyOp1
 70
     1
102
RTVSPropertyOp2
 70
     1
102
RTVSPropertyOp3
 70
     1
102
RTVSPropertyOp4
 70
     1
102
RTVSPropertyOp5
 70
     1
102
RTVSPropertyOp6
 70
     1
102
RTVSPropertyOp7
 70
     1
102
RTVSPropertyOp8
 70
     1
102
RTVSPropertyOp9
 70
     1
102
RTVSPropertyOp10
 70
     1
102
RTVSPropertyOp11
 70
     1
102
RTVSPropertyOp12
 70
     1
102
RTVSPropertyOp13
 70
     1
102
RTVSPropertyOp14
 70
     1
102
RTVSPropertyOp15
 70
     1
102
RTVSPropertyOp16
 70
     1
102
RTVSPropertyOp17
 70
     1
102
RTVSPropertyOp18
 70
     1
102
RTVSPropertyOp19
 70
     1
102
RTVSPropertyOp20
 70
     1
102
RTVSPropertyOp21
 70
     1
102
RTVSPropertyOp22
 70
     1
102
RTVSPropertyOp23
 70
     1
102
RTVSPropertyOp24
 70
     1
102
RTVSPropertyOp25
 70
     1
102
RTVSPropertyOp26
 70
     1
102
RTVSPropertyOp27
 70
     1
102
RTVSPropertyOp28
 70
     1
102
RTVSPropertyOp29
 70
     1
102
RTVSPropertyOp30
 70
     1
102
RTVSPropertyOp31
 70
     1
102
RTVSPropertyOp32
 70
     1
102
RTVSPropertyOp33
 70
     1
102
RTVSPropertyOp34
 70
     1
102
RTVSPropertyOp35
 70
     1
102
RTVSPropertyOp36
 70
     1
102
RTVSPropertyOp37
 70
     1
102
RTVSPropertyOp38
 70
     1
102
RTVSPropertyOp39
 70
     1
102
RTVSPropertyOp40
 70
     1
102
RTVSPropertyOp41
 70
     1
102
RTVSPropertyOp42
 70
     1
102
RTVSPropertyOp43
 70
     1
102
RTVSPropertyOp44
 70
     1
102
RTVSPropertyOp45
 70
     1
102
RTVSPropertyOp46
 70
     1
102
RTVSPropertyOp47
 70
     1
102
RTVSPropertyOp48
 70
     1
102
RTVSPropertyOp49
 70
     1
102
RTVSPropertyOp50
 70
     1
102
RTVSPropertyOp51
 70
     0
102
RTVSPropertyOp52
 70
     0
102
RTVSPropertyOp53
 70
     1
102
RTVSPropertyOp54
 70
     1
102
RTVSPropertyOp55
 70
     1
102
RTVSPropertyOp56
 70
     1
102
RTVSPropertyOp57
 70
     1
102
RTVSPost2010Prop28
280
     0
102
RTVSPost2010PropOp28
 70
     1
102
RTVSPost2010Prop29
280
     1
102
RTVSPost2010PropOp29
 70
     1
102
RTVSPost2010Prop30
280
     1
102
RTVSPost2010PropOp30
 70
     1
102
RTVSPost2010Prop31
280
     0
102
RTVSPost2010PropOp31
 70
     1
102
RTVSPost2010Prop32
280
     0
102
RTVSPost2010PropOp32
 70
     1
102
RTVSPost2010Prop33
280
     0
102
RTVSPost2010PropOp33
 70
     1
102
RTVSPost2010Prop34
280
     0
102
RTVSPost2010PropOp34
 70
     1
102
RTVSPost2010Prop35
280
     0
102
RTVSPost2010PropOp35
 70
     1
102
RTVSPost2010Prop36
280
     0
102
RTVSPost2010PropOp36
 70
     1
102
RTVSPost2010Prop37
 90
       50
102
RTVSPost2010PropOp37
 70
     1
102
RTVSPost2010Prop38
140
0.0
102
RTVSPost2010PropOp38
 70
     1
102
RTVSPost2010Prop39
140
1.0
102
RTVSPost2010PropOp39
 70
     1
102
RTVSPost2010Prop40
 90
        0
102
RTVSPost2010PropOp40
 70
     1
102
RTVSPost2010Prop41ColorIndex
 90
       18
102
RTVSPost2010Prop41ColorRGB
 90
        0
102
RTVSPost2010PropOp41
 70
     1
102
RTVSPost2010Prop42
 90
       50
102
RTVSPost2010PropOp42
 70
     1
102
RTVSPost2010Prop43
 90
        3
102
RTVSPost2010PropOp43
 70
     1
102
RTVSPost2010Prop44ColorIndex
 90
        5
102
RTVSPost2010Prop44ColorRGB
 90
      255
102
RTVSPost2010PropOp44
 70
     1
102
RTVSPost2010Prop45
280
     0
102
RTVSPost2010PropOp45
 70
     1
102
RTVSPost2010Prop46
 90
       50
102
RTVSPost2010PropOp46
 70
     1
102
RTVSPost2010Prop47
 90
       50
102
RTVSPost2010PropOp47
 70
     1
102
RTVSPost2010Prop48
 90
       50
102
RTVSPost2010PropOp48
 70
     1
102
RTVSPost2010Prop49
280
     0
102
RTVSPost2010PropOp49
 70
     1
102
RTVSPost2010Prop50
 90
       50
102
RTVSPost2010PropOp50
 70
     1
102
RTVSPost2010Prop51ColorIndex
 90
      256
102
RTVSPost2010Prop51ColorRGB
 90
-16777216
102
RTVSPost2010PropOp51
 70
     0
102
RTVSPost2010Prop52
140
1.0
102
RTVSPost2010PropOp52
 70
     0
102
RTVSPost2010Prop53
 90
        2
102
RTVSPost2010PropOp53
 70
     1
102
RTVSPost2010Prop54
  1
strokes_ogs.tif
102
RTVSPost2010PropOp54
 70
     1
102
RTVSPost2010Prop55
280
     0
102
RTVSPost2010PropOp55
 70
     1
102
RTVSPost2010Prop56
140
1.0
102
RTVSPost2010PropOp56
 70
     1
102
RTVSPost2010Prop57
140
1.0
102
RTVSPost2010PropOp57
 70
     1
  0
XRECORD
  5
505
102
{ACAD_REACTORS
330
504
102
}
330
504
100
AcDbXrecord
280
     1
102
RTVSPropertyOp0
 70
     0
102
RTVSPropertyOp1
 70
     0
102
RTVSPropertyOp2
 70
     0
102
RTVSPropertyOp3
 70
     0
102
RTVSPropertyOp4
 70
     0
102
RTVSPropertyOp5
 70
     0
102
RTVSPropertyOp6
 70
     0
102
RTVSPropertyOp7
 70
     0
102
RTVSPropertyOp8
 70
     0
102
RTVSPropertyOp9
 70
     0
102
RTVSPropertyOp10
 70
     0
102
RTVSPropertyOp11
 70
     0
102
RTVSPropertyOp12
 70
     0
102
RTVSPropertyOp13
 70
     0
102
RTVSPropertyOp14
 70
     2
102
RTVSPropertyOp15
 70
     0
102
RTVSPropertyOp16
 70
     0
102
RTVSPropertyOp17
 70
     0
102
RTVSPropertyOp18
 70
     0
102
RTVSPropertyOp19
 70
     0
102
RTVSPropertyOp20
 70
     0
102
RTVSPropertyOp21
 70
     0
102
RTVSPropertyOp22
 70
     0
102
RTVSPropertyOp23
 70
     0
102
RTVSPropertyOp24
 70
     0
102
RTVSPropertyOp25
 70
     0
102
RTVSPropertyOp26
 70
     0
102
RTVSPropertyOp27
 70
     0
102
RTVSPropertyOp28
 70
     0
102
RTVSPropertyOp29
 70
     0
102
RTVSPropertyOp30
 70
     0
102
RTVSPropertyOp31
 70
     0
102
RTVSPropertyOp32
 70
     0
102
RTVSPropertyOp33
 70
     0
102
RTVSPropertyOp34
 70
     0
102
RTVSPropertyOp35
 70
     0
102
RTVSPropertyOp36
 70
     0
102
RTVSPropertyOp37
 70
     0
102
RTVSPropertyOp38
 70
     0
102
RTVSPropertyOp39
 70
     0
102
RTVSPropertyOp40
 70
     0
102
RTVSPropertyOp41
 70
     0
102
RTVSPropertyOp42
 70
     0
102
RTVSPropertyOp43
 70
     0
102
RTVSPropertyOp44
 70
     0
102
RTVSPropertyOp45
 70
     0
102
RTVSPropertyOp46
 70
     0
102
RTVSPropertyOp47
 70
     0
102
RTVSPropertyOp48
 70
     0
102
RTVSPropertyOp49
 70
     0
102
RTVSPropertyOp50
 70
     0
102
RTVSPropertyOp51
 70
     0
102
RTVSPropertyOp52
 70
     0
102
RTVSPropertyOp53
 70
     0
102
RTVSPropertyOp54
 70
     0
102
RTVSPropertyOp55
 70
     0
102
RTVSPropertyOp56
 70
     0
102
RTVSPropertyOp57
 70
     0
102
RTVSPost2010Prop28
280
     0
102
RTVSPost2010PropOp28
 70
     0
102
RTVSPost2010Prop29
280
     1
102
RTVSPost2010PropOp29
 70
     0
102
RTVSPost2010Prop30
280
     1
102
RTVSPost2010PropOp30
 70
     0
102
RTVSPost2010Prop31
280
     0
102
RTVSPost2010PropOp31
 70
     0
102
RTVSPost2010Prop32
280
     0
102
RTVSPost2010PropOp32
 70
     0
102
RTVSPost2010Prop33
280
     0
102
RTVSPost2010PropOp33
 70
     0
102
RTVSPost2010Prop34
280
     0
102
RTVSPost2010PropOp34
 70
     0
102
RTVSPost2010Prop35
280
     0
102
RTVSPost2010PropOp35
 70
     0
102
RTVSPost2010Prop36
280
     0
102
RTVSPost2010PropOp36
 70
     0
102
RTVSPost2010Prop37
 90
       50
102
RTVSPost2010PropOp37
 70
     0
102
RTVSPost2010Prop38
140
0.0
102
RTVSPost2010PropOp38
 70
     0
102
RTVSPost2010Prop39
140
1.0
102
RTVSPost2010PropOp39
 70
     0
102
RTVSPost2010Prop40
 90
        0
102
RTVSPost2010PropOp40
 70
     0
102
RTVSPost2010Prop41ColorIndex
 90
       18
102
RTVSPost2010Prop41ColorRGB
 90
        0
102
RTVSPost2010PropOp41
 70
     0
102
RTVSPost2010Prop42
 90
       50
102
RTVSPost2010PropOp42
 70
     0
102
RTVSPost2010Prop43
 90
        3
102
RTVSPost2010PropOp43
 70
     0
102
RTVSPost2010Prop44ColorIndex
 90
        5
102
RTVSPost2010Prop44ColorRGB
 90
      255
102
RTVSPost2010PropOp44
 70
     0
102
RTVSPost2010Prop45
280
     0
102
RTVSPost2010PropOp45
 70
     0
102
RTVSPost2010Prop46
 90
       50
102
RTVSPost2010PropOp46
 70
     0
102
RTVSPost2010Prop47
 90
       50
102
RTVSPost2010PropOp47
 70
     0
102
RTVSPost2010Prop48
 90
       50
102
RTVSPost2010PropOp48
 70
     0
102
RTVSPost2010Prop49
280
     0
102
RTVSPost2010PropOp49
 70
     0
102
RTVSPost2010Prop50
 90
       50
102
RTVSPost2010PropOp50
 70
     0
102
RTVSPost2010Prop51ColorIndex
 90
      256
102
RTVSPost2010Prop51ColorRGB
 90
-16777216
102
RTVSPost2010PropOp51
 70
     0
102
RTVSPost2010Prop52
140
1.0
102
RTVSPost2010PropOp52
 70
     0
102
RTVSPost2010Prop53
 90
        2
102
RTVSPost2010PropOp53
 70
     0
102
RTVSPost2010Prop54
  1
strokes_ogs.tif
102
RTVSPost2010PropOp54
 70
     0
102
RTVSPost2010Prop55
280
     0
102
RTVSPost2010PropOp55
 70
     0
102
RTVSPost2010Prop56
140
1.0
102
RTVSPost2010PropOp56
 70
     0
102
RTVSPost2010Prop57
140
1.0
102
RTVSPost2010PropOp57
 70
     0
  0
XRECORD
  5
507
102
{ACAD_REACTORS
330
506
102
}
330
506
100
AcDbXrecord
280
     1
102
RTVSPropertyOp0
 70
     1
102
RTVSPropertyOp1
 70
     1
102
RTVSPropertyOp2
 70
     1
102
RTVSPropertyOp3
 70
     1
102
RTVSPropertyOp4
 70
     1
102
RTVSPropertyOp5
 70
     1
102
RTVSPropertyOp6
 70
     1
102
RTVSPropertyOp7
 70
     1
102
RTVSPropertyOp8
 70
     1
102
RTVSPropertyOp9
 70
     1
102
RTVSPropertyOp10
 70
     1
102
RTVSPropertyOp11
 70
     1
102
RTVSPropertyOp12
 70
     1
102
RTVSPropertyOp13
 70
     1
102
RTVSPropertyOp14
 70
     1
102
RTVSPropertyOp15
 70
     1
102
RTVSPropertyOp16
 70
     1
102
RTVSPropertyOp17
 70
     1
102
RTVSPropertyOp18
 70
     1
102
RTVSPropertyOp19
 70
     1
102
RTVSPropertyOp20
 70
     1
102
RTVSPropertyOp21
 70
     1
102
RTVSPropertyOp22
 70
     1
102
RTVSPropertyOp23
 70
     1
102
RTVSPropertyOp24
 70
     1
102
RTVSPropertyOp25
 70
     1
102
RTVSPropertyOp26
 70
     1
102
RTVSPropertyOp27
 70
     1
102
RTVSPropertyOp28
 70
     1
102
RTVSPropertyOp29
 70
     1
102
RTVSPropertyOp30
 70
     1
102
RTVSPropertyOp31
 70
     1
102
RTVSPropertyOp32
 70
     1
102
RTVSPropertyOp33
 70
     1
102
RTVSPropertyOp34
 70
     1
102
RTVSPropertyOp35
 70
     1
102
RTVSPropertyOp36
 70
     1
102
RTVSPropertyOp37
 70
     1
102
RTVSPropertyOp38
 70
     1
102
RTVSPropertyOp39
 70
     1
102
RTVSPropertyOp40
 70
     1
102
RTVSPropertyOp41
 70
     1
102
RTVSPropertyOp42
 70
     1
102
RTVSPropertyOp43
 70
     1
102
RTVSPropertyOp44
 70
     1
102
RTVSPropertyOp45
 70
     1
102
RTVSPropertyOp46
 70
     1
102
RTVSPropertyOp47
 70
     1
102
RTVSPropertyOp48
 70
     1
102
RTVSPropertyOp49
 70
     1
102
RTVSPropertyOp50
 70
     1
102
RTVSPropertyOp51
 70
     0
102
RTVSPropertyOp52
 70
     0
102
RTVSPropertyOp53
 70
     1
102
RTVSPropertyOp54
 70
     1
102
RTVSPropertyOp55
 70
     1
102
RTVSPropertyOp56
 70
     1
102
RTVSPropertyOp57
 70
     1
102
RTVSPost2010Prop28
280
     0
102
RTVSPost2010PropOp28
 70
     1
102
RTVSPost2010Prop29
280
     1
102
RTVSPost2010PropOp29
 70
     1
102
RTVSPost2010Prop30
280
     1
102
RTVSPost2010PropOp30
 70
     1
102
RTVSPost2010Prop31
280
     0
102
RTVSPost2010PropOp31
 70
     1
102
RTVSPost2010Prop32
280
     0
102
RTVSPost2010PropOp32
 70
     1
102
RTVSPost2010Prop33
280
     0
102
RTVSPost2010PropOp33
 70
     1
102
RTVSPost2010Prop34
280
     0
102
RTVSPost2010PropOp34
 70
     1
102
RTVSPost2010Prop35
280
     0
102
RTVSPost2010PropOp35
 70
     1
102
RTVSPost2010Prop36
280
     0
102
RTVSPost2010PropOp36
 70
     1
102
RTVSPost2010Prop37
 90
       50
102
RTVSPost2010PropOp37
 70
     1
102
RTVSPost2010Prop38
140
0.0
102
RTVSPost2010PropOp38
 70
     1
102
RTVSPost2010Prop39
140
1.0
102
RTVSPost2010PropOp39
 70
     1
102
RTVSPost2010Prop40
 90
        0
102
RTVSPost2010PropOp40
 70
     1
102
RTVSPost2010Prop41ColorIndex
 90
       18
102
RTVSPost2010Prop41ColorRGB
 90
        0
102
RTVSPost2010PropOp41
 70
     1
102
RTVSPost2010Prop42
 90
       50
102
RTVSPost2010PropOp42
 70
     1
102
RTVSPost2010Prop43
 90
        3
102
RTVSPost2010PropOp43
 70
     1
102
RTVSPost2010Prop44ColorIndex
 90
        5
102
RTVSPost2010Prop44ColorRGB
 90
      255
102
RTVSPost2010PropOp44
 70
     1
102
RTVSPost2010Prop45
280
     0
102
RTVSPost2010PropOp45
 70
     1
102
RTVSPost2010Prop46
 90
       50
102
RTVSPost2010PropOp46
 70
     1
102
RTVSPost2010Prop47
 90
       50
102
RTVSPost2010PropOp47
 70
     1
102
RTVSPost2010Prop48
 90
       50
102
RTVSPost2010PropOp48
 70
     1
102
RTVSPost2010Prop49
280
     0
102
RTVSPost2010PropOp49
 70
     1
102
RTVSPost2010Prop50
 90
       50
102
RTVSPost2010PropOp50
 70
     1
102
RTVSPost2010Prop51ColorIndex
 90
      256
102
RTVSPost2010Prop51ColorRGB
 90
-16777216
102
RTVSPost2010PropOp51
 70
     0
102
RTVSPost2010Prop52
140
1.0
102
RTVSPost2010PropOp52
 70
     0
102
RTVSPost2010Prop53
 90
        2
102
RTVSPost2010PropOp53
 70
     1
102
RTVSPost2010Prop54
  1
strokes_ogs.tif
102
RTVSPost2010PropOp54
 70
     1
102
RTVSPost2010Prop55
280
     0
102
RTVSPost2010PropOp55
 70
     1
102
RTVSPost2010Prop56
140
1.0
102
RTVSPost2010PropOp56
 70
     1
102
RTVSPost2010Prop57
140
1.0
102
RTVSPost2010PropOp57
 70
     1
  0
XRECORD
  5
509
102
{ACAD_REACTORS
330
508
102
}
330
508
100
AcDbXrecord
280
     1
102
RTVSPropertyOp0
 70
     1
102
RTVSPropertyOp1
 70
     1
102
RTVSPropertyOp2
 70
     1
102
RTVSPropertyOp3
 70
     1
102
RTVSPropertyOp4
 70
     1
102
RTVSPropertyOp5
 70
     1
102
RTVSPropertyOp6
 70
     1
102
RTVSPropertyOp7
 70
     1
102
RTVSPropertyOp8
 70
     1
102
RTVSPropertyOp9
 70
     1
102
RTVSPropertyOp10
 70
     1
102
RTVSPropertyOp11
 70
     1
102
RTVSPropertyOp12
 70
     1
102
RTVSPropertyOp13
 70
     1
102
RTVSPropertyOp14
 70
     1
102
RTVSPropertyOp15
 70
     1
102
RTVSPropertyOp16
 70
     1
102
RTVSPropertyOp17
 70
     1
102
RTVSPropertyOp18
 70
     1
102
RTVSPropertyOp19
 70
     1
102
RTVSPropertyOp20
 70
     1
102
RTVSPropertyOp21
 70
     1
102
RTVSPropertyOp22
 70
     1
102
RTVSPropertyOp23
 70
     1
102
RTVSPropertyOp24
 70
     1
102
RTVSPropertyOp25
 70
     1
102
RTVSPropertyOp26
 70
     1
102
RTVSPropertyOp27
 70
     1
102
RTVSPropertyOp28
 70
     1
102
RTVSPropertyOp29
 70
     1
102
RTVSPropertyOp30
 70
     1
102
RTVSPropertyOp31
 70
     1
102
RTVSPropertyOp32
 70
     1
102
RTVSPropertyOp33
 70
     1
102
RTVSPropertyOp34
 70
     1
102
RTVSPropertyOp35
 70
     1
102
RTVSPropertyOp36
 70
     1
102
RTVSPropertyOp37
 70
     1
102
RTVSPropertyOp38
 70
     1
102
RTVSPropertyOp39
 70
     1
102
RTVSPropertyOp40
 70
     1
102
RTVSPropertyOp41
 70
     1
102
RTVSPropertyOp42
 70
     1
102
RTVSPropertyOp43
 70
     1
102
RTVSPropertyOp44
 70
     1
102
RTVSPropertyOp45
 70
     1
102
RTVSPropertyOp46
 70
     1
102
RTVSPropertyOp47
 70
     1
102
RTVSPropertyOp48
 70
     1
102
RTVSPropertyOp49
 70
     1
102
RTVSPropertyOp50
 70
     1
102
RTVSPropertyOp51
 70
     0
102
RTVSPropertyOp52
 70
     0
102
RTVSPropertyOp53
 70
     1
102
RTVSPropertyOp54
 70
     1
102
RTVSPropertyOp55
 70
     1
102
RTVSPropertyOp56
 70
     1
102
RTVSPropertyOp57
 70
     1
102
RTVSPost2010Prop28
280
     0
102
RTVSPost2010PropOp28
 70
     1
102
RTVSPost2010Prop29
280
     1
102
RTVSPost2010PropOp29
 70
     1
102
RTVSPost2010Prop30
280
     1
102
RTVSPost2010PropOp30
 70
     1
102
RTVSPost2010Prop31
280
     0
102
RTVSPost2010PropOp31
 70
     1
102
RTVSPost2010Prop32
280
     0
102
RTVSPost2010PropOp32
 70
     1
102
RTVSPost2010Prop33
280
     0
102
RTVSPost2010PropOp33
 70
     1
102
RTVSPost2010Prop34
280
     0
102
RTVSPost2010PropOp34
 70
     1
102
RTVSPost2010Prop35
280
     0
102
RTVSPost2010PropOp35
 70
     1
102
RTVSPost2010Prop36
280
     0
102
RTVSPost2010PropOp36
 70
     1
102
RTVSPost2010Prop37
 90
       50
102
RTVSPost2010PropOp37
 70
     1
102
RTVSPost2010Prop38
140
0.0
102
RTVSPost2010PropOp38
 70
     1
102
RTVSPost2010Prop39
140
1.0
102
RTVSPost2010PropOp39
 70
     1
102
RTVSPost2010Prop40
 90
        0
102
RTVSPost2010PropOp40
 70
     1
102
RTVSPost2010Prop41ColorIndex
 90
       18
102
RTVSPost2010Prop41ColorRGB
 90
        0
102
RTVSPost2010PropOp41
 70
     1
102
RTVSPost2010Prop42
 90
       50
102
RTVSPost2010PropOp42
 70
     1
102
RTVSPost2010Prop43
 90
        3
102
RTVSPost2010PropOp43
 70
     1
102
RTVSPost2010Prop44ColorIndex
 90
        5
102
RTVSPost2010Prop44ColorRGB
 90
      255
102
RTVSPost2010PropOp44
 70
     1
102
RTVSPost2010Prop45
280
     0
102
RTVSPost2010PropOp45
 70
     1
102
RTVSPost2010Prop46
 90
       50
102
RTVSPost2010PropOp46
 70
     1
102
RTVSPost2010Prop47
 90
       50
102
RTVSPost2010PropOp47
 70
     1
102
RTVSPost2010Prop48
 90
       50
102
RTVSPost2010PropOp48
 70
     1
102
RTVSPost2010Prop49
280
     0
102
RTVSPost2010PropOp49
 70
     1
102
RTVSPost2010Prop50
 90
       50
102
RTVSPost2010PropOp50
 70
     1
102
RTVSPost2010Prop51ColorIndex
 90
      256
102
RTVSPost2010Prop51ColorRGB
 90
-16777216
102
RTVSPost2010PropOp51
 70
     0
102
RTVSPost2010Prop52
140
1.0
102
RTVSPost2010PropOp52
 70
     0
102
RTVSPost2010Prop53
 90
        2
102
RTVSPost2010PropOp53
 70
     1
102
RTVSPost2010Prop54
  1
strokes_ogs.tif
102
RTVSPost2010PropOp54
 70
     1
102
RTVSPost2010Prop55
280
     0
102
RTVSPost2010PropOp55
 70
     1
102
RTVSPost2010Prop56
140
1.0
102
RTVSPost2010PropOp56
 70
     1
102
RTVSPost2010Prop57
140
1.0
102
RTVSPost2010PropOp57
 70
     1
  0
XRECORD
  5
50B
102
{ACAD_REACTORS
330
50A
102
}
330
50A
100
AcDbXrecord
280
     1
102
RTVSPropertyOp0
 70
     1
102
RTVSPropertyOp1
 70
     1
102
RTVSPropertyOp2
 70
     1
102
RTVSPropertyOp3
 70
     1
102
RTVSPropertyOp4
 70
     1
102
RTVSPropertyOp5
 70
     1
102
RTVSPropertyOp6
 70
     1
102
RTVSPropertyOp7
 70
     1
102
RTVSPropertyOp8
 70
     1
102
RTVSPropertyOp9
 70
     1
102
RTVSPropertyOp10
 70
     1
102
RTVSPropertyOp11
 70
     1
102
RTVSPropertyOp12
 70
     1
102
RTVSPropertyOp13
 70
     1
102
RTVSPropertyOp14
 70
     1
102
RTVSPropertyOp15
 70
     1
102
RTVSPropertyOp16
 70
     1
102
RTVSPropertyOp17
 70
     1
102
RTVSPropertyOp18
 70
     1
102
RTVSPropertyOp19
 70
     1
102
RTVSPropertyOp20
 70
     1
102
RTVSPropertyOp21
 70
     1
102
RTVSPropertyOp22
 70
     1
102
RTVSPropertyOp23
 70
     1
102
RTVSPropertyOp24
 70
     1
102
RTVSPropertyOp25
 70
     1
102
RTVSPropertyOp26
 70
     1
102
RTVSPropertyOp27
 70
     1
102
RTVSPropertyOp28
 70
     1
102
RTVSPropertyOp29
 70
     1
102
RTVSPropertyOp30
 70
     1
102
RTVSPropertyOp31
 70
     1
102
RTVSPropertyOp32
 70
     1
102
RTVSPropertyOp33
 70
     1
102
RTVSPropertyOp34
 70
     1
102
RTVSPropertyOp35
 70
     1
102
RTVSPropertyOp36
 70
     1
102
RTVSPropertyOp37
 70
     1
102
RTVSPropertyOp38
 70
     1
102
RTVSPropertyOp39
 70
     1
102
RTVSPropertyOp40
 70
     1
102
RTVSPropertyOp41
 70
     1
102
RTVSPropertyOp42
 70
     1
102
RTVSPropertyOp43
 70
     1
102
RTVSPropertyOp44
 70
     1
102
RTVSPropertyOp45
 70
     1
102
RTVSPropertyOp46
 70
     1
102
RTVSPropertyOp47
 70
     1
102
RTVSPropertyOp48
 70
     1
102
RTVSPropertyOp49
 70
     1
102
RTVSPropertyOp50
 70
     1
102
RTVSPropertyOp51
 70
     0
102
RTVSPropertyOp52
 70
     0
102
RTVSPropertyOp53
 70
     1
102
RTVSPropertyOp54
 70
     1
102
RTVSPropertyOp55
 70
     1
102
RTVSPropertyOp56
 70
     1
102
RTVSPropertyOp57
 70
     1
102
RTVSPost2010Prop28
280
     0
102
RTVSPost2010PropOp28
 70
     1
102
RTVSPost2010Prop29
280
     1
102
RTVSPost2010PropOp29
 70
     1
102
RTVSPost2010Prop30
280
     1
102
RTVSPost2010PropOp30
 70
     1
102
RTVSPost2010Prop31
280
     0
102
RTVSPost2010PropOp31
 70
     1
102
RTVSPost2010Prop32
280
     0
102
RTVSPost2010PropOp32
 70
     1
102
RTVSPost2010Prop33
280
     0
102
RTVSPost2010PropOp33
 70
     1
102
RTVSPost2010Prop34
280
     0
102
RTVSPost2010PropOp34
 70
     1
102
RTVSPost2010Prop35
280
     0
102
RTVSPost2010PropOp35
 70
     1
102
RTVSPost2010Prop36
280
     0
102
RTVSPost2010PropOp36
 70
     1
102
RTVSPost2010Prop37
 90
       50
102
RTVSPost2010PropOp37
 70
     1
102
RTVSPost2010Prop38
140
0.0
102
RTVSPost2010PropOp38
 70
     1
102
RTVSPost2010Prop39
140
1.0
102
RTVSPost2010PropOp39
 70
     1
102
RTVSPost2010Prop40
 90
        0
102
RTVSPost2010PropOp40
 70
     1
102
RTVSPost2010Prop41ColorIndex
 90
       18
102
RTVSPost2010Prop41ColorRGB
 90
        0
102
RTVSPost2010PropOp41
 70
     1
102
RTVSPost2010Prop42
 90
       50
102
RTVSPost2010PropOp42
 70
     1
102
RTVSPost2010Prop43
 90
        3
102
RTVSPost2010PropOp43
 70
     1
102
RTVSPost2010Prop44ColorIndex
 90
        5
102
RTVSPost2010Prop44ColorRGB
 90
      255
102
RTVSPost2010PropOp44
 70
     1
102
RTVSPost2010Prop45
280
     0
102
RTVSPost2010PropOp45
 70
     1
102
RTVSPost2010Prop46
 90
       50
102
RTVSPost2010PropOp46
 70
     1
102
RTVSPost2010Prop47
 90
       50
102
RTVSPost2010PropOp47
 70
     1
102
RTVSPost2010Prop48
 90
       50
102
RTVSPost2010PropOp48
 70
     1
102
RTVSPost2010Prop49
280
     0
102
RTVSPost2010PropOp49
 70
     1
102
RTVSPost2010Prop50
 90
       50
102
RTVSPost2010PropOp50
 70
     1
102
RTVSPost2010Prop51ColorIndex
 90
      256
102
RTVSPost2010Prop51ColorRGB
 90
-16777216
102
RTVSPost2010PropOp51
 70
     0
102
RTVSPost2010Prop52
140
1.0
102
RTVSPost2010PropOp52
 70
     0
102
RTVSPost2010Prop53
 90
        2
102
RTVSPost2010PropOp53
 70
     1
102
RTVSPost2010Prop54
  1
strokes_ogs.tif
102
RTVSPost2010PropOp54
 70
     1
102
RTVSPost2010Prop55
280
     0
102
RTVSPost2010PropOp55
 70
     1
102
RTVSPost2010Prop56
140
1.0
102
RTVSPost2010PropOp56
 70
     1
102
RTVSPost2010Prop57
140
1.0
102
RTVSPost2010PropOp57
 70
     1
  0
XRECORD
  5
50D
102
{ACAD_REACTORS
330
50C
102
}
330
50C
100
AcDbXrecord
280
     1
102
RTVSPropertyOp0
 70
     1
102
RTVSPropertyOp1
 70
     1
102
RTVSPropertyOp2
 70
     1
102
RTVSPropertyOp3
 70
     1
102
RTVSPropertyOp4
 70
     1
102
RTVSPropertyOp5
 70
     1
102
RTVSPropertyOp6
 70
     1
102
RTVSPropertyOp7
 70
     1
102
RTVSPropertyOp8
 70
     1
102
RTVSPropertyOp9
 70
     1
102
RTVSPropertyOp10
 70
     1
102
RTVSPropertyOp11
 70
     1
102
RTVSPropertyOp12
 70
     1
102
RTVSPropertyOp13
 70
     1
102
RTVSPropertyOp14
 70
     1
102
RTVSPropertyOp15
 70
     1
102
RTVSPropertyOp16
 70
     1
102
RTVSPropertyOp17
 70
     1
102
RTVSPropertyOp18
 70
     1
102
RTVSPropertyOp19
 70
     1
102
RTVSPropertyOp20
 70
     1
102
RTVSPropertyOp21
 70
     1
102
RTVSPropertyOp22
 70
     1
102
RTVSPropertyOp23
 70
     1
102
RTVSPropertyOp24
 70
     1
102
RTVSPropertyOp25
 70
     1
102
RTVSPropertyOp26
 70
     1
102
RTVSPropertyOp27
 70
     1
102
RTVSPropertyOp28
 70
     1
102
RTVSPropertyOp29
 70
     1
102
RTVSPropertyOp30
 70
     1
102
RTVSPropertyOp31
 70
     1
102
RTVSPropertyOp32
 70
     1
102
RTVSPropertyOp33
 70
     1
102
RTVSPropertyOp34
 70
     1
102
RTVSPropertyOp35
 70
     1
102
RTVSPropertyOp36
 70
     1
102
RTVSPropertyOp37
 70
     1
102
RTVSPropertyOp38
 70
     1
102
RTVSPropertyOp39
 70
     1
102
RTVSPropertyOp40
 70
     1
102
RTVSPropertyOp41
 70
     1
102
RTVSPropertyOp42
 70
     1
102
RTVSPropertyOp43
 70
     1
102
RTVSPropertyOp44
 70
     1
102
RTVSPropertyOp45
 70
     1
102
RTVSPropertyOp46
 70
     1
102
RTVSPropertyOp47
 70
     1
102
RTVSPropertyOp48
 70
     1
102
RTVSPropertyOp49
 70
     1
102
RTVSPropertyOp50
 70
     1
102
RTVSPropertyOp51
 70
     0
102
RTVSPropertyOp52
 70
     0
102
RTVSPropertyOp53
 70
     1
102
RTVSPropertyOp54
 70
     1
102
RTVSPropertyOp55
 70
     1
102
RTVSPropertyOp56
 70
     1
102
RTVSPropertyOp57
 70
     1
102
RTVSPost2010Prop28
280
     0
102
RTVSPost2010PropOp28
 70
     1
102
RTVSPost2010Prop29
280
     1
102
RTVSPost2010PropOp29
 70
     1
102
RTVSPost2010Prop30
280
     1
102
RTVSPost2010PropOp30
 70
     1
102
RTVSPost2010Prop31
280
     0
102
RTVSPost2010PropOp31
 70
     1
102
RTVSPost2010Prop32
280
     0
102
RTVSPost2010PropOp32
 70
     1
102
RTVSPost2010Prop33
280
     0
102
RTVSPost2010PropOp33
 70
     1
102
RTVSPost2010Prop34
280
     0
102
RTVSPost2010PropOp34
 70
     1
102
RTVSPost2010Prop35
280
     0
102
RTVSPost2010PropOp35
 70
     1
102
RTVSPost2010Prop36
280
     0
102
RTVSPost2010PropOp36
 70
     1
102
RTVSPost2010Prop37
 90
       50
102
RTVSPost2010PropOp37
 70
     1
102
RTVSPost2010Prop38
140
0.0
102
RTVSPost2010PropOp38
 70
     1
102
RTVSPost2010Prop39
140
1.0
102
RTVSPost2010PropOp39
 70
     1
102
RTVSPost2010Prop40
 90
        0
102
RTVSPost2010PropOp40
 70
     1
102
RTVSPost2010Prop41ColorIndex
 90
       18
102
RTVSPost2010Prop41ColorRGB
 90
        0
102
RTVSPost2010PropOp41
 70
     1
102
RTVSPost2010Prop42
 90
       50
102
RTVSPost2010PropOp42
 70
     1
102
RTVSPost2010Prop43
 90
        3
102
RTVSPost2010PropOp43
 70
     1
102
RTVSPost2010Prop44ColorIndex
 90
        5
102
RTVSPost2010Prop44ColorRGB
 90
      255
102
RTVSPost2010PropOp44
 70
     1
102
RTVSPost2010Prop45
280
     0
102
RTVSPost2010PropOp45
 70
     1
102
RTVSPost2010Prop46
 90
       50
102
RTVSPost2010PropOp46
 70
     1
102
RTVSPost2010Prop47
 90
       50
102
RTVSPost2010PropOp47
 70
     1
102
RTVSPost2010Prop48
 90
       50
102
RTVSPost2010PropOp48
 70
     1
102
RTVSPost2010Prop49
280
     0
102
RTVSPost2010PropOp49
 70
     1
102
RTVSPost2010Prop50
 90
       50
102
RTVSPost2010PropOp50
 70
     1
102
RTVSPost2010Prop51ColorIndex
 90
      256
102
RTVSPost2010Prop51ColorRGB
 90
-16777216
102
RTVSPost2010PropOp51
 70
     0
102
RTVSPost2010Prop52
140
1.0
102
RTVSPost2010PropOp52
 70
     0
102
RTVSPost2010Prop53
 90
        2
102
RTVSPost2010PropOp53
 70
     1
102
RTVSPost2010Prop54
  1
strokes_ogs.tif
102
RTVSPost2010PropOp54
 70
     1
102
RTVSPost2010Prop55
280
     0
102
RTVSPost2010PropOp55
 70
     1
102
RTVSPost2010Prop56
140
1.0
102
RTVSPost2010PropOp56
 70
     1
102
RTVSPost2010Prop57
140
1.0
102
RTVSPost2010PropOp57
 70
     1
  0
XRECORD
  5
50F
102
{ACAD_REACTORS
330
50E
102
}
330
50E
100
AcDbXrecord
280
     1
102
RTVSPropertyOp0
 70
     1
102
RTVSPropertyOp1
 70
     1
102
RTVSPropertyOp2
 70
     1
102
RTVSPropertyOp3
 70
     1
102
RTVSPropertyOp4
 70
     1
102
RTVSPropertyOp5
 70
     1
102
RTVSPropertyOp6
 70
     1
102
RTVSPropertyOp7
 70
     1
102
RTVSPropertyOp8
 70
     1
102
RTVSPropertyOp9
 70
     1
102
RTVSPropertyOp10
 70
     1
102
RTVSPropertyOp11
 70
     1
102
RTVSPropertyOp12
 70
     1
102
RTVSPropertyOp13
 70
     1
102
RTVSPropertyOp14
 70
     1
102
RTVSPropertyOp15
 70
     1
102
RTVSPropertyOp16
 70
     1
102
RTVSPropertyOp17
 70
     1
102
RTVSPropertyOp18
 70
     1
102
RTVSPropertyOp19
 70
     1
102
RTVSPropertyOp20
 70
     1
102
RTVSPropertyOp21
 70
     1
102
RTVSPropertyOp22
 70
     1
102
RTVSPropertyOp23
 70
     1
102
RTVSPropertyOp24
 70
     1
102
RTVSPropertyOp25
 70
     1
102
RTVSPropertyOp26
 70
     1
102
RTVSPropertyOp27
 70
     1
102
RTVSPropertyOp28
 70
     1
102
RTVSPropertyOp29
 70
     1
102
RTVSPropertyOp30
 70
     1
102
RTVSPropertyOp31
 70
     1
102
RTVSPropertyOp32
 70
     1
102
RTVSPropertyOp33
 70
     1
102
RTVSPropertyOp34
 70
     1
102
RTVSPropertyOp35
 70
     1
102
RTVSPropertyOp36
 70
     1
102
RTVSPropertyOp37
 70
     1
102
RTVSPropertyOp38
 70
     1
102
RTVSPropertyOp39
 70
     1
102
RTVSPropertyOp40
 70
     1
102
RTVSPropertyOp41
 70
     1
102
RTVSPropertyOp42
 70
     1
102
RTVSPropertyOp43
 70
     1
102
RTVSPropertyOp44
 70
     1
102
RTVSPropertyOp45
 70
     1
102
RTVSPropertyOp46
 70
     1
102
RTVSPropertyOp47
 70
     1
102
RTVSPropertyOp48
 70
     1
102
RTVSPropertyOp49
 70
     1
102
RTVSPropertyOp50
 70
     1
102
RTVSPropertyOp51
 70
     0
102
RTVSPropertyOp52
 70
     0
102
RTVSPropertyOp53
 70
     1
102
RTVSPropertyOp54
 70
     1
102
RTVSPropertyOp55
 70
     1
102
RTVSPropertyOp56
 70
     1
102
RTVSPropertyOp57
 70
     1
102
RTVSPost2010Prop28
280
     0
102
RTVSPost2010PropOp28
 70
     1
102
RTVSPost2010Prop29
280
     1
102
RTVSPost2010PropOp29
 70
     1
102
RTVSPost2010Prop30
280
     1
102
RTVSPost2010PropOp30
 70
     1
102
RTVSPost2010Prop31
280
     0
102
RTVSPost2010PropOp31
 70
     1
102
RTVSPost2010Prop32
280
     0
102
RTVSPost2010PropOp32
 70
     1
102
RTVSPost2010Prop33
280
     0
102
RTVSPost2010PropOp33
 70
     1
102
RTVSPost2010Prop34
280
     0
102
RTVSPost2010PropOp34
 70
     1
102
RTVSPost2010Prop35
280
     0
102
RTVSPost2010PropOp35
 70
     1
102
RTVSPost2010Prop36
280
     0
102
RTVSPost2010PropOp36
 70
     1
102
RTVSPost2010Prop37
 90
       50
102
RTVSPost2010PropOp37
 70
     1
102
RTVSPost2010Prop38
140
0.0
102
RTVSPost2010PropOp38
 70
     1
102
RTVSPost2010Prop39
140
1.0
102
RTVSPost2010PropOp39
 70
     1
102
RTVSPost2010Prop40
 90
        0
102
RTVSPost2010PropOp40
 70
     1
102
RTVSPost2010Prop41ColorIndex
 90
       18
102
RTVSPost2010Prop41ColorRGB
 90
        0
102
RTVSPost2010PropOp41
 70
     1
102
RTVSPost2010Prop42
 90
       50
102
RTVSPost2010PropOp42
 70
     1
102
RTVSPost2010Prop43
 90
        3
102
RTVSPost2010PropOp43
 70
     1
102
RTVSPost2010Prop44ColorIndex
 90
        5
102
RTVSPost2010Prop44ColorRGB
 90
      255
102
RTVSPost2010PropOp44
 70
     1
102
RTVSPost2010Prop45
280
     0
102
RTVSPost2010PropOp45
 70
     1
102
RTVSPost2010Prop46
 90
       50
102
RTVSPost2010PropOp46
 70
     1
102
RTVSPost2010Prop47
 90
       50
102
RTVSPost2010PropOp47
 70
     1
102
RTVSPost2010Prop48
 90
       50
102
RTVSPost2010PropOp48
 70
     1
102
RTVSPost2010Prop49
280
     0
102
RTVSPost2010PropOp49
 70
     1
102
RTVSPost2010Prop50
 90
       50
102
RTVSPost2010PropOp50
 70
     1
102
RTVSPost2010Prop51ColorIndex
 90
      256
102
RTVSPost2010Prop51ColorRGB
 90
-16777216
102
RTVSPost2010PropOp51
 70
     0
102
RTVSPost2010Prop52
140
1.0
102
RTVSPost2010PropOp52
 70
     0
102
RTVSPost2010Prop53
 90
        2
102
RTVSPost2010PropOp53
 70
     1
102
RTVSPost2010Prop54
  1
strokes_ogs.tif
102
RTVSPost2010PropOp54
 70
     1
102
RTVSPost2010Prop55
280
     0
102
RTVSPost2010PropOp55
 70
     1
102
RTVSPost2010Prop56
140
1.0
102
RTVSPost2010PropOp56
 70
     1
102
RTVSPost2010Prop57
140
1.0
102
RTVSPost2010PropOp57
 70
     1
  0
XRECORD
  5
511
102
{ACAD_REACTORS
330
510
102
}
330
510
100
AcDbXrecord
280
     1
102
RTVSPropertyOp0
 70
     1
102
RTVSPropertyOp1
 70
     1
102
RTVSPropertyOp2
 70
     1
102
RTVSPropertyOp3
 70
     1
102
RTVSPropertyOp4
 70
     1
102
RTVSPropertyOp5
 70
     1
102
RTVSPropertyOp6
 70
     1
102
RTVSPropertyOp7
 70
     1
102
RTVSPropertyOp8
 70
     1
102
RTVSPropertyOp9
 70
     1
102
RTVSPropertyOp10
 70
     1
102
RTVSPropertyOp11
 70
     1
102
RTVSPropertyOp12
 70
     1
102
RTVSPropertyOp13
 70
     1
102
RTVSPropertyOp14
 70
     1
102
RTVSPropertyOp15
 70
     1
102
RTVSPropertyOp16
 70
     1
102
RTVSPropertyOp17
 70
     1
102
RTVSPropertyOp18
 70
     1
102
RTVSPropertyOp19
 70
     1
102
RTVSPropertyOp20
 70
     1
102
RTVSPropertyOp21
 70
     1
102
RTVSPropertyOp22
 70
     1
102
RTVSPropertyOp23
 70
     1
102
RTVSPropertyOp24
 70
     1
102
RTVSPropertyOp25
 70
     1
102
RTVSPropertyOp26
 70
     1
102
RTVSPropertyOp27
 70
     1
102
RTVSPropertyOp28
 70
     1
102
RTVSPropertyOp29
 70
     1
102
RTVSPropertyOp30
 70
     1
102
RTVSPropertyOp31
 70
     1
102
RTVSPropertyOp32
 70
     1
102
RTVSPropertyOp33
 70
     1
102
RTVSPropertyOp34
 70
     1
102
RTVSPropertyOp35
 70
     1
102
RTVSPropertyOp36
 70
     1
102
RTVSPropertyOp37
 70
     1
102
RTVSPropertyOp38
 70
     1
102
RTVSPropertyOp39
 70
     1
102
RTVSPropertyOp40
 70
     1
102
RTVSPropertyOp41
 70
     1
102
RTVSPropertyOp42
 70
     1
102
RTVSPropertyOp43
 70
     1
102
RTVSPropertyOp44
 70
     1
102
RTVSPropertyOp45
 70
     1
102
RTVSPropertyOp46
 70
     1
102
RTVSPropertyOp47
 70
     1
102
RTVSPropertyOp48
 70
     1
102
RTVSPropertyOp49
 70
     1
102
RTVSPropertyOp50
 70
     1
102
RTVSPropertyOp51
 70
     0
102
RTVSPropertyOp52
 70
     0
102
RTVSPropertyOp53
 70
     1
102
RTVSPropertyOp54
 70
     1
102
RTVSPropertyOp55
 70
     1
102
RTVSPropertyOp56
 70
     1
102
RTVSPropertyOp57
 70
     1
102
RTVSPost2010Prop28
280
     0
102
RTVSPost2010PropOp28
 70
     1
102
RTVSPost2010Prop29
280
     1
102
RTVSPost2010PropOp29
 70
     1
102
RTVSPost2010Prop30
280
     1
102
RTVSPost2010PropOp30
 70
     1
102
RTVSPost2010Prop31
280
     0
102
RTVSPost2010PropOp31
 70
     1
102
RTVSPost2010Prop32
280
     0
102
RTVSPost2010PropOp32
 70
     1
102
RTVSPost2010Prop33
280
     0
102
RTVSPost2010PropOp33
 70
     1
102
RTVSPost2010Prop34
280
     0
102
RTVSPost2010PropOp34
 70
     1
102
RTVSPost2010Prop35
280
     0
102
RTVSPost2010PropOp35
 70
     1
102
RTVSPost2010Prop36
280
     0
102
RTVSPost2010PropOp36
 70
     1
102
RTVSPost2010Prop37
 90
       50
102
RTVSPost2010PropOp37
 70
     1
102
RTVSPost2010Prop38
140
0.0
102
RTVSPost2010PropOp38
 70
     1
102
RTVSPost2010Prop39
140
1.0
102
RTVSPost2010PropOp39
 70
     1
102
RTVSPost2010Prop40
 90
        0
102
RTVSPost2010PropOp40
 70
     1
102
RTVSPost2010Prop41ColorIndex
 90
       18
102
RTVSPost2010Prop41ColorRGB
 90
        0
102
RTVSPost2010PropOp41
 70
     1
102
RTVSPost2010Prop42
 90
       50
102
RTVSPost2010PropOp42
 70
     1
102
RTVSPost2010Prop43
 90
        3
102
RTVSPost2010PropOp43
 70
     1
102
RTVSPost2010Prop44ColorIndex
 90
        5
102
RTVSPost2010Prop44ColorRGB
 90
      255
102
RTVSPost2010PropOp44
 70
     1
102
RTVSPost2010Prop45
280
     0
102
RTVSPost2010PropOp45
 70
     1
102
RTVSPost2010Prop46
 90
       50
102
RTVSPost2010PropOp46
 70
     1
102
RTVSPost2010Prop47
 90
       50
102
RTVSPost2010PropOp47
 70
     1
102
RTVSPost2010Prop48
 90
       50
102
RTVSPost2010PropOp48
 70
     1
102
RTVSPost2010Prop49
280
     0
102
RTVSPost2010PropOp49
 70
     1
102
RTVSPost2010Prop50
 90
       50
102
RTVSPost2010PropOp50
 70
     1
102
RTVSPost2010Prop51ColorIndex
 90
      256
102
RTVSPost2010Prop51ColorRGB
 90
-16777216
102
RTVSPost2010PropOp51
 70
     0
102
RTVSPost2010Prop52
140
1.0
102
RTVSPost2010PropOp52
 70
     0
102
RTVSPost2010Prop53
 90
        2
102
RTVSPost2010PropOp53
 70
     1
102
RTVSPost2010Prop54
  1
strokes_ogs.tif
102
RTVSPost2010PropOp54
 70
     1
102
RTVSPost2010Prop55
280
     0
102
RTVSPost2010PropOp55
 70
     1
102
RTVSPost2010Prop56
140
1.0
102
RTVSPost2010PropOp56
 70
     1
102
RTVSPost2010Prop57
140
1.0
102
RTVSPost2010PropOp57
 70
     1
  0
XRECORD
  5
513
102
{ACAD_REACTORS
330
512
102
}
330
512
100
AcDbXrecord
280
     1
102
RTVSPropertyOp0
 70
     1
102
RTVSPropertyOp1
 70
     1
102
RTVSPropertyOp2
 70
     1
102
RTVSPropertyOp3
 70
     1
102
RTVSPropertyOp4
 70
     1
102
RTVSPropertyOp5
 70
     1
102
RTVSPropertyOp6
 70
     1
102
RTVSPropertyOp7
 70
     1
102
RTVSPropertyOp8
 70
     1
102
RTVSPropertyOp9
 70
     1
102
RTVSPropertyOp10
 70
     1
102
RTVSPropertyOp11
 70
     1
102
RTVSPropertyOp12
 70
     1
102
RTVSPropertyOp13
 70
     1
102
RTVSPropertyOp14
 70
     1
102
RTVSPropertyOp15
 70
     1
102
RTVSPropertyOp16
 70
     1
102
RTVSPropertyOp17
 70
     1
102
RTVSPropertyOp18
 70
     1
102
RTVSPropertyOp19
 70
     1
102
RTVSPropertyOp20
 70
     1
102
RTVSPropertyOp21
 70
     1
102
RTVSPropertyOp22
 70
     1
102
RTVSPropertyOp23
 70
     1
102
RTVSPropertyOp24
 70
     1
102
RTVSPropertyOp25
 70
     1
102
RTVSPropertyOp26
 70
     1
102
RTVSPropertyOp27
 70
     1
102
RTVSPropertyOp28
 70
     1
102
RTVSPropertyOp29
 70
     1
102
RTVSPropertyOp30
 70
     1
102
RTVSPropertyOp31
 70
     1
102
RTVSPropertyOp32
 70
     1
102
RTVSPropertyOp33
 70
     1
102
RTVSPropertyOp34
 70
     1
102
RTVSPropertyOp35
 70
     1
102
RTVSPropertyOp36
 70
     1
102
RTVSPropertyOp37
 70
     1
102
RTVSPropertyOp38
 70
     1
102
RTVSPropertyOp39
 70
     1
102
RTVSPropertyOp40
 70
     1
102
RTVSPropertyOp41
 70
     1
102
RTVSPropertyOp42
 70
     1
102
RTVSPropertyOp43
 70
     1
102
RTVSPropertyOp44
 70
     1
102
RTVSPropertyOp45
 70
     1
102
RTVSPropertyOp46
 70
     1
102
RTVSPropertyOp47
 70
     1
102
RTVSPropertyOp48
 70
     1
102
RTVSPropertyOp49
 70
     1
102
RTVSPropertyOp50
 70
     1
102
RTVSPropertyOp51
 70
     0
102
RTVSPropertyOp52
 70
     0
102
RTVSPropertyOp53
 70
     1
102
RTVSPropertyOp54
 70
     1
102
RTVSPropertyOp55
 70
     1
102
RTVSPropertyOp56
 70
     1
102
RTVSPropertyOp57
 70
     1
102
RTVSPost2010Prop28
280
     0
102
RTVSPost2010PropOp28
 70
     1
102
RTVSPost2010Prop29
280
     1
102
RTVSPost2010PropOp29
 70
     1
102
RTVSPost2010Prop30
280
     1
102
RTVSPost2010PropOp30
 70
     1
102
RTVSPost2010Prop31
280
     0
102
RTVSPost2010PropOp31
 70
     1
102
RTVSPost2010Prop32
280
     0
102
RTVSPost2010PropOp32
 70
     1
102
RTVSPost2010Prop33
280
     0
102
RTVSPost2010PropOp33
 70
     1
102
RTVSPost2010Prop34
280
     0
102
RTVSPost2010PropOp34
 70
     1
102
RTVSPost2010Prop35
280
     0
102
RTVSPost2010PropOp35
 70
     1
102
RTVSPost2010Prop36
280
     0
102
RTVSPost2010PropOp36
 70
     1
102
RTVSPost2010Prop37
 90
       50
102
RTVSPost2010PropOp37
 70
     1
102
RTVSPost2010Prop38
140
0.0
102
RTVSPost2010PropOp38
 70
     1
102
RTVSPost2010Prop39
140
1.0
102
RTVSPost2010PropOp39
 70
     1
102
RTVSPost2010Prop40
 90
        0
102
RTVSPost2010PropOp40
 70
     1
102
RTVSPost2010Prop41ColorIndex
 90
       18
102
RTVSPost2010Prop41ColorRGB
 90
        0
102
RTVSPost2010PropOp41
 70
     1
102
RTVSPost2010Prop42
 90
       50
102
RTVSPost2010PropOp42
 70
     1
102
RTVSPost2010Prop43
 90
        3
102
RTVSPost2010PropOp43
 70
     1
102
RTVSPost2010Prop44ColorIndex
 90
        5
102
RTVSPost2010Prop44ColorRGB
 90
      255
102
RTVSPost2010PropOp44
 70
     1
102
RTVSPost2010Prop45
280
     0
102
RTVSPost2010PropOp45
 70
     1
102
RTVSPost2010Prop46
 90
       50
102
RTVSPost2010PropOp46
 70
     1
102
RTVSPost2010Prop47
 90
       50
102
RTVSPost2010PropOp47
 70
     1
102
RTVSPost2010Prop48
 90
       50
102
RTVSPost2010PropOp48
 70
     1
102
RTVSPost2010Prop49
280
     0
102
RTVSPost2010PropOp49
 70
     1
102
RTVSPost2010Prop50
 90
       50
102
RTVSPost2010PropOp50
 70
     1
102
RTVSPost2010Prop51ColorIndex
 90
      256
102
RTVSPost2010Prop51ColorRGB
 90
-16777216
102
RTVSPost2010PropOp51
 70
     0
102
RTVSPost2010Prop52
140
1.0
102
RTVSPost2010PropOp52
 70
     0
102
RTVSPost2010Prop53
 90
        2
102
RTVSPost2010PropOp53
 70
     1
102
RTVSPost2010Prop54
  1
strokes_ogs.tif
102
RTVSPost2010PropOp54
 70
     1
102
RTVSPost2010Prop55
280
     0
102
RTVSPost2010PropOp55
 70
     1
102
RTVSPost2010Prop56
140
1.0
102
RTVSPost2010PropOp56
 70
     1
102
RTVSPost2010Prop57
140
1.0
102
RTVSPost2010PropOp57
 70
     1
  0
XRECORD
  5
515
102
{ACAD_REACTORS
330
514
102
}
330
514
100
AcDbXrecord
280
     1
102
RTVSPropertyOp0
 70
     1
102
RTVSPropertyOp1
 70
     1
102
RTVSPropertyOp2
 70
     1
102
RTVSPropertyOp3
 70
     1
102
RTVSPropertyOp4
 70
     1
102
RTVSPropertyOp5
 70
     1
102
RTVSPropertyOp6
 70
     1
102
RTVSPropertyOp7
 70
     1
102
RTVSPropertyOp8
 70
     1
102
RTVSPropertyOp9
 70
     1
102
RTVSPropertyOp10
 70
     1
102
RTVSPropertyOp11
 70
     1
102
RTVSPropertyOp12
 70
     1
102
RTVSPropertyOp13
 70
     1
102
RTVSPropertyOp14
 70
     1
102
RTVSPropertyOp15
 70
     1
102
RTVSPropertyOp16
 70
     1
102
RTVSPropertyOp17
 70
     1
102
RTVSPropertyOp18
 70
     1
102
RTVSPropertyOp19
 70
     1
102
RTVSPropertyOp20
 70
     1
102
RTVSPropertyOp21
 70
     1
102
RTVSPropertyOp22
 70
     1
102
RTVSPropertyOp23
 70
     1
102
RTVSPropertyOp24
 70
     1
102
RTVSPropertyOp25
 70
     1
102
RTVSPropertyOp26
 70
     1
102
RTVSPropertyOp27
 70
     1
102
RTVSPropertyOp28
 70
     1
102
RTVSPropertyOp29
 70
     1
102
RTVSPropertyOp30
 70
     1
102
RTVSPropertyOp31
 70
     1
102
RTVSPropertyOp32
 70
     1
102
RTVSPropertyOp33
 70
     1
102
RTVSPropertyOp34
 70
     1
102
RTVSPropertyOp35
 70
     1
102
RTVSPropertyOp36
 70
     1
102
RTVSPropertyOp37
 70
     1
102
RTVSPropertyOp38
 70
     1
102
RTVSPropertyOp39
 70
     1
102
RTVSPropertyOp40
 70
     1
102
RTVSPropertyOp41
 70
     1
102
RTVSPropertyOp42
 70
     1
102
RTVSPropertyOp43
 70
     1
102
RTVSPropertyOp44
 70
     1
102
RTVSPropertyOp45
 70
     1
102
RTVSPropertyOp46
 70
     1
102
RTVSPropertyOp47
 70
     1
102
RTVSPropertyOp48
 70
     1
102
RTVSPropertyOp49
 70
     1
102
RTVSPropertyOp50
 70
     1
102
RTVSPropertyOp51
 70
     0
102
RTVSPropertyOp52
 70
     0
102
RTVSPropertyOp53
 70
     1
102
RTVSPropertyOp54
 70
     1
102
RTVSPropertyOp55
 70
     1
102
RTVSPropertyOp56
 70
     1
102
RTVSPropertyOp57
 70
     1
102
RTVSPost2010Prop28
280
     0
102
RTVSPost2010PropOp28
 70
     1
102
RTVSPost2010Prop29
280
     1
102
RTVSPost2010PropOp29
 70
     1
102
RTVSPost2010Prop30
280
     1
102
RTVSPost2010PropOp30
 70
     1
102
RTVSPost2010Prop31
280
     0
102
RTVSPost2010PropOp31
 70
     1
102
RTVSPost2010Prop32
280
     0
102
RTVSPost2010PropOp32
 70
     1
102
RTVSPost2010Prop33
280
     0
102
RTVSPost2010PropOp33
 70
     1
102
RTVSPost2010Prop34
280
     0
102
RTVSPost2010PropOp34
 70
     1
102
RTVSPost2010Prop35
280
     0
102
RTVSPost2010PropOp35
 70
     1
102
RTVSPost2010Prop36
280
     0
102
RTVSPost2010PropOp36
 70
     1
102
RTVSPost2010Prop37
 90
       50
102
RTVSPost2010PropOp37
 70
     1
102
RTVSPost2010Prop38
140
0.0
102
RTVSPost2010PropOp38
 70
     1
102
RTVSPost2010Prop39
140
1.0
102
RTVSPost2010PropOp39
 70
     1
102
RTVSPost2010Prop40
 90
        0
102
RTVSPost2010PropOp40
 70
     1
102
RTVSPost2010Prop41ColorIndex
 90
       18
102
RTVSPost2010Prop41ColorRGB
 90
        0
102
RTVSPost2010PropOp41
 70
     1
102
RTVSPost2010Prop42
 90
       50
102
RTVSPost2010PropOp42
 70
     1
102
RTVSPost2010Prop43
 90
        3
102
RTVSPost2010PropOp43
 70
     1
102
RTVSPost2010Prop44ColorIndex
 90
        5
102
RTVSPost2010Prop44ColorRGB
 90
      255
102
RTVSPost2010PropOp44
 70
     1
102
RTVSPost2010Prop45
280
     0
102
RTVSPost2010PropOp45
 70
     1
102
RTVSPost2010Prop46
 90
       50
102
RTVSPost2010PropOp46
 70
     1
102
RTVSPost2010Prop47
 90
       50
102
RTVSPost2010PropOp47
 70
     1
102
RTVSPost2010Prop48
 90
       50
102
RTVSPost2010PropOp48
 70
     1
102
RTVSPost2010Prop49
280
     0
102
RTVSPost2010PropOp49
 70
     1
102
RTVSPost2010Prop50
 90
       50
102
RTVSPost2010PropOp50
 70
     1
102
RTVSPost2010Prop51ColorIndex
 90
      256
102
RTVSPost2010Prop51ColorRGB
 90
-16777216
102
RTVSPost2010PropOp51
 70
     0
102
RTVSPost2010Prop52
140
1.0
102
RTVSPost2010PropOp52
 70
     0
102
RTVSPost2010Prop53
 90
        2
102
RTVSPost2010PropOp53
 70
     1
102
RTVSPost2010Prop54
  1
strokes_ogs.tif
102
RTVSPost2010PropOp54
 70
     1
102
RTVSPost2010Prop55
280
     0
102
RTVSPost2010PropOp55
 70
     1
102
RTVSPost2010Prop56
140
1.0
102
RTVSPost2010PropOp56
 70
     1
102
RTVSPost2010Prop57
140
1.0
102
RTVSPost2010PropOp57
 70
     1
  0
ENDSEC
  0
EOF
