  0
SECTION
  2
HEADER
  9
$ACADVER
  1
AC1015
  9
$ACADMAINTVER
 70
     6
  9
$DWGCODEPAGE
  3
ANSI_932
  9
$INSBASE
 10
0.0
 20
0.0
 30
0.0
  9
$EXTMIN
 10
172.5157621771646
 20
30.47698097295938
 30
0.0
  9
$EXTMAX
 10
2025.377834579387
 20
7827.222674703602
 30
0.0
  9
$LIMMIN
 10
0.0
 20
0.0
  9
$LIMMAX
 10
816.5000000000001
 20
565.0
  9
$ORTHOMODE
 70
     0
  9
$REGENMODE
 70
     1
  9
$FILLMODE
 70
     1
  9
$QTEXTMODE
 70
     0
  9
$MIRRTEXT
 70
     1
  9
$LTSCALE
 40
5.0
  9
$ATTMODE
 70
     1
  9
$TEXTSIZE
 40
15.0
  9
$TRACEWID
 40
0.05
  9
$TEXTSTYLE
  7
KANJI
  9
$CLAYER
  8
2
  9
$CELTYPE
  6
BYLAYER
  9
$CECOLOR
 62
   256
  9
$CELTSCALE
 40
1.0
  9
$DISPSILH
 70
     0
  9
$DIMSCALE
 40
5.0
  9
$DIMASZ
 40
2.0
  9
$DIMEXO
 40
0.5
  9
$DIMDLI
 40
0.0
  9
$DIMRND
 40
0.0
  9
$DIMDLE
 40
0.0
  9
$DIMEXE
 40
1.0
  9
$DIMTP
 40
0.0
  9
$DIMTM
 40
0.0
  9
$DIMTXT
 40
3.0
  9
$DIMCEN
 40
0.09
  9
$DIMTSZ
 40
0.0
  9
$DIMTOL
 70
     0
  9
$DIMLIM
 70
     0
  9
$DIMTIH
 70
     0
  9
$DIMTOH
 70
     0
  9
$DIMSE1
 70
     0
  9
$DIMSE2
 70
     0
  9
$DIMTAD
 70
     0
  9
$DIMZIN
 70
     8
  9
$DIMBLK
  1

  9
$DIMASO
 70
     0
  9
$DIMSHO
 70
     0
  9
$DIMPOST
  1

  9
$DIMAPOST
  1

  9
$DIMALT
 70
     0
  9
$DIMALTD
 70
     2
  9
$DIMALTF
 40
25.4
  9
$DIMLFAC
 40
1.0
  9
$DIMTOFL
 70
     1
  9
$DIMTVP
 40
1.0
  9
$DIMTIX
 70
     1
  9
$DIMSOXD
 70
     1
  9
$DIMSAH
 70
     0
  9
$DIMBLK1
  1

  9
$DIMBLK2
  1

  9
$DIMSTYLE
  2
STANDARD
  9
$DIMCLRD
 70
   256
  9
$DIMCLRE
 70
   256
  9
$DIMCLRT
 70
   256
  9
$DIMTFAC
 40
1.0
  9
$DIMGAP
 40
0.09
  9
$DIMJUST
 70
     0
  9
$DIMSD1
 70
     0
  9
$DIMSD2
 70
     0
  9
$DIMTOLJ
 70
     1
  9
$DIMTZIN
 70
     0
  9
$DIMALTZ
 70
     0
  9
$DIMALTTZ
 70
     0
  9
$DIMUPT
 70
     0
  9
$DIMDEC
 70
     1
  9
$DIMTDEC
 70
     4
  9
$DIMALTU
 70
     2
  9
$DIMALTTD
 70
     2
  9
$DIMTXSTY
  7
STANDARD
  9
$DIMAUNIT
 70
     0
  9
$DIMADEC
 70
     0
  9
$DIMALTRND
 40
0.0
  9
$DIMAZIN
 70
     0
  9
$DIMDSEP
 70
    46
  9
$DIMATFIT
 70
     3
  9
$DIMFRAC
 70
     0
  9
$DIMLDRBLK
  1

  9
$DIMLUNIT
 70
     2
  9
$DIMLWD
 70
    -2
  9
$DIMLWE
 70
    -2
  9
$DIMTMOVE
 70
     0
  9
$LUNITS
 70
     2
  9
$LUPREC
 70
     3
  9
$SKETCHINC
 40
0.1
  9
$FILLETRAD
 40
3.0
  9
$AUNITS
 70
     0
  9
$AUPREC
 70
     3
  9
$MENU
  1
C:\R13\WIN\SUPPORT\ACADFULL
  9
$ELEVATION
 40
0.0
  9
$PELEVATION
 40
0.0
  9
$THICKNESS
 40
0.0
  9
$LIMCHECK
 70
     0
  9
$CHAMFERA
 40
0.0
  9
$CHAMFERB
 40
0.0
  9
$CHAMFERC
 40
0.0
  9
$CHAMFERD
 40
0.0
  9
$SKPOLY
 70
     0
  9
$TDCREATE
 40
2457661.529530856
  9
$TDUCREATE
 40
2457661.154530856
  9
$TDUPDATE
 40
2458124.496085833
  9
$TDUUPDATE
 40
2458124.121085833
  9
$TDINDWG
 40
0.0858778704
  9
$TDUSRTIMER
 40
0.0858768056
  9
$USRTIMER
 70
     1
  9
$ANGBASE
 50
0.0
  9
$ANGDIR
 70
     0
  9
$PDMODE
 70
     0
  9
$PDSIZE
 40
0.0
  9
$PLINEWID
 40
0.0
  9
$SPLFRAME
 70
     0
  9
$SPLINETYPE
 70
     6
  9
$SPLINESEGS
 70
     8
  9
$HANDSEED
  5
1FA8
  9
$SURFTAB1
 70
     6
  9
$SURFTAB2
 70
     6
  9
$SURFTYPE
 70
     6
  9
$SURFU
 70
     6
  9
$SURFV
 70
     6
  9
$UCSBASE
  2

  9
$UCSNAME
  2

  9
$UCSORG
 10
0.0
 20
0.0
 30
0.0
  9
$UCSXDIR
 10
1.0
 20
0.0
 30
0.0
  9
$UCSYDIR
 10
0.0
 20
1.0
 30
0.0
  9
$UCSORTHOREF
  2

  9
$UCSORTHOVIEW
 70
     0
  9
$UCSORGTOP
 10
0.0
 20
0.0
 30
0.0
  9
$UCSORGBOTTOM
 10
0.0
 20
0.0
 30
0.0
  9
$UCSORGLEFT
 10
0.0
 20
0.0
 30
0.0
  9
$UCSORGRIGHT
 10
0.0
 20
0.0
 30
0.0
  9
$UCSORGFRONT
 10
0.0
 20
0.0
 30
0.0
  9
$UCSORGBACK
 10
0.0
 20
0.0
 30
0.0
  9
$PUCSBASE
  2

  9
$PUCSNAME
  2

  9
$PUCSORG
 10
0.0
 20
0.0
 30
0.0
  9
$PUCSXDIR
 10
1.0
 20
0.0
 30
0.0
  9
$PUCSYDIR
 10
0.0
 20
1.0
 30
0.0
  9
$PUCSORTHOREF
  2

  9
$PUCSORTHOVIEW
 70
     0
  9
$PUCSORGTOP
 10
0.0
 20
0.0
 30
0.0
  9
$PUCSORGBOTTOM
 10
0.0
 20
0.0
 30
0.0
  9
$PUCSORGLEFT
 10
0.0
 20
0.0
 30
0.0
  9
$PUCSORGRIGHT
 10
0.0
 20
0.0
 30
0.0
  9
$PUCSORGFRONT
 10
0.0
 20
0.0
 30
0.0
  9
$PUCSORGBACK
 10
0.0
 20
0.0
 30
0.0
  9
$USERI1
 70
     0
  9
$USERI2
 70
     0
  9
$USERI3
 70
     0
  9
$USERI4
 70
     0
  9
$USERI5
 70
     0
  9
$USERR1
 40
0.0
  9
$USERR2
 40
0.0
  9
$USERR3
 40
0.0
  9
$USERR4
 40
2448925.372986111
  9
$USERR5
 40
0.04166667
  9
$WORLDVIEW
 70
     1
  9
$SHADEDGE
 70
     3
  9
$SHADEDIF
 70
    70
  9
$TILEMODE
 70
     1
  9
$MAXACTVP
 70
    16
  9
$PINSBASE
 10
0.0
 20
0.0
 30
0.0
  9
$PLIMCHECK
 70
     0
  9
$PEXTMIN
 10
1000000000000000E+20
 20
1000000000000000E+20
 30
1000000000000000E+20
  9
$PEXTMAX
 10
-1000000000000000E+20
 20
-1000000000000000E+20
 30
-1000000000000000E+20
  9
$PLIMMIN
 10
0.0
 20
0.0
  9
$PLIMMAX
 10
12.0
 20
9.0
  9
$UNITMODE
 70
     0
  9
$VISRETAIN
 70
     0
  9
$PLINEGEN
 70
     0
  9
$PSLTSCALE
 70
     0
  9
$TREEDEPTH
 70
  3020
  9
$CMLSTYLE
  2
STANDARD
  9
$CMLJUST
 70
     0
  9
$CMLSCALE
 40
1.0
  9
$PROXYGRAPHICS
 70
     1
  9
$MEASUREMENT
 70
     0
  9
$CELWEIGHT
370
    -1
  9
$ENDCAPS
280
     0
  9
$JOINSTYLE
280
     0
  9
$LWDISPLAY
290
     0
  9
$INSUNITS
 70
     0
  9
$HYPERLINKBASE
  1

  9
$STYLESHEET
  1

  9
$XEDIT
290
     1
  9
$CEPSNTYPE
380
     0
  9
$PSTYLEMODE
290
     1
  9
$FINGERPRINTGUID
  2
{8C2C3B4A-CEE2-44BD-BB9A-1B47B6591380}
  9
$VERSIONGUID
  2
{861AEE12-BE66-4493-B0D4-1A1FDC083E12}
  9
$EXTNAMES
290
     1
  9
$PSVPSCALE
 40
0.0
  9
$OLESTARTUP
290
     0
  0
ENDSEC
  0
SECTION
  2
CLASSES
  0
CLASS
  1
LWPOLYLINE
  2
AcDbPolyline
  3
AutoCAD 2000
 90
        0
280
     0
281
     1
  0
CLASS
  1
HATCH
  2
AcDbHatch
  3
AutoCAD 2000
 90
        0
280
     0
281
     1
  0
CLASS
  1
XRECORD
  2
AcDbXrecord
  3
AutoCAD 2000
 90
        0
280
     0
281
     0
  0
CLASS
  1
ACDBDICTIONARYWDFLT
  2
AcDbDictionaryWithDefault
  3
ObjectDBX Classes
 90
        0
280
     0
281
     0
  0
CLASS
  1
ACDBPLACEHOLDER
  2
AcDbPlaceHolder
  3
ObjectDBX Classes
 90
        0
280
     0
281
     0
  0
CLASS
  1
LAYOUT
  2
AcDbLayout
  3
ObjectDBX Classes
 90
        0
280
     0
281
     0
  0
CLASS
  1
DICTIONARYVAR
  2
AcDbDictionaryVar
  3
ObjectDBX Classes
 90
        0
280
     0
281
     0
  0
CLASS
  1
DUMMY
  2
AcDbLongTransaction
  3
DUMMY
 90
        0
280
     0
281
     0
  0
CLASS
  1
LWPOLYLINE
  2
AcDbPolyline
  3
AutoCAD 2000
 90
        0
280
     0
281
     1
  0
CLASS
  1
HATCH
  2
AcDbHatch
  3
AutoCAD 2000
 90
        0
280
     0
281
     1
  0
CLASS
  1
XRECORD
  2
AcDbXrecord
  3
AutoCAD 2000
 90
        0
280
     0
281
     0
  0
CLASS
  1
DUMMY
  2
AcDbLongTransaction
  3
DUMMY
 90
        0
280
     0
281
     0
  0
CLASS
  1
LWPOLYLINE
  2
AcDbPolyline
  3
AutoCAD 2000
 90
        0
280
     0
281
     1
  0
CLASS
  1
HATCH
  2
AcDbHatch
  3
AutoCAD 2000
 90
        0
280
     0
281
     1
  0
CLASS
  1
XRECORD
  2
AcDbXrecord
  3
AutoCAD 2000
 90
        0
280
     0
281
     0
  0
CLASS
  1
DUMMY
  2
AcDbLongTransaction
  3
DUMMY
 90
        0
280
     0
281
     0
  0
CLASS
  1
LWPOLYLINE
  2
AcDbPolyline
  3
AutoCAD 2000
 90
        0
280
     0
281
     1
  0
CLASS
  1
HATCH
  2
AcDbHatch
  3
AutoCAD 2000
 90
        0
280
     0
281
     1
  0
CLASS
  1
XRECORD
  2
AcDbXrecord
  3
AutoCAD 2000
 90
        0
280
     0
281
     0
  0
CLASS
  1
VISUALSTYLE
  2
AcDbVisualStyle
  3
ObjectDBX Classes
 90
     4095
280
     0
281
     0
  0
CLASS
  1
SCALE
  2
AcDbScale
  3
ObjectDBX Classes
 90
     1153
280
     0
281
     0
  0
CLASS
  1
MATERIAL
  2
AcDbMaterial
  3
ObjectDBX Classes
 90
     1153
280
     0
281
     0
  0
CLASS
  1
TABLESTYLE
  2
AcDbTableStyle
  3
ObjectDBX Classes
 90
     4095
280
     0
281
     0
  0
CLASS
  1
MLEADERSTYLE
  2
AcDbMLeaderStyle
  3
ACDB_MLEADERSTYLE_CLASS
 90
     4095
280
     0
281
     0
  0
CLASS
  1
SORTENTSTABLE
  2
AcDbSortentsTable
  3
ObjectDBX Classes
 90
        0
280
     0
281
     0
  0
ENDSEC
  0
SECTION
  2
TABLES
  0
TABLE
  2
VPORT
  5
19
102
{ACAD_XDICTIONARY
360
1F6E
102
}
330
0
100
AcDbSymbolTable
 70
     2
  0
VPORT
  5
5F8
330
19
100
AcDbSymbolTableRecord
100
AcDbViewportTableRecord
  2
*ACTIVE
 70
     0
 10
0.0
 20
0.0
 11
1.0
 21
1.0
 12
1694.601204098571
 22
876.2436171686
 13
0.0
 23
0.0
 14
1.0
 24
1.0
 15
50.0
 25
50.0
 16
0.0
 26
0.0
 36
1.0
 17
0.0
 27
0.0
 37
0.0
 40
2000.743710801563
 41
1.82716049382716
 42
50.0
 43
0.0
 44
0.0
 50
0.0
 51
0.0
 71
     0
 72
  5000
 73
     1
 74
     0
 75
     0
 76
     0
 77
     0
 78
     0
281
     0
 65
     1
110
0.0
120
0.0
130
0.0
111
1.0
121
0.0
131
0.0
112
0.0
122
1.0
132
0.0
 79
     0
146
0.0
  0
ENDTAB
  0
TABLE
  2
LTYPE
  5
14
330
0
100
AcDbSymbolTable
 70
     4
  0
LTYPE
  5
15
330
14
100
AcDbSymbolTableRecord
100
AcDbLinetypeTableRecord
  2
BYBLOCK
 70
     0
  3

 72
    65
 73
     0
 40
0.0
  0
LTYPE
  5
16
330
14
100
AcDbSymbolTableRecord
100
AcDbLinetypeTableRecord
  2
BYLAYER
 70
     0
  3

 72
    65
 73
     0
 40
0.0
  0
LTYPE
  5
8
330
14
100
AcDbSymbolTableRecord
100
AcDbLinetypeTableRecord
  2
CONTINUOUS
 70
     0
  3
Solid line
 72
    65
 73
     0
 40
0.0
  0
LTYPE
  5
3F
330
14
100
AcDbSymbolTableRecord
100
AcDbLinetypeTableRecord
  2
CENTER
 70
     0
  3
Center ____ _ ____ _ ____ _ ____ _ ____ _ ____
 72
    65
 73
     4
 40
2.0
 49
1.25
 74
     0
 49
-0.25
 74
     0
 49
0.25
 74
     0
 49
-0.25
 74
     0
  0
LTYPE
  5
2F1
330
14
100
AcDbSymbolTableRecord
100
AcDbLinetypeTableRecord
  2
DASHDOT
 70
     0
  3
__ . __ . __ . __ . __ . __ . __ . __ . __ . __
 72
    65
 73
     4
 40
1.0
 49
0.5
 74
     0
 49
-0.25
 74
     0
 49
0.0
 74
     0
 49
-0.25
 74
     0
  0
LTYPE
  5
114
330
14
100
AcDbSymbolTableRecord
100
AcDbLinetypeTableRecord
  2
DASHED
 70
     0
  3
Dashed __ __ __ __ __ __ __ __ __ __ __ __ __ _
 72
    65
 73
     2
 40
0.75
 49
0.5
 74
     0
 49
-0.25
 74
     0
  0
ENDTAB
  0
TABLE
  2
LAYER
  5
10
330
0
100
AcDbSymbolTable
 70
     9
  0
LAYER
  5
4
330
10
100
AcDbSymbolTableRecord
100
AcDbLayerTableRecord
  2
0
 70
     0
 62
     7
  6
CONTINUOUS
370
    -3
390
5
  0
LAYER
  5
2A
330
10
100
AcDbSymbolTableRecord
100
AcDbLayerTableRecord
  2
1
 70
     0
 62
     9
  6
CONTINUOUS
370
    -3
390
5
  0
LAYER
  5
27
330
10
100
AcDbSymbolTableRecord
100
AcDbLayerTableRecord
  2
2
 70
     0
 62
     4
  6
CONTINUOUS
370
    -3
390
5
  0
LAYER
  5
22
330
10
100
AcDbSymbolTableRecord
100
AcDbLayerTableRecord
  2
4
 70
     0
 62
     3
  6
CONTINUOUS
370
    -3
390
5
  0
LAYER
  5
3E
330
10
100
AcDbSymbolTableRecord
100
AcDbLayerTableRecord
  2
L-CENTER
 70
     0
 62
     1
  6
CENTER
370
    -3
390
5
  0
LAYER
  5
5BF
330
10
100
AcDbSymbolTableRecord
100
AcDbLayerTableRecord
  2
3
 70
     0
 62
     2
  6
CONTINUOUS
370
    -3
390
5
  0
LAYER
  5
641
330
10
100
AcDbSymbolTableRecord
100
AcDbLayerTableRecord
  2
Defpoints
 70
     0
 62
     7
  6
CONTINUOUS
290
     0
370
    -3
390
5
  0
LAYER
  5
651
102
{ACAD_XDICTIONARY
360
652
102
}
330
10
100
AcDbSymbolTableRecord
100
AcDbLayerTableRecord
  2
5
 70
     0
 62
     6
  6
CONTINUOUS
370
    -3
390
5
  0
LAYER
  5
657
102
{ACAD_XDICTIONARY
360
658
102
}
330
10
100
AcDbSymbolTableRecord
100
AcDbLayerTableRecord
  2
CENTER
 70
     0
 62
     1
  6
CENTER
370
    -3
390
5
  0
ENDTAB
  0
TABLE
  2
STYLE
  5
11
330
0
100
AcDbSymbolTable
 70
     2
  0
STYLE
  5
12
330
11
100
AcDbSymbolTableRecord
100
AcDbTextStyleTableRecord
  2
STANDARD
 70
     0
 40
0.0
 41
1.0
 50
0.0
 71
     0
 42
9.0
  3
TXT
  4

  0
STYLE
  5
23
330
11
100
AcDbSymbolTableRecord
100
AcDbTextStyleTableRecord
  2
KANJI
 70
     0
 40
0.0
 41
1.0
 50
0.0
 71
     0
 42
15.0
  3
TXT
  4
BIGFONT
  0
ENDTAB
  0
TABLE
  2
VIEW
  5
17
330
0
100
AcDbSymbolTable
 70
     0
  0
ENDTAB
  0
TABLE
  2
UCS
  5
18
330
0
100
AcDbSymbolTable
 70
     0
  0
ENDTAB
  0
TABLE
  2
APPID
  5
1B
330
0
100
AcDbSymbolTable
 70
     5
  0
APPID
  5
1C
330
1B
100
AcDbSymbolTableRecord
100
AcDbRegAppTableRecord
  2
ACAD
 70
     0
  0
APPID
  5
63E
330
1B
100
AcDbSymbolTableRecord
100
AcDbRegAppTableRecord
  2
ACAD_PSEXT
 70
     0
  0
APPID
  5
65C
330
1B
100
AcDbSymbolTableRecord
100
AcDbRegAppTableRecord
  2
ACAD_NAV_VCDISPLAY
 70
     0
  0
APPID
  5
65D
330
1B
100
AcDbSymbolTableRecord
100
AcDbRegAppTableRecord
  2
ACAD_EXEMPT_FROM_CAD_STANDARDS
 70
     0
  0
APPID
  5
65E
330
1B
100
AcDbSymbolTableRecord
100
AcDbRegAppTableRecord
  2
ACAD_MLEADERVER
 70
     0
  0
ENDTAB
  0
TABLE
  2
DIMSTYLE
  5
1D
330
0
100
AcDbSymbolTable
 70
     1
100
AcDbDimStyleTable
  0
DIMSTYLE
105
25
330
1D
100
AcDbSymbolTableRecord
100
AcDbDimStyleTableRecord
  2
STANDARD
 70
     0
178
     0
340
12
  0
ENDTAB
  0
TABLE
  2
BLOCK_RECORD
  5
1
330
0
100
AcDbSymbolTable
 70
     0
  0
BLOCK_RECORD
  5
2
102
{ACAD_XDICTIONARY
360
1ECA
102
}
330
1
100
AcDbSymbolTableRecord
100
AcDbBlockTableRecord
  2
*MODEL_SPACE
340
A
  0
BLOCK_RECORD
  5
C
330
1
100
AcDbSymbolTableRecord
100
AcDbBlockTableRecord
  2
*PAPER_SPACE
340
F
  0
ENDTAB
  0
ENDSEC
  0
SECTION
  2
BLOCKS
  0
BLOCK
  5
3
330
2
100
AcDbEntity
  8
0
100
AcDbBlockBegin
  2
*MODEL_SPACE
 70
     0
 10
0.0
 20
0.0
 30
0.0
  3
*MODEL_SPACE
  1

  0
ENDBLK
  5
9
330
2
100
AcDbEntity
  8
0
100
AcDbBlockEnd
  0
BLOCK
  5
D
330
C
100
AcDbEntity
 67
     1
  8
0
100
AcDbBlockBegin
  2
*PAPER_SPACE
 70
     0
 10
0.0
 20
0.0
 30
0.0
  3
*PAPER_SPACE
  1

  0
ENDBLK
  5
E
330
C
100
AcDbEntity
 67
     1
  8
0
100
AcDbBlockEnd
  0
ENDSEC
  0
SECTION
  2
ENTITIES
  0
LINE
  5
32
330
2
100
AcDbEntity
  8
4
100
AcDbLine
 10
603.9906285282905
 20
517.4769809729592
 30
0.0
 11
603.9906285282905
 21
456.4768979729585
 31
0.0
  0
LINE
  5
33
330
2
100
AcDbEntity
  8
4
100
AcDbLine
 10
345.99062852829
 20
613.4769809729601
 30
0.0
 11
345.99062852829
 21
456.4768979729585
 31
0.0
  0
LINE
  5
34
330
2
100
AcDbEntity
  8
4
100
AcDbLine
 10
364.9906285282896
 20
616.4769809729601
 30
0.0
 11
364.9906285282896
 21
428.4769809729584
 31
0.0
  0
LINE
  5
35
330
2
100
AcDbEntity
  8
4
100
AcDbLine
 10
593.9906285282905
 20
616.9769809729592
 30
0.0
 11
593.9906285282905
 21
456.4768979729585
 31
0.0
  0
LINE
  5
36
330
2
100
AcDbEntity
  8
4
100
AcDbLine
 10
572.99062852829
 20
621.2657880002446
 30
0.0
 11
572.99062852829
 21
428.4769809729584
 31
0.0
  0
LINE
  5
37
330
2
100
AcDbEntity
  8
4
100
AcDbLine
 10
370.99062852829
 20
621.2657880002444
 30
0.0
 11
370.99062852829
 21
428.4769809729584
 31
0.0
  0
LINE
  5
38
330
2
100
AcDbEntity
  8
4
100
AcDbLine
 10
336.99062852829
 20
456.4768979729585
 30
0.0
 11
336.99062852829
 21
517.4769809729592
 31
0.0
  0
LINE
  5
3D
330
2
100
AcDbEntity
  8
L-CENTER
 48
5.0
100
AcDbLine
 10
471.99062852829
 20
33.99243597295902
 30
0.0
 11
471.99062852829
 21
696.1137009729587
 31
0.0
  0
LINE
  5
41
330
2
100
AcDbEntity
  8
4
100
AcDbLine
 10
182.9906285282909
 20
463.9769809729602
 30
0.0
 11
311.99062852829
 21
463.9769809729602
 31
0.0
  0
LINE
  5
42
330
2
100
AcDbEntity
  8
4
100
AcDbLine
 10
182.9906285282909
 20
380.9769809729584
 30
0.0
 11
311.99062852829
 21
380.9769809729584
 31
0.0
  0
LINE
  5
43
330
2
100
AcDbEntity
  8
4
100
AcDbLine
 10
181.99062852829
 20
473.9769809729602
 30
0.0
 11
301.99062852829
 21
473.9769809729602
 31
0.0
  0
LINE
  5
44
330
2
100
AcDbEntity
  8
L-CENTER
 48
5.0
100
AcDbLine
 10
771.4654948794127
 20
422.4769809729593
 30
0.0
 11
172.5157621771673
 21
422.4769809729593
 31
0.0
  0
LINE
  5
6E
330
2
100
AcDbEntity
  8
4
100
AcDbLine
 10
181.99062852829
 20
473.9769809729602
 30
0.0
 11
181.99062852829
 21
381.9769809729593
 31
0.0
  0
LINE
  5
9B
330
2
100
AcDbEntity
  8
4
100
AcDbLine
 10
618.4903385282901
 20
440.4768979729585
 30
0.0
 11
593.4903385282901
 21
440.4768979729585
 31
0.0
  0
LINE
  5
9C
330
2
100
AcDbEntity
  8
4
100
AcDbLine
 10
617.4903385282901
 20
440.4768979729585
 30
0.0
 11
593.4903385282901
 21
440.4768979729585
 31
0.0
  0
LINE
  5
9D
330
2
100
AcDbEntity
  8
4
100
AcDbLine
 10
618.4903385282901
 20
456.4768979729585
 30
0.0
 11
593.4903385282901
 21
456.4768979729585
 31
0.0
  0
LINE
  5
9E
330
2
100
AcDbEntity
  8
4
100
AcDbLine
 10
619.9903385282901
 20
455.4768979729585
 30
0.0
 11
591.9903385282901
 21
455.4768979729585
 31
0.0
  0
LINE
  5
9F
330
2
100
AcDbEntity
  8
4
100
AcDbLine
 10
619.9903385282901
 20
453.4768979729585
 30
0.0
 11
591.9903385282901
 21
453.4768979729585
 31
0.0
  0
ARC
  5
A0
330
2
100
AcDbEntity
  8
4
100
AcDbCircle
 10
594.4903385282901
 20
434.9768979729585
 30
0.0
 40
5.5
100
AcDbArc
 50
0.0
 51
90.96750600000075
  0
CIRCLE
  5
A1
330
2
100
AcDbEntity
  8
L-CENTER
 48
5.0
100
AcDbCircle
 10
471.99062852829
 20
212.4769809729593
 30
0.0
 40
149.0
  0
LINE
  5
A2
330
2
100
AcDbEntity
  8
4
100
AcDbLine
 10
617.99062852829
 20
428.4769809729584
 30
0.0
 11
325.99062852829
 21
428.4769809729584
 31
0.0
  0
LINE
  5
A3
330
2
100
AcDbEntity
  8
L-CENTER
 48
5.0
100
AcDbLine
 10
313.5292035282896
 20
360.4769809729588
 30
0.0
 11
739.7138285282904
 21
360.4769809729588
 31
0.0
  0
LINE
  5
A4
330
2
100
AcDbEntity
  8
4
100
AcDbLine
 10
611.99062852829
 20
82.47698097295927
 30
0.0
 11
595.4521535282902
 21
104.5267559729597
 31
0.0
  0
LINE
  5
A6
330
2
100
AcDbEntity
  8
4
100
AcDbLine
 10
296.99062852829
 20
42.47698097295927
 30
0.0
 11
646.99062852829
 21
42.47698097295927
 31
0.0
  0
LINE
  5
A7
330
2
100
AcDbEntity
  8
4
100
AcDbLine
 10
571.9706285282905
 20
82.47698097295927
 30
0.0
 11
643.99062852829
 21
82.47698097295927
 31
0.0
  0
LINE
  5
A8
330
2
100
AcDbEntity
  8
L-CENTER
 48
5.0
100
AcDbLine
 10
293.5060985282894
 20
212.4769809729593
 30
0.0
 11
650.4751735282903
 21
212.4769809729593
 31
0.0
  0
CIRCLE
  5
AA
330
2
100
AcDbEntity
  8
4
100
AcDbCircle
 10
471.99062852829
 20
212.4769809729593
 30
0.0
 40
162.5
  0
CIRCLE
  5
AB
330
2
100
AcDbEntity
  8
4
100
AcDbCircle
 10
471.99062852829
 20
212.4769809729593
 30
0.0
 40
164.0
  0
CIRCLE
  5
AC
330
2
100
AcDbEntity
  8
4
100
AcDbCircle
 10
471.99062852829
 20
212.4769809729593
 30
0.0
 40
124.0
  0
LINE
  5
B1
330
2
100
AcDbEntity
  8
4
100
AcDbLine
 10
299.99062852829
 20
82.47698097295927
 30
0.0
 11
372.0106285282895
 21
82.47698097295927
 31
0.0
  0
LINE
  5
B2
330
2
100
AcDbEntity
  8
4
100
AcDbLine
 10
296.99062852829
 20
79.47698097295927
 30
0.0
 11
296.99062852829
 21
42.47698097295927
 31
0.0
  0
LINE
  5
B3
330
2
100
AcDbEntity
  8
L-CENTER
 48
5.0
100
AcDbLine
 10
331.99062852829
 20
94.47698097295927
 30
0.0
 11
331.99062852829
 21
30.47698097295927
 31
0.0
  0
LINE
  5
B4
330
2
100
AcDbEntity
  8
4
100
AcDbLine
 10
331.99062852829
 20
82.47698097295927
 30
0.0
 11
348.5291035282899
 21
104.5267559729597
 31
0.0
  0
LINE
  5
B5
330
2
100
AcDbEntity
  8
4
100
AcDbLine
 10
403.49062852829
 20
73.04689097295852
 30
0.0
 11
409.49062852829
 21
83.43919597295883
 31
0.0
  0
LINE
  5
B6
330
2
100
AcDbEntity
  8
4
100
AcDbLine
 10
409.49062852829
 20
83.43919597295883
 30
0.0
 11
403.49062852829
 21
93.83150097295913
 31
0.0
  0
CIRCLE
  5
B7
330
2
100
AcDbEntity
  8
4
100
AcDbCircle
 10
397.4906285282896
 20
83.43919597295883
 30
0.0
 40
10.392305
  0
LINE
  5
B8
330
2
100
AcDbEntity
  8
4
100
AcDbLine
 10
391.4906285282905
 20
93.83150097295913
 30
0.0
 11
385.49062852829
 21
83.43919597295883
 31
0.0
  0
LINE
  5
B9
330
2
100
AcDbEntity
  8
L-CENTER
 48
5.0
100
AcDbLine
 10
408.5001912751243
 20
102.5083106301508
 30
0.0
 11
386.4810663574834
 21
64.370080655435
 31
0.0
  0
LINE
  5
BA
330
2
100
AcDbEntity
  8
4
100
AcDbLine
 10
385.49062852829
 20
83.43919597295883
 30
0.0
 11
391.4906285282905
 21
73.04689097295852
 31
0.0
  0
LINE
  5
BB
330
2
100
AcDbEntity
  8
4
100
AcDbLine
 10
391.4906285282905
 20
73.04689097295852
 30
0.0
 11
403.49062852829
 21
73.04689097295852
 31
0.0
  0
LINE
  5
BC
330
2
100
AcDbEntity
  8
4
100
AcDbLine
 10
403.49062852829
 20
93.83150097295913
 30
0.0
 11
391.4906285282905
 21
93.83150097295913
 31
0.0
  0
LINE
  5
BF
330
2
100
AcDbEntity
  8
4
100
AcDbLine
 10
558.49062852829
 20
83.43919597295883
 30
0.0
 11
552.4906285282896
 21
93.83150097295913
 31
0.0
  0
LINE
  5
C0
330
2
100
AcDbEntity
  8
4
100
AcDbLine
 10
540.49062852829
 20
93.83150097295913
 30
0.0
 11
534.49062852829
 21
83.43919597295883
 31
0.0
  0
LINE
  5
C1
330
2
100
AcDbEntity
  8
L-CENTER
 48
5.0
100
AcDbLine
 10
535.4810657814558
 20
102.5083106301508
 30
0.0
 11
557.5001906990966
 21
64.370080655435
 31
0.0
  0
CIRCLE
  5
C2
330
2
100
AcDbEntity
  8
4
100
AcDbCircle
 10
546.4906285282905
 20
83.43919597295883
 30
0.0
 40
10.392305
  0
LINE
  5
C3
330
2
100
AcDbEntity
  8
4
100
AcDbLine
 10
540.49062852829
 20
73.04689097295852
 30
0.0
 11
552.4906285282896
 21
73.04689097295852
 31
0.0
  0
LINE
  5
C4
330
2
100
AcDbEntity
  8
4
100
AcDbLine
 10
534.49062852829
 20
83.43919597295883
 30
0.0
 11
540.49062852829
 21
73.04689097295852
 31
0.0
  0
LINE
  5
C5
330
2
100
AcDbEntity
  8
4
100
AcDbLine
 10
552.4906285282896
 20
73.04689097295852
 30
0.0
 11
558.49062852829
 21
83.43919597295883
 31
0.0
  0
LINE
  5
C6
330
2
100
AcDbEntity
  8
4
100
AcDbLine
 10
552.4906285282896
 20
93.83150097295913
 30
0.0
 11
540.49062852829
 21
93.83150097295913
 31
0.0
  0
LINE
  5
C7
330
2
100
AcDbEntity
  8
4
100
AcDbLine
 10
320.99062852829
 20
425.4769809729588
 30
0.0
 11
320.99062852829
 21
295.4769809729588
 31
0.0
  0
LINE
  5
C8
330
2
100
AcDbEntity
  8
4
100
AcDbLine
 10
325.99062852829
 20
428.4769809729584
 30
0.0
 11
325.99062852829
 21
292.4769809729593
 31
0.0
  0
LINE
  5
C9
330
2
100
AcDbEntity
  8
4
100
AcDbLine
 10
316.99062852829
 20
222.8692859729596
 30
0.0
 11
310.99062852829
 21
212.4769809729593
 31
0.0
  0
LINE
  5
CA
330
2
100
AcDbEntity
  8
4
100
AcDbLine
 10
334.9906285282896
 20
212.4769809729593
 30
0.0
 11
328.9906285282905
 21
222.8692859729596
 31
0.0
  0
CIRCLE
  5
CB
330
2
100
AcDbEntity
  8
4
100
AcDbCircle
 10
322.99062852829
 20
212.4769809729593
 30
0.0
 40
10.392305
  0
LINE
  5
CC
330
2
100
AcDbEntity
  8
4
100
AcDbLine
 10
328.9906285282905
 20
202.084675972959
 30
0.0
 11
334.9906285282896
 21
212.4769809729593
 31
0.0
  0
LINE
  5
CD
330
2
100
AcDbEntity
  8
4
100
AcDbLine
 10
316.99062852829
 20
202.084675972959
 30
0.0
 11
328.9906285282905
 21
202.084675972959
 31
0.0
  0
LINE
  5
CE
330
2
100
AcDbEntity
  8
4
100
AcDbLine
 10
310.99062852829
 20
212.4769809729593
 30
0.0
 11
316.99062852829
 21
202.084675972959
 31
0.0
  0
LINE
  5
CF
330
2
100
AcDbEntity
  8
4
100
AcDbLine
 10
328.9906285282905
 20
222.8692859729596
 30
0.0
 11
316.99062852829
 21
222.8692859729596
 31
0.0
  0
LINE
  5
D0
330
2
100
AcDbEntity
  8
4
100
AcDbLine
 10
320.99062852829
 20
295.4769809729588
 30
0.0
 11
325.99062852829
 21
295.4769809729588
 31
0.0
  0
LINE
  5
D1
330
2
100
AcDbEntity
  8
4
100
AcDbLine
 10
325.99062852829
 20
292.4769809729593
 30
0.0
 11
328.82638852829
 21
292.4769809729593
 31
0.0
  0
LINE
  5
D2
330
2
100
AcDbEntity
  8
4
100
AcDbLine
 10
311.99062852829
 20
464.9769809729593
 30
0.0
 11
311.99062852829
 21
379.9769809729593
 31
0.0
  0
LINE
  5
D3
330
2
100
AcDbEntity
  8
4
100
AcDbLine
 10
319.9906285282896
 20
400.4769809729588
 30
0.0
 11
319.9906285282896
 21
320.4769809729588
 31
0.0
  0
LINE
  5
D4
330
2
100
AcDbEntity
  8
4
100
AcDbLine
 10
319.9906285282896
 20
320.4769809729588
 30
0.0
 11
320.99062852829
 21
320.4769809729588
 31
0.0
  0
LINE
  5
D5
330
2
100
AcDbEntity
  8
4
100
AcDbLine
 10
311.99062852829
 20
379.9769809729593
 30
0.0
 11
319.9906285282896
 21
379.9769809729593
 31
0.0
  0
ARC
  5
D6
330
2
100
AcDbEntity
  8
4
100
AcDbCircle
 10
326.4903385282901
 20
434.9768979729585
 30
0.0
 40
5.5
100
AcDbArc
 50
0.0
 51
90.96750600000075
  0
LINE
  5
D7
330
2
100
AcDbEntity
  8
4
100
AcDbLine
 10
351.9903385282901
 20
453.4768979729585
 30
0.0
 11
323.9903385282901
 21
453.4768979729585
 31
0.0
  0
LINE
  5
D8
330
2
100
AcDbEntity
  8
4
100
AcDbLine
 10
351.9903385282901
 20
455.4768979729585
 30
0.0
 11
323.9903385282901
 21
455.4768979729585
 31
0.0
  0
LINE
  5
D9
330
2
100
AcDbEntity
  8
4
100
AcDbLine
 10
350.4903385282901
 20
456.4768979729585
 30
0.0
 11
325.4903385282901
 21
456.4768979729585
 31
0.0
  0
LINE
  5
DA
330
2
100
AcDbEntity
  8
4
100
AcDbLine
 10
349.4903385282901
 20
440.4768979729585
 30
0.0
 11
325.4903385282901
 21
440.4768979729585
 31
0.0
  0
LINE
  5
DB
330
2
100
AcDbEntity
  8
4
100
AcDbLine
 10
350.4903385282901
 20
440.4768979729585
 30
0.0
 11
325.4903385282901
 21
440.4768979729585
 31
0.0
  0
LINE
  5
DC
330
2
100
AcDbEntity
  8
4
100
AcDbLine
 10
311.99062852829
 20
464.9769809729593
 30
0.0
 11
335.99062852829
 21
464.9769809729593
 31
0.0
  0
LINE
  5
DD
330
2
100
AcDbEntity
  8
4
100
AcDbLine
 10
320.99062852829
 20
425.4769809729588
 30
0.0
 11
325.99062852829
 21
425.4769809729588
 31
0.0
  0
LINE
  5
DE
330
2
100
AcDbEntity
  8
4
100
AcDbLine
 10
319.9906285282896
 20
400.4769809729588
 30
0.0
 11
320.99062852829
 21
400.4769809729588
 31
0.0
  0
LINE
  5
DF
330
2
100
AcDbEntity
  8
4
100
AcDbLine
 10
301.99062852829
 20
473.9769809729602
 30
0.0
 11
301.99062852829
 21
463.9769809729602
 31
0.0
  0
LINE
  5
E0
330
2
100
AcDbEntity
  8
4
100
AcDbLine
 10
323.9903375282897
 20
455.4768979729585
 30
0.0
 11
323.9903385282901
 21
453.4768979729585
 31
0.0
  0
LINE
  5
E1
330
2
100
AcDbEntity
  8
4
100
AcDbLine
 10
325.4903385282901
 20
456.4768979729585
 30
0.0
 11
323.9903385282901
 21
455.4768979729585
 31
0.0
  0
LINE
  5
E2
330
2
100
AcDbEntity
  8
4
100
AcDbLine
 10
325.4903385282901
 20
453.4768979729585
 30
0.0
 11
325.4903385282901
 21
440.4768979729585
 31
0.0
  0
LINE
  5
E3
330
2
100
AcDbEntity
  8
4
100
AcDbLine
 10
343.9903385282901
 20
435.3638189729583
 30
0.0
 11
343.9903385282901
 21
428.4768979729585
 31
0.0
  0
LINE
  5
E4
330
2
100
AcDbEntity
  8
4
100
AcDbLine
 10
331.9903385282901
 20
434.9768979729585
 30
0.0
 11
331.9903385282901
 21
428.4768979729585
 31
0.0
  0
ARC
  5
E6
330
2
100
AcDbEntity
  8
4
100
AcDbCircle
 10
340.99048352829
 20
424.2277679729583
 30
0.0
 40
9.249130000000001
100
AcDbArc
 50
71.07445699999852
 51
108.9255430000015
  0
ARC
  5
E7
330
2
100
AcDbEntity
  8
4
100
AcDbCircle
 10
334.99077352829
 20
424.2277679729583
 30
0.0
 40
9.249130000000001
100
AcDbArc
 50
71.07445699999852
 51
108.9255430000015
  0
ARC
  5
E8
330
2
100
AcDbEntity
  8
4
100
AcDbCircle
 10
349.4903385282901
 20
434.9768979729585
 30
0.0
 40
5.5
100
AcDbArc
 50
90.0
 51
180.0
  0
LINE
  5
E9
330
2
100
AcDbEntity
  8
4
100
AcDbLine
 10
335.99062852829
 20
477.4769809729593
 30
0.0
 11
336.99062852829
 21
477.4769809729593
 31
0.0
  0
LINE
  5
EA
330
2
100
AcDbEntity
  8
4
100
AcDbLine
 10
335.99062852829
 20
456.4768979729585
 30
0.0
 11
335.99062852829
 21
477.4769809729593
 31
0.0
  0
LINE
  5
EB
330
2
100
AcDbEntity
  8
4
100
AcDbLine
 10
351.9903385282901
 20
455.4768979729585
 30
0.0
 11
351.9903385282901
 21
453.4768979729585
 31
0.0
  0
LINE
  5
EC
330
2
100
AcDbEntity
  8
4
100
AcDbLine
 10
351.9903385282901
 20
455.4768979729585
 30
0.0
 11
350.4903385282901
 21
456.4768979729585
 31
0.0
  0
LINE
  5
ED
330
2
100
AcDbEntity
  8
4
100
AcDbLine
 10
350.4903385282901
 20
453.4768979729585
 30
0.0
 11
350.4903385282901
 21
440.4768979729585
 31
0.0
  0
LINE
  5
EE
330
2
100
AcDbEntity
  8
4
100
AcDbLine
 10
403.49062852829
 20
331.1224609729594
 30
0.0
 11
409.49062852829
 21
341.5147659729597
 31
0.0
  0
LINE
  5
EF
330
2
100
AcDbEntity
  8
4
100
AcDbLine
 10
409.49062852829
 20
341.5147659729597
 30
0.0
 11
403.49062852829
 21
351.90707097296
 31
0.0
  0
CIRCLE
  5
F0
330
2
100
AcDbEntity
  8
4
100
AcDbCircle
 10
397.4906285282896
 20
341.5147659729597
 30
0.0
 40
10.392305
  0
LINE
  5
F1
330
2
100
AcDbEntity
  8
L-CENTER
 48
5.0
100
AcDbLine
 10
408.5001912751243
 20
322.4456513157677
 30
0.0
 11
386.4810663574834
 21
360.5838812904835
 31
0.0
  0
LINE
  5
F2
330
2
100
AcDbEntity
  8
4
100
AcDbLine
 10
391.4906285282905
 20
351.90707097296
 30
0.0
 11
385.49062852829
 21
341.5147659729597
 31
0.0
  0
LINE
  5
F3
330
2
100
AcDbEntity
  8
4
100
AcDbLine
 10
385.49062852829
 20
341.5147659729597
 30
0.0
 11
391.4906285282905
 21
331.1224609729594
 31
0.0
  0
LINE
  5
F4
330
2
100
AcDbEntity
  8
4
100
AcDbLine
 10
391.4906285282905
 20
331.1224609729594
 30
0.0
 11
403.49062852829
 21
331.1224609729594
 31
0.0
  0
LINE
  5
F5
330
2
100
AcDbEntity
  8
4
100
AcDbLine
 10
403.49062852829
 20
351.90707097296
 30
0.0
 11
391.4906285282905
 21
351.90707097296
 31
0.0
  0
LINE
  5
F6
330
2
100
AcDbEntity
  8
4
100
AcDbLine
 10
487.5790835282896
 20
203.4769809729584
 30
0.0
 11
487.5790835282896
 21
221.4769809729602
 31
0.0
  0
LINE
  5
F7
330
2
100
AcDbEntity
  8
4
100
AcDbLine
 10
456.4021735282904
 20
221.4769809729602
 30
0.0
 11
456.4021735282904
 21
203.4769809729584
 31
0.0
  0
CIRCLE
  5
F8
330
2
100
AcDbEntity
  8
4
100
AcDbCircle
 10
471.99062852829
 20
212.4769809729593
 30
0.0
 40
18.0
  0
CIRCLE
  5
F9
330
2
100
AcDbEntity
  8
4
100
AcDbCircle
 10
471.99062852829
 20
212.4769809729593
 30
0.0
 40
20.0
  0
LINE
  5
FA
330
2
100
AcDbEntity
  8
4
100
AcDbLine
 10
471.99062852829
 20
194.4769809729597
 30
0.0
 11
487.5790835282896
 21
203.4769809729584
 31
0.0
  0
LINE
  5
FB
330
2
100
AcDbEntity
  8
4
100
AcDbLine
 10
456.4021735282904
 20
203.4769809729584
 30
0.0
 11
471.99062852829
 21
194.4769809729597
 31
0.0
  0
LINE
  5
FC
330
2
100
AcDbEntity
  8
4
100
AcDbLine
 10
487.5790835282896
 20
221.4769809729602
 30
0.0
 11
471.99062852829
 21
230.4769809729588
 31
0.0
  0
LINE
  5
FD
330
2
100
AcDbEntity
  8
4
100
AcDbLine
 10
471.99062852829
 20
230.4769809729588
 30
0.0
 11
456.4021735282904
 21
221.4769809729602
 31
0.0
  0
LINE
  5
FE
330
2
100
AcDbEntity
  8
L-CENTER
 48
5.0
100
AcDbLine
 10
535.4810657104933
 20
322.4456511928572
 30
0.0
 11
557.5001906281341
 21
360.5838811675731
 31
0.0
  0
LINE
  5
FF
330
2
100
AcDbEntity
  8
4
100
AcDbLine
 10
540.49062852829
 20
351.90707097296
 30
0.0
 11
534.49062852829
 21
341.5147659729597
 31
0.0
  0
LINE
  5
100
330
2
100
AcDbEntity
  8
4
100
AcDbLine
 10
558.49062852829
 20
341.5147659729597
 30
0.0
 11
552.4906285282896
 21
351.90707097296
 31
0.0
  0
CIRCLE
  5
101
330
2
100
AcDbEntity
  8
4
100
AcDbCircle
 10
546.4906285282905
 20
341.5147659729597
 30
0.0
 40
10.392305
  0
LINE
  5
102
330
2
100
AcDbEntity
  8
4
100
AcDbLine
 10
540.49062852829
 20
331.1224609729594
 30
0.0
 11
552.4906285282896
 21
331.1224609729594
 31
0.0
  0
LINE
  5
103
330
2
100
AcDbEntity
  8
4
100
AcDbLine
 10
534.49062852829
 20
341.5147659729597
 30
0.0
 11
540.49062852829
 21
331.1224609729594
 31
0.0
  0
LINE
  5
104
330
2
100
AcDbEntity
  8
4
100
AcDbLine
 10
552.4906285282896
 20
331.1224609729594
 30
0.0
 11
558.49062852829
 21
341.5147659729597
 31
0.0
  0
LINE
  5
105
330
2
100
AcDbEntity
  8
4
100
AcDbLine
 10
552.4906285282896
 20
351.90707097296
 30
0.0
 11
540.49062852829
 21
351.90707097296
 31
0.0
  0
LINE
  5
106
330
2
100
AcDbEntity
  8
4
100
AcDbLine
 10
593.9906285282905
 20
440.4768979729585
 30
0.0
 11
593.9906285282905
 21
428.4769809729584
 31
0.0
  0
LINE
  5
107
330
2
100
AcDbEntity
  8
4
100
AcDbLine
 10
593.4903385282901
 20
453.4768979729585
 30
0.0
 11
593.4903385282901
 21
440.4768979729585
 31
0.0
  0
LINE
  5
108
330
2
100
AcDbEntity
  8
4
100
AcDbLine
 10
593.4903385282901
 20
456.4768979729585
 30
0.0
 11
591.9903385282901
 21
455.4768979729585
 31
0.0
  0
LINE
  5
109
330
2
100
AcDbEntity
  8
4
100
AcDbLine
 10
591.9903375282897
 20
455.4768979729585
 30
0.0
 11
591.9903385282901
 21
453.4768979729585
 31
0.0
  0
TEXT
  5
111
330
2
100
AcDbEntity
  8
3
100
AcDbText
 10
780.0832543100775
 20
35.47940338149624
 30
0.0
 40
15.0
  1
LE7-05
  7
KANJI
 72
     1
 11
821.3332543100775
 21
35.47940338149624
 31
0.0
100
AcDbText
  0
LINE
  5
112
330
2
100
AcDbEntity
  8
4
100
AcDbLine
 10
646.99062852829
 20
79.47698097295927
 30
0.0
 11
646.99062852829
 21
42.47698097295927
 31
0.0
  0
LINE
  5
113
330
2
100
AcDbEntity
  8
4
 48
5.0
100
AcDbLine
 10
623.9906285282905
 20
82.47698097295927
 30
0.0
 11
623.9906285282905
 21
42.47698097295927
 31
0.0
  0
LINE
  5
116
330
2
100
AcDbEntity
  8
L-CENTER
 48
5.0
100
AcDbLine
 10
611.99062852829
 20
94.47698097295927
 30
0.0
 11
611.99062852829
 21
30.47698097295927
 31
0.0
  0
LINE
  5
11F
330
2
100
AcDbEntity
  8
4
100
AcDbLine
 10
622.99062852829
 20
425.4769809729588
 30
0.0
 11
622.99062852829
 21
295.4769809729588
 31
0.0
  0
LINE
  5
120
330
2
100
AcDbEntity
  8
4
100
AcDbLine
 10
617.99062852829
 20
428.4769809729584
 30
0.0
 11
617.99062852829
 21
292.4769809729593
 31
0.0
  0
LINE
  5
121
330
2
100
AcDbEntity
  8
4
100
AcDbLine
 10
632.99062852829
 20
212.4769809729593
 30
0.0
 11
626.99062852829
 21
222.8692859729596
 31
0.0
  0
LINE
  5
122
330
2
100
AcDbEntity
  8
4
100
AcDbLine
 10
614.9906285282896
 20
222.8692859729596
 30
0.0
 11
608.9906285282905
 21
212.4769809729593
 31
0.0
  0
CIRCLE
  5
123
330
2
100
AcDbEntity
  8
4
100
AcDbCircle
 10
620.99062852829
 20
212.4769809729593
 30
0.0
 40
10.392305
  0
LINE
  5
124
330
2
100
AcDbEntity
  8
4
100
AcDbLine
 10
614.9906285282896
 20
202.084675972959
 30
0.0
 11
626.99062852829
 21
202.084675972959
 31
0.0
  0
LINE
  5
125
330
2
100
AcDbEntity
  8
4
100
AcDbLine
 10
608.9906285282905
 20
212.4769809729593
 30
0.0
 11
614.9906285282896
 21
202.084675972959
 31
0.0
  0
LINE
  5
126
330
2
100
AcDbEntity
  8
4
100
AcDbLine
 10
626.99062852829
 20
202.084675972959
 30
0.0
 11
632.99062852829
 21
212.4769809729593
 31
0.0
  0
LINE
  5
127
330
2
100
AcDbEntity
  8
4
100
AcDbLine
 10
626.99062852829
 20
222.8692859729596
 30
0.0
 11
614.9906285282896
 21
222.8692859729596
 31
0.0
  0
LINE
  5
128
330
2
100
AcDbEntity
  8
4
100
AcDbLine
 10
617.99062852829
 20
295.4769809729588
 30
0.0
 11
622.99062852829
 21
295.4769809729588
 31
0.0
  0
LINE
  5
129
330
2
100
AcDbEntity
  8
4
100
AcDbLine
 10
615.1548685282901
 20
292.4769809729593
 30
0.0
 11
617.99062852829
 21
292.4769809729593
 31
0.0
  0
LINE
  5
12B
330
2
100
AcDbEntity
  8
4
100
AcDbLine
 10
651.99062852829
 20
379.4769809729597
 30
0.0
 11
730.9906285282891
 21
379.4769809729597
 31
0.0
  0
LINE
  5
12C
330
2
100
AcDbEntity
  8
4
100
AcDbLine
 10
656.99062852829
 20
382.9769809729588
 30
0.0
 11
731.99062852829
 21
382.9769809729588
 31
0.0
  0
LINE
  5
12D
330
2
100
AcDbEntity
  8
4
100
AcDbLine
 10
651.99062852829
 20
341.4769809729602
 30
0.0
 11
730.9906285282914
 21
341.4769809729602
 31
0.0
  0
LINE
  5
12F
330
2
100
AcDbEntity
  8
4
100
AcDbLine
 10
623.9906285282905
 20
400.4769809729588
 30
0.0
 11
623.9906285282905
 21
320.4769809729588
 31
0.0
  0
LINE
  5
130
330
2
100
AcDbEntity
  8
4
100
AcDbLine
 10
623.9906285282905
 20
380.4769809729588
 30
0.0
 11
651.99062852829
 21
380.4769809729588
 31
0.0
  0
LINE
  5
131
330
2
100
AcDbEntity
  8
4
100
AcDbLine
 10
623.9906285282905
 20
340.4769809729588
 30
0.0
 11
651.99062852829
 21
340.4769809729588
 31
0.0
  0
LINE
  5
132
330
2
100
AcDbEntity
  8
4
100
AcDbLine
 10
622.99062852829
 20
320.4769809729588
 30
0.0
 11
623.9906285282905
 21
320.4769809729588
 31
0.0
  0
LINE
  5
133
330
2
100
AcDbEntity
  8
4
100
AcDbLine
 10
651.99062852829
 20
380.4769809729588
 30
0.0
 11
651.99062852829
 21
340.4769809729588
 31
0.0
  0
LINE
  5
134
330
2
100
AcDbEntity
  8
4
100
AcDbLine
 10
656.99062852829
 20
382.9769809729588
 30
0.0
 11
656.99062852829
 21
379.4769809729597
 31
0.0
  0
LINE
  5
135
330
2
100
AcDbEntity
  8
4
100
AcDbLine
 10
599.9903385282901
 20
434.9768979729585
 30
0.0
 11
599.9903385282901
 21
428.4768979729585
 31
0.0
  0
LINE
  5
136
330
2
100
AcDbEntity
  8
4
100
AcDbLine
 10
611.9903385282901
 20
435.3638189729583
 30
0.0
 11
611.9903385282901
 21
428.4768979729585
 31
0.0
  0
LINE
  5
137
330
2
100
AcDbEntity
  8
L-CENTER
 48
5.0
100
AcDbLine
 10
605.99062852829
 20
461.41217583334
 30
0.0
 11
605.99062852829
 21
401.7486391124273
 31
0.0
  0
LINE
  5
138
330
2
100
AcDbEntity
  8
4
100
AcDbLine
 10
617.99062852829
 20
425.4769809729588
 30
0.0
 11
622.99062852829
 21
425.4769809729588
 31
0.0
  0
ARC
  5
139
330
2
100
AcDbEntity
  8
4
100
AcDbCircle
 10
602.99077352829
 20
424.2277679729583
 30
0.0
 40
9.249130000000001
100
AcDbArc
 50
71.07445699999852
 51
108.9255430000015
  0
ARC
  5
13A
330
2
100
AcDbEntity
  8
4
100
AcDbCircle
 10
608.99048352829
 20
424.2277679729583
 30
0.0
 40
9.249130000000001
100
AcDbArc
 50
71.07445699999852
 51
108.9255430000015
  0
LINE
  5
13B
330
2
100
AcDbEntity
  8
4
100
AcDbLine
 10
622.99062852829
 20
400.4769809729588
 30
0.0
 11
623.9906285282905
 21
400.4769809729588
 31
0.0
  0
LINE
  5
13C
330
2
100
AcDbEntity
  8
4
100
AcDbLine
 10
619.9903385282901
 20
455.4768979729585
 30
0.0
 11
618.4903385282901
 21
456.4768979729585
 31
0.0
  0
LINE
  5
13D
330
2
100
AcDbEntity
  8
4
100
AcDbLine
 10
618.4903385282901
 20
453.4768979729585
 30
0.0
 11
618.4903385282901
 21
440.4768979729585
 31
0.0
  0
ARC
  5
13E
330
2
100
AcDbEntity
  8
4
100
AcDbCircle
 10
617.4903385282901
 20
434.9768979729585
 30
0.0
 40
5.5
100
AcDbArc
 50
90.0
 51
180.0
  0
LINE
  5
13F
330
2
100
AcDbEntity
  8
4
100
AcDbLine
 10
619.9903385282901
 20
455.4768979729585
 30
0.0
 11
619.9903385282901
 21
453.4768979729585
 31
0.0
  0
LINE
  5
142
330
2
100
AcDbEntity
  8
4
100
AcDbLine
 10
731.99062852829
 20
382.9769809729588
 30
0.0
 11
731.99062852829
 21
342.4769809729588
 31
0.0
  0
LWPOLYLINE
  5
147
330
2
100
AcDbEntity
  8
1
 62
     1
100
AcDbPolyline
 90
        4
 70
     0
 43
0.0
 10
1952.625662223648
 20
7635.607542063791
 10
1966.482068684199
 20
7627.607542063791
 10
1966.482068684199
 20
7643.607542063791
 10
1952.625662223648
 20
7635.607542063791
  0
TEXT
  5
148
330
2
100
AcDbEntity
  8
1
 62
     1
100
AcDbText
 10
1964.105921384315
 20
7634.740010485596
 30
0.0
 40
6.000000000000001
  1
1
 50
90.0
  7
KANJI
 72
     4
 11
1961.105921384315
 21
7635.740010485596
 31
0.0
100
AcDbText
  0
ARC
  5
14A
330
2
100
AcDbEntity
  8
4
100
AcDbCircle
 10
289.99062852829
 20
1414.160617379186
 30
0.0
 40
12.0
100
AcDbArc
 50
270.0
 51
90.0
  0
LINE
  5
14B
330
2
100
AcDbEntity
  8
4
100
AcDbLine
 10
182.99062852829
 20
1455.660617379186
 30
0.0
 11
310.99062852829
 21
1455.660617379186
 31
0.0
  0
LINE
  5
14C
330
2
100
AcDbEntity
  8
4
100
AcDbLine
 10
182.99062852829
 20
1372.660617379186
 30
0.0
 11
310.99062852829
 21
1372.660617379186
 31
0.0
  0
LINE
  5
14D
330
2
100
AcDbEntity
  8
L-CENTER
 48
5.0
100
AcDbLine
 10
172.5157621771644
 20
1414.160617379186
 30
0.0
 11
771.46549487941
 21
1414.160617379186
 31
0.0
  0
LINE
  5
156
330
2
100
AcDbEntity
  8
4
100
AcDbLine
 10
181.99062852829
 20
1373.660617379186
 30
0.0
 11
181.99062852829
 21
1454.660617379186
 31
0.0
  0
LINE
  5
157
330
2
100
AcDbEntity
  8
4
100
AcDbLine
 10
289.99062852829
 20
1402.160617379186
 30
0.0
 11
181.99062852829
 21
1402.160617379186
 31
0.0
  0
LINE
  5
158
330
2
100
AcDbEntity
  8
4
100
AcDbLine
 10
182.99062852829
 20
1372.660617379186
 30
0.0
 11
182.99062852829
 21
1402.160617379186
 31
0.0
  0
LINE
  5
159
330
2
100
AcDbEntity
  8
4
100
AcDbLine
 10
182.99062852829
 20
1372.660617379186
 30
0.0
 11
181.99062852829
 21
1373.660617379186
 31
0.0
  0
LINE
  5
15A
330
2
100
AcDbEntity
  8
4
100
AcDbLine
 10
289.99062852829
 20
1426.160617379186
 30
0.0
 11
181.99062852829
 21
1426.160617379186
 31
0.0
  0
LINE
  5
15B
330
2
100
AcDbEntity
  8
4
100
AcDbLine
 10
182.99062852829
 20
1426.160617379186
 30
0.0
 11
182.99062852829
 21
1455.660617379186
 31
0.0
  0
LINE
  5
15C
330
2
100
AcDbEntity
  8
4
100
AcDbLine
 10
181.99062852829
 20
1454.660617379186
 30
0.0
 11
182.99062852829
 21
1455.660617379186
 31
0.0
  0
LINE
  5
15D
330
2
100
AcDbEntity
  8
4
100
AcDbLine
 10
333.9906285282905
 20
1221.933376043235
 30
0.0
 11
333.9906285282905
 21
1238.387858715139
 31
0.0
  0
ARC
  5
15E
330
2
100
AcDbEntity
  8
4
100
AcDbCircle
 10
347.7863726634678
 20
1230.160617379186
 30
0.0
 40
13.7957441351769
100
AcDbArc
 50
156.5734024913727
 51
203.4265975086273
  0
LINE
  5
15F
330
2
100
AcDbEntity
  8
4
100
AcDbLine
 10
341.9906285282905
 20
1241.13027249379
 30
0.0
 11
341.9906285282905
 21
1219.190962264584
 31
0.0
  0
LINE
  5
160
330
2
100
AcDbEntity
  8
4
100
AcDbLine
 10
344.9906285282905
 20
1241.13027249379
 30
0.0
 11
344.9906285282905
 21
1219.190962264584
 31
0.0
  0
LINE
  5
161
330
2
100
AcDbEntity
  8
4
100
AcDbLine
 10
344.9906285282905
 20
1608.660617379186
 30
0.0
 11
344.9906285282905
 21
1219.660617379186
 31
0.0
  0
LINE
  5
162
330
2
100
AcDbEntity
  8
4
100
AcDbLine
 10
364.6906285282903
 20
1611.660617379186
 30
0.0
 11
364.6906285282903
 21
1216.660617379186
 31
0.0
  0
LINE
  5
163
330
2
100
AcDbEntity
  8
L-CENTER
 48
5.0
100
AcDbLine
 10
611.9906285282896
 20
1238.249588074633
 30
0.0
 11
611.9906285282896
 21
1190.071646683739
 31
0.0
  0
LINE
  5
164
330
2
100
AcDbEntity
  8
4
100
AcDbLine
 10
646.9906285282896
 20
1284.160617379188
 30
0.0
 11
646.9906285282905
 21
1144.160617379186
 31
0.0
  0
LINE
  5
165
330
2
100
AcDbEntity
  8
4
100
AcDbLine
 10
364.9906285282905
 20
1611.660617379186
 30
0.0
 11
364.99062852829
 21
1216.660617379186
 31
0.0
  0
LINE
  5
166
330
2
100
AcDbEntity
  8
4
100
AcDbLine
 10
370.9906285282905
 20
1616.160617379186
 30
0.0
 11
370.9906285282896
 21
1209.160617379188
 31
0.0
  0
LINE
  5
167
330
2
100
AcDbEntity
  8
L-CENTER
 48
5.0
100
AcDbLine
 10
471.99062852829
 20
1644.619728189778
 30
0.0
 11
471.9906285282896
 21
1000.999920815572
 31
0.0
  0
LINE
  5
168
330
2
100
AcDbEntity
  8
4
100
AcDbLine
 10
593.99062852829
 20
1608.660617379188
 30
0.0
 11
593.9906285282896
 21
1219.660617379186
 31
0.0
  0
LINE
  5
169
330
2
100
AcDbEntity
  8
4
100
AcDbLine
 10
572.99062852829
 20
1616.160617379186
 30
0.0
 11
572.9906285282896
 21
1209.160617379188
 31
0.0
  0
LINE
  5
16A
330
2
100
AcDbEntity
  8
L-CENTER
 48
5.0
100
AcDbLine
 10
331.9906285282896
 20
1238.249588074633
 30
0.0
 11
331.9906285282896
 21
1190.071646683739
 31
0.0
  0
LINE
  5
16B
330
2
100
AcDbEntity
  8
4
100
AcDbLine
 10
296.99062852829
 20
1284.160617379186
 30
0.0
 11
296.99062852829
 21
1144.160617379186
 31
0.0
  0
CIRCLE
  5
16C
330
2
100
AcDbEntity
  8
4
100
AcDbCircle
 10
605.9906285282896
 20
1124.160617379186
 30
0.0
 40
14.0
  0
LINE
  5
16D
330
2
100
AcDbEntity
  8
4
100
AcDbLine
 10
309.4906285282896
 20
1043.860617379186
 30
0.0
 11
634.4906285282896
 21
1043.860617379186
 31
0.0
  0
LINE
  5
16E
330
2
100
AcDbEntity
  8
4
100
AcDbLine
 10
309.4906285282896
 20
1026.160617379186
 30
0.0
 11
634.4906285282896
 21
1026.160617379186
 31
0.0
  0
LINE
  5
16F
330
2
100
AcDbEntity
  8
4
100
AcDbLine
 10
309.4906285282896
 20
1044.160617379186
 30
0.0
 11
634.4906285282896
 21
1044.160617379186
 31
0.0
  0
LINE
  5
170
330
2
100
AcDbEntity
  8
4
100
AcDbLine
 10
570.9906285282896
 20
1192.160617379186
 30
0.0
 11
614.9906285282896
 21
1192.160617379186
 31
0.0
  0
LINE
  5
171
330
2
100
AcDbEntity
  8
L-CENTER
 48
5.0
100
AcDbLine
 10
636.0795992237364
 20
1214.160617379186
 30
0.0
 11
587.9016578328427
 21
1214.160617379186
 31
0.0
  0
LINE
  5
172
330
2
100
AcDbEntity
  8
4
100
AcDbLine
 10
307.9906285282896
 20
1047.160617379186
 30
0.0
 11
635.9906285282896
 21
1047.160617379186
 31
0.0
  0
LINE
  5
173
330
2
100
AcDbEntity
  8
4
100
AcDbLine
 10
309.4906285282896
 20
1044.160617379186
 30
0.0
 11
634.49062852829
 21
1044.160617379186
 31
0.0
  0
LINE
  5
174
330
2
100
AcDbEntity
  8
4
100
AcDbLine
 10
328.9906285282896
 20
1056.160617379186
 30
0.0
 11
614.9906285282896
 21
1056.160617379188
 31
0.0
  0
LINE
  5
175
330
2
100
AcDbEntity
  8
L-CENTER
 48
5.0
100
AcDbLine
 10
313.5292035282896
 20
1124.160617379186
 30
0.0
 11
739.7138285282904
 21
1124.160617379186
 31
0.0
  0
LINE
  5
177
330
2
100
AcDbEntity
  8
4
100
AcDbLine
 10
603.9906285282905
 20
517.4769809729592
 30
0.0
 11
593.9906285282905
 21
522.4769809729592
 31
0.0
  0
ARC
  5
17A
330
2
100
AcDbEntity
  8
4
100
AcDbCircle
 10
471.99062852829
 20
-872.5230190270407
 30
0.0
 40
1500.0
100
AcDbArc
 50
90.559979
 51
93.75351016407745
  0
LINE
  5
17B
330
2
100
AcDbEntity
  8
L-CENTER
 48
5.0
100
AcDbLine
 10
331.3897886481859
 20
581.825655269296
 30
0.0
 11
386.2815864058978
 21
581.825655269296
 31
0.0
  0
LINE
  5
17C
330
2
100
AcDbEntity
  8
4
100
AcDbLine
 10
348.99062852829
 20
616.4769809729601
 30
0.0
 11
370.99062852829
 21
616.4769809729601
 31
0.0
  0
LINE
  5
17E
330
2
100
AcDbEntity
  8
4
100
AcDbLine
 10
345.99062852829
 20
522.4769809729592
 30
0.0
 11
336.99062852829
 21
517.4769809729592
 31
0.0
  0
LINE
  5
17F
330
2
100
AcDbEntity
  8
4
100
AcDbLine
 10
342.99062852829
 20
570.856000154693
 30
0.0
 11
342.99062852829
 21
592.7953103838986
 31
0.0
  0
LINE
  5
180
330
2
100
AcDbEntity
  8
4
100
AcDbLine
 10
345.99062852829
 20
570.856000154693
 30
0.0
 11
345.99062852829
 21
592.7953103838986
 31
0.0
  0
ARC
  5
181
330
2
100
AcDbEntity
  8
4
100
AcDbCircle
 10
338.8660074035693
 20
573.5984139333436
 30
0.0
 40
3.875378875279244
100
AcDbArc
 50
134.9559267627464
 51
225.0440732372536
  0
LINE
  5
182
330
2
100
AcDbEntity
  8
4
100
AcDbLine
 10
334.99062852829
 20
590.052896605248
 30
0.0
 11
334.99062852829
 21
573.5984139333436
 31
0.0
  0
ARC
  5
183
330
2
100
AcDbEntity
  8
4
100
AcDbCircle
 10
348.7863726634673
 20
581.825655269296
 30
0.0
 40
13.7957441351769
100
AcDbArc
 50
156.5734024913707
 51
203.4265975086273
  0
ARC
  5
184
330
2
100
AcDbEntity
  8
4
100
AcDbCircle
 10
338.8660074035693
 20
590.052896605248
 30
0.0
 40
3.875378875279264
100
AcDbArc
 50
134.9559267627464
 51
225.0440732372536
  0
LINE
  5
185
330
2
100
AcDbEntity
  8
4
100
AcDbLine
 10
336.1278094389168
 20
570.856000154693
 30
0.0
 11
345.99062852829
 21
570.856000154693
 31
0.0
  0
LINE
  5
186
330
2
100
AcDbEntity
  8
4
100
AcDbLine
 10
336.1278094389168
 20
576.3408277119943
 30
0.0
 11
342.99062852829
 21
576.3408277119943
 31
0.0
  0
LINE
  5
187
330
2
100
AcDbEntity
  8
4
100
AcDbLine
 10
345.99062852829
 20
592.7953103838986
 30
0.0
 11
336.1278094389168
 21
592.7953103838986
 31
0.0
  0
LINE
  5
188
330
2
100
AcDbEntity
  8
4
100
AcDbLine
 10
336.1278094389168
 20
587.3104828265973
 30
0.0
 11
342.99062852829
 21
587.3104828265973
 31
0.0
  0
LINE
  5
18A
330
2
100
AcDbEntity
  8
4
100
AcDbLine
 10
465.74062852829
 20
679.2269809729587
 30
0.0
 11
465.74062852829
 21
628.4769809729582
 31
0.0
  0
LINE
  5
18B
330
2
100
AcDbEntity
  8
4
100
AcDbLine
 10
478.24062852829
 20
679.2269809729587
 30
0.0
 11
478.24062852829
 21
628.4769809729582
 31
0.0
  0
ARC
  5
18C
330
2
100
AcDbEntity
  8
4
100
AcDbCircle
 10
471.99062852829
 20
-872.5230190270407
 30
0.0
 40
1500.0
100
AcDbArc
 50
86.24648983592256
 51
89.440021
  0
LINE
  5
18D
330
2
100
AcDbEntity
  8
4
100
AcDbLine
 10
478.24062852829
 20
642.9769809729587
 30
0.0
 11
490.99062852829
 21
642.9769809729587
 31
0.0
  0
LINE
  5
18E
330
2
100
AcDbEntity
  8
4
100
AcDbLine
 10
478.24062852829
 20
637.9769809729587
 30
0.0
 11
494.9906285282896
 21
637.9769809729587
 31
0.0
  0
ARC
  5
18F
330
2
100
AcDbEntity
  8
4
100
AcDbCircle
 10
482.4852485282895
 20
633.7519409729598
 30
0.0
 40
3.0
100
AcDbArc
 50
10.00000000000503
 51
83.44823099999586
  0
LINE
  5
190
330
2
100
AcDbEntity
  8
4
100
AcDbLine
 10
491.99062852829
 20
625.4769809729587
 30
0.0
 11
451.99062852829
 21
625.4769809729587
 31
0.0
  0
ARC
  5
191
330
2
100
AcDbEntity
  8
4
100
AcDbCircle
 10
471.99062852829
 20
657.9769809729587
 30
0.0
 40
42.5
100
AcDbArc
 50
241.9275130000001
 51
298.0724869999995
  0
LINE
  5
192
330
2
100
AcDbEntity
  8
4
100
AcDbLine
 10
452.99062852829
 20
642.9769809729587
 30
0.0
 11
465.74062852829
 21
642.9769809729587
 31
0.0
  0
LINE
  5
193
330
2
100
AcDbEntity
  8
4
100
AcDbLine
 10
448.9906285282905
 20
637.9769809729587
 30
0.0
 11
465.74062852829
 21
637.9769809729587
 31
0.0
  0
LINE
  5
194
330
2
100
AcDbEntity
  8
4
100
AcDbLine
 10
461.1537035282904
 20
636.7323509729599
 30
0.0
 11
465.74062852829
 21
637.2591609729589
 31
0.0
  0
ARC
  5
195
330
2
100
AcDbEntity
  8
4
100
AcDbCircle
 10
464.24062852829
 20
628.4769809729582
 30
0.0
 40
1.5
100
AcDbArc
 50
270.0
 51
0.0
  0
LINE
  5
196
330
2
100
AcDbEntity
  8
4
100
AcDbLine
 10
447.99062852829
 20
632.4769809729592
 30
0.0
 11
447.99062852829
 21
629.2519309729582
 31
0.0
  0
LINE
  5
197
330
2
100
AcDbEntity
  8
4
100
AcDbLine
 10
448.9906285282905
 20
637.9769809729587
 30
0.0
 11
448.9906285282905
 21
633.9769809729601
 31
0.0
  0
LINE
  5
198
330
2
100
AcDbEntity
  8
4
100
AcDbLine
 10
451.99062852829
 20
625.4769809729587
 30
0.0
 11
451.99062852829
 21
622.4769809729592
 31
0.0
  0
ARC
  5
199
330
2
100
AcDbEntity
  8
4
100
AcDbCircle
 10
449.9906285282896
 20
622.4769809729592
 30
0.0
 40
2.0
100
AcDbArc
 50
270.0
 51
0.0
  0
LINE
  5
19A
330
2
100
AcDbEntity
  8
4
100
AcDbLine
 10
447.99062852829
 20
632.4769809729592
 30
0.0
 11
458.0485885282906
 21
632.4769809729592
 31
0.0
  0
LINE
  5
19B
330
2
100
AcDbEntity
  8
4
100
AcDbLine
 10
456.99062852829
 20
625.4769809729587
 30
0.0
 11
458.5415835282902
 21
634.2728859729582
 31
0.0
  0
ARC
  5
19C
330
2
100
AcDbEntity
  8
4
100
AcDbCircle
 10
461.4960085282905
 20
633.7519409729598
 30
0.0
 40
3.0
100
AcDbArc
 50
96.55176900000414
 51
169.999999999995
  0
ARC
  5
19D
330
2
100
AcDbEntity
  8
4
100
AcDbCircle
 10
445.99062852829
 20
629.2519309729582
 30
0.0
 40
2.0
100
AcDbArc
 50
270.991853999994
 51
0.0
  0
LINE
  5
19E
330
2
100
AcDbEntity
  8
4
100
AcDbLine
 10
450.99062852829
 20
633.9769809729601
 30
0.0
 11
450.99062852829
 21
632.4769809729592
 31
0.0
  0
LINE
  5
19F
330
2
100
AcDbEntity
  8
4
100
AcDbLine
 10
448.9906285282905
 20
633.9769809729601
 30
0.0
 11
458.0485885282906
 21
633.9769809729601
 31
0.0
  0
LINE
  5
1A0
330
2
100
AcDbEntity
  8
4
100
AcDbLine
 10
452.99062852829
 20
642.9769809729587
 30
0.0
 11
452.99062852829
 21
637.9769809729587
 31
0.0
  0
LINE
  5
1A1
330
2
100
AcDbEntity
  8
4
100
AcDbLine
 10
478.24062852829
 20
637.2591609729589
 30
0.0
 11
482.8275535282896
 21
636.7323509729599
 31
0.0
  0
ARC
  5
1A2
330
2
100
AcDbEntity
  8
4
100
AcDbCircle
 10
479.74062852829
 20
628.4769809729582
 30
0.0
 40
1.5
100
AcDbArc
 50
180.0
 51
270.0
  0
LINE
  5
1A3
330
2
100
AcDbEntity
  8
4
100
AcDbLine
 10
495.99062852829
 20
632.4769809729592
 30
0.0
 11
495.99062852829
 21
629.2519309729582
 31
0.0
  0
LINE
  5
1A4
330
2
100
AcDbEntity
  8
4
100
AcDbLine
 10
494.9906285282896
 20
637.9769809729587
 30
0.0
 11
494.9906285282896
 21
633.9769809729601
 31
0.0
  0
LINE
  5
1A5
330
2
100
AcDbEntity
  8
4
100
AcDbLine
 10
491.99062852829
 20
625.4769809729587
 30
0.0
 11
491.99062852829
 21
622.4769809729592
 31
0.0
  0
ARC
  5
1A6
330
2
100
AcDbEntity
  8
4
100
AcDbCircle
 10
493.9906285282905
 20
622.4769809729592
 30
0.0
 40
2.0
100
AcDbArc
 50
180.0
 51
270.0
  0
LINE
  5
1A7
330
2
100
AcDbEntity
  8
4
100
AcDbLine
 10
485.7563385282901
 20
632.4769809729592
 30
0.0
 11
495.99062852829
 21
632.4769809729592
 31
0.0
  0
LINE
  5
1A8
330
2
100
AcDbEntity
  8
4
100
AcDbLine
 10
486.99062852829
 20
625.4769809729587
 30
0.0
 11
485.4396735282899
 21
634.2728859729582
 31
0.0
  0
ARC
  5
1A9
330
2
100
AcDbEntity
  8
4
100
AcDbCircle
 10
497.99062852829
 20
629.2519309729582
 30
0.0
 40
2.0
100
AcDbArc
 50
180.0
 51
269.008146000006
  0
LINE
  5
1AA
330
2
100
AcDbEntity
  8
4
100
AcDbLine
 10
492.99062852829
 20
633.9769809729601
 30
0.0
 11
492.99062852829
 21
632.4769809729592
 31
0.0
  0
LINE
  5
1AB
330
2
100
AcDbEntity
  8
4
100
AcDbLine
 10
485.7563385282901
 20
633.9769809729601
 30
0.0
 11
494.9906285282896
 21
633.9769809729601
 31
0.0
  0
LINE
  5
1AC
330
2
100
AcDbEntity
  8
4
100
AcDbLine
 10
490.99062852829
 20
642.9769809729587
 30
0.0
 11
490.99062852829
 21
637.9769809729587
 31
0.0
  0
LINE
  5
1AD
330
2
100
AcDbEntity
  8
4
100
AcDbLine
 10
572.99062852829
 20
619.9769809729592
 30
0.0
 11
590.9906285282905
 21
619.9769809729592
 31
0.0
  0
ARC
  5
1AE
330
2
100
AcDbEntity
  8
4
100
AcDbCircle
 10
471.99062852829
 20
679.2269809729587
 30
0.0
 40
6.25
100
AcDbArc
 50
0.0
 51
180.0
  0
LINE
  5
1B3
330
2
100
AcDbEntity
  8
4
100
AcDbLine
 10
408.4602839309059
 20
1022.513651838925
 30
0.0
 11
451.9906285282896
 21
1018.160617379185
 31
0.0
  0
LINE
  5
1B4
330
2
100
AcDbEntity
  8
4
100
AcDbLine
 10
370.9906285282896
 20
1209.160617379279
 30
0.0
 11
572.9906285282896
 21
1209.160617379186
 31
0.0
  0
LINE
  5
1B5
330
2
100
AcDbEntity
  8
4
100
AcDbLine
 10
325.99062852829
 20
1116.949514828259
 30
0.0
 11
325.9906285282896
 21
1059.160617379186
 31
0.0
  0
LINE
  5
1B6
330
2
100
AcDbEntity
  8
4
100
AcDbLine
 10
320.9906285282905
 20
1189.160617379186
 30
0.0
 11
320.9906285282896
 21
1059.160617379186
 31
0.0
  0
LINE
  5
1B7
330
2
100
AcDbEntity
  8
4
100
AcDbLine
 10
307.9906285282896
 20
1081.160617379186
 30
0.0
 11
307.9906285282896
 21
1047.160617379186
 31
0.0
  0
ARC
  5
1B8
330
2
100
AcDbEntity
  8
4
100
AcDbCircle
 10
331.2178698642415
 20
1019.035996254466
 30
0.0
 40
3.875378875279264
100
AcDbArc
 50
224.955926762744
 51
315.044073237256
  0
LINE
  5
1B9
330
2
100
AcDbEntity
  8
4
100
AcDbLine
 10
331.2178698642415
 20
1015.160617379186
 30
0.0
 11
314.7633871923372
 21
1015.160617379186
 31
0.0
  0
LINE
  5
1BA
330
2
100
AcDbEntity
  8
4
100
AcDbLine
 10
312.0209734136865
 20
1026.160617379186
 30
0.0
 11
333.9602836428921
 21
1026.160617379186
 31
0.0
  0
LINE
  5
1BB
330
2
100
AcDbEntity
  8
4
100
AcDbLine
 10
312.0209734136865
 20
1023.160617379186
 30
0.0
 11
333.9602836428921
 21
1023.160617379186
 31
0.0
  0
ARC
  5
1BD
330
2
100
AcDbEntity
  8
4
100
AcDbCircle
 10
322.9906285282896
 20
1028.956361514364
 30
0.0
 40
13.7957441351769
100
AcDbArc
 50
246.5734024913693
 51
293.4265975086262
  0
ARC
  5
1BE
330
2
100
AcDbEntity
  8
4
100
AcDbCircle
 10
314.7633871923372
 20
1019.035996254466
 30
0.0
 40
3.875378875279244
100
AcDbArc
 50
224.955926762744
 51
315.0440732372554
  0
LINE
  5
1BF
330
2
100
AcDbEntity
  8
4
100
AcDbLine
 10
309.4906285282896
 20
1026.160617379186
 30
0.0
 11
309.4906285282896
 21
1047.160617379185
 31
0.0
  0
LINE
  5
1C0
330
2
100
AcDbEntity
  8
4
100
AcDbLine
 10
309.4906285282896
 20
1047.160617379186
 30
0.0
 11
309.4906285282896
 21
1044.160617379186
 31
0.0
  0
LINE
  5
1C1
330
2
100
AcDbEntity
  8
4
100
AcDbLine
 10
328.4754560855908
 20
1016.297798289813
 30
0.0
 11
328.4754560855908
 21
1023.160617379186
 31
0.0
  0
LINE
  5
1C2
330
2
100
AcDbEntity
  8
4
100
AcDbLine
 10
317.5058009709878
 20
1016.297798289813
 30
0.0
 11
317.5058009709878
 21
1023.160617379186
 31
0.0
  0
LINE
  5
1C3
330
2
100
AcDbEntity
  8
4
100
AcDbLine
 10
312.0209734136865
 20
1016.297798289813
 30
0.0
 11
312.0209734136865
 21
1026.160617379186
 31
0.0
  0
ARC
  5
1C4
330
2
100
AcDbEntity
  8
4
100
AcDbCircle
 10
328.99062852829
 20
1059.160617379186
 30
0.0
 40
3.0
100
AcDbArc
 50
180.0
 51
270.0
  0
LINE
  5
1C5
330
2
100
AcDbEntity
  8
4
100
AcDbLine
 10
325.99062852829
 20
1059.160617379186
 30
0.0
 11
320.99062852829
 21
1059.160617379186
 31
0.0
  0
LINE
  5
1C6
330
2
100
AcDbEntity
  8
4
100
AcDbLine
 10
333.9602836428921
 20
1026.160617379186
 30
0.0
 11
333.9602836428921
 21
1016.297798289813
 31
0.0
  0
ARC
  5
1C7
330
2
100
AcDbEntity
  8
4
100
AcDbCircle
 10
405.7178701522553
 20
1019.035996254466
 30
0.0
 40
3.875378875279264
100
AcDbArc
 50
224.955926762744
 51
315.044073237256
  0
LINE
  5
1C8
330
2
100
AcDbEntity
  8
4
100
AcDbLine
 10
386.5209737017003
 20
1026.160617379186
 30
0.0
 11
408.4602839309059
 21
1026.160617379186
 31
0.0
  0
LINE
  5
1C9
330
2
100
AcDbEntity
  8
4
100
AcDbLine
 10
386.5209737017003
 20
1023.160617379186
 30
0.0
 11
408.4602839309059
 21
1023.160617379186
 31
0.0
  0
ARC
  5
1CA
330
2
100
AcDbEntity
  8
4
100
AcDbCircle
 10
389.263387480351
 20
1019.035996254466
 30
0.0
 40
3.875378875279244
100
AcDbArc
 50
224.955926762744
 51
315.0440732372554
  0
ARC
  5
1CB
330
2
100
AcDbEntity
  8
4
100
AcDbCircle
 10
397.4906288163033
 20
1028.956361514364
 30
0.0
 40
13.7957441351769
100
AcDbArc
 50
246.5734024913737
 51
293.4265975086262
  0
LINE
  5
1CD
330
2
100
AcDbEntity
  8
4
100
AcDbLine
 10
405.7178701522553
 20
1015.160617379186
 30
0.0
 11
389.263387480351
 21
1015.160617379186
 31
0.0
  0
LINE
  5
1CE
330
2
100
AcDbEntity
  8
4
100
AcDbLine
 10
386.5209737017003
 20
1016.297798289813
 30
0.0
 11
386.5209737017003
 21
1026.160617379186
 31
0.0
  0
LINE
  5
1CF
330
2
100
AcDbEntity
  8
4
100
AcDbLine
 10
371.9906285282896
 20
1026.160617379186
 30
0.0
 11
386.5209737017003
 21
1024.707582861846
 31
0.0
  0
LINE
  5
1D0
330
2
100
AcDbEntity
  8
4
100
AcDbLine
 10
392.0058012590016
 20
1016.297798289813
 30
0.0
 11
392.0058012590016
 21
1023.160617379186
 31
0.0
  0
LINE
  5
1D1
330
2
100
AcDbEntity
  8
4
100
AcDbLine
 10
402.9754563736046
 20
1016.297798289813
 30
0.0
 11
402.9754563736046
 21
1023.160617379186
 31
0.0
  0
LINE
  5
1D2
330
2
100
AcDbEntity
  8
4
100
AcDbLine
 10
408.4602839309059
 20
1026.160617379186
 30
0.0
 11
408.4602839309059
 21
1016.297798289813
 31
0.0
  0
LINE
  5
1D4
330
2
100
AcDbEntity
  8
4
100
AcDbLine
 10
364.9906285282896
 20
1216.660617379186
 30
0.0
 11
370.99062852829
 21
1216.660617379186
 31
0.0
  0
LINE
  5
1D5
330
2
100
AcDbEntity
  8
4
100
AcDbLine
 10
328.9906285282905
 20
1192.160617379188
 30
0.0
 11
372.9906285282896
 21
1192.160617379186
 31
0.0
  0
LINE
  5
1D6
330
2
100
AcDbEntity
  8
4
100
AcDbLine
 10
319.9906285282896
 20
1164.160617379186
 30
0.0
 11
319.9906285282896
 21
1084.160617379186
 31
0.0
  0
LINE
  5
1D7
330
2
100
AcDbEntity
  8
4
100
AcDbLine
 10
325.9906285282905
 20
1189.160617379188
 30
0.0
 11
325.99062852829
 21
1131.371719930116
 31
0.0
  0
CIRCLE
  5
1D8
330
2
100
AcDbEntity
  8
4
100
AcDbCircle
 10
337.9906285282896
 20
1124.160617379186
 30
0.0
 40
14.0
  0
LINE
  5
1D9
330
2
100
AcDbEntity
  8
4
100
AcDbLine
 10
310.9906285282896
 20
1084.160617379186
 30
0.0
 11
320.99062852829
 21
1084.160617379186
 31
0.0
  0
LINE
  5
1DA
330
2
100
AcDbEntity
  8
4
100
AcDbLine
 10
319.9906285282896
 20
1084.160617379186
 30
0.0
 11
320.9906285282896
 21
1084.160617379186
 31
0.0
  0
LINE
  5
1DB
330
2
100
AcDbEntity
  8
4
100
AcDbLine
 10
301.99062852829
 20
1139.160617379186
 30
0.0
 11
319.9906285282896
 21
1139.160617379186
 31
0.0
  0
ARC
  5
1DC
330
2
100
AcDbEntity
  8
4
100
AcDbCircle
 10
301.99062852829
 20
1144.160617379186
 30
0.0
 40
5.0
100
AcDbArc
 50
180.0
 51
270.0
  0
LINE
  5
1DD
330
2
100
AcDbEntity
  8
L-CENTER
 48
5.0
100
AcDbLine
 10
337.9906285282896
 20
1148.622042379186
 30
0.0
 11
337.9906285282896
 21
1099.699192379186
 31
0.0
  0
LINE
  5
1DE
330
2
100
AcDbEntity
  8
L-CENTER
 48
5.0
100
AcDbLine
 10
307.9016578328427
 20
1214.160617379186
 30
0.0
 11
356.0795992237364
 21
1214.160617379186
 31
0.0
  0
ARC
  5
1DF
330
2
100
AcDbEntity
  8
4
100
AcDbCircle
 10
331.99062852829
 20
1214.160617379186
 30
0.0
 40
11.0
100
AcDbArc
 50
79.52431830360838
 51
27.21328109718123
  0
ARC
  5
1E0
330
2
100
AcDbEntity
  8
4
100
AcDbCircle
 10
328.9906285282905
 20
1189.160617379188
 30
0.0
 40
3.0
100
AcDbArc
 50
90.0
 51
180.0
  0
LINE
  5
1E1
330
2
100
AcDbEntity
  8
4
100
AcDbLine
 10
319.9906285282896
 20
1164.160617379186
 30
0.0
 11
320.9906285282896
 21
1164.160617379186
 31
0.0
  0
LINE
  5
1E2
330
2
100
AcDbEntity
  8
4
100
AcDbLine
 10
325.99062852829
 20
1189.160617379186
 30
0.0
 11
320.9906285282905
 21
1189.160617379186
 31
0.0
  0
LINE
  5
1E3
330
2
100
AcDbEntity
  8
4
100
AcDbLine
 10
347.9906285282905
 20
1216.660617379186
 30
0.0
 11
364.6906285282903
 21
1216.660617379186
 31
0.0
  0
ARC
  5
1E4
330
2
100
AcDbEntity
  8
4
100
AcDbCircle
 10
337.8660074035697
 20
1221.933376043235
 30
0.0
 40
3.875378875279264
100
AcDbArc
 50
134.9559267627559
 51
225.0440732372441
  0
LINE
  5
1E5
330
2
100
AcDbEntity
  8
4
100
AcDbLine
 10
344.9906285282905
 20
1219.190962264584
 30
0.0
 11
335.1278094389172
 21
1219.190962264584
 31
0.0
  0
LINE
  5
1E6
330
2
100
AcDbEntity
  8
4
100
AcDbLine
 10
335.1278094389172
 20
1224.675789821885
 30
0.0
 11
341.9906285282905
 21
1224.675789821885
 31
0.0
  0
ARC
  5
1E7
330
2
100
AcDbEntity
  8
4
100
AcDbCircle
 10
347.9906285282905
 20
1219.660617379186
 30
0.0
 40
3.0
100
AcDbArc
 50
180.0
 51
270.0
  0
LINE
  5
1E8
330
2
100
AcDbEntity
  8
4
100
AcDbLine
 10
372.9906285282896
 20
1209.160617379277
 30
0.0
 11
372.9906285282896
 21
1167.329128195959
 31
0.0
  0
LINE
  5
1E9
330
2
100
AcDbEntity
  8
4
100
AcDbLine
 10
535.5209731256737
 20
1022.513651838925
 30
0.0
 11
491.9906285282896
 21
1018.160617379185
 31
0.0
  0
LINE
  5
1EA
330
2
100
AcDbEntity
  8
4
100
AcDbLine
 10
453.9906285282905
 20
1014.160617379186
 30
0.0
 11
489.9906285282896
 21
1014.160617379186
 31
0.0
  0
ARC
  5
1EB
330
2
100
AcDbEntity
  8
4
100
AcDbCircle
 10
471.9906285282896
 20
1207.160617379185
 30
0.0
 40
200.0
100
AcDbArc
 50
264.8363930000001
 51
275.163607
  0
LINE
  5
1EC
330
2
100
AcDbEntity
  8
4
100
AcDbLine
 10
489.9906285282896
 20
1012.160617379185
 30
0.0
 11
453.9906285282905
 21
1012.160617379185
 31
0.0
  0
LINE
  5
1ED
330
2
100
AcDbEntity
  8
4
100
AcDbLine
 10
491.9906285282896
 20
1016.160617379186
 30
0.0
 11
451.9906285282896
 21
1016.160617379186
 31
0.0
  0
LINE
  5
1EE
330
2
100
AcDbEntity
  8
4
100
AcDbLine
 10
491.9906285282896
 20
1018.160617379185
 30
0.0
 11
451.9906285282896
 21
1018.160617379185
 31
0.0
  0
LINE
  5
1EF
330
2
100
AcDbEntity
  8
4
100
AcDbLine
 10
453.9906285282905
 20
1007.972262379185
 30
0.0
 11
453.9906285282905
 21
1016.160617379186
 31
0.0
  0
LINE
  5
1F0
330
2
100
AcDbEntity
  8
4
100
AcDbLine
 10
462.9906285282887
 20
1007.363222379186
 30
0.0
 11
462.9906285282887
 21
1012.160617379185
 31
0.0
  0
LINE
  5
1F1
330
2
100
AcDbEntity
  8
4
100
AcDbLine
 10
480.9906285282905
 20
1007.363222379186
 30
0.0
 11
480.9906285282905
 21
1012.160617379185
 31
0.0
  0
LINE
  5
1F2
330
2
100
AcDbEntity
  8
4
100
AcDbLine
 10
451.9906285282896
 20
1016.160617379186
 30
0.0
 11
451.9906285282896
 21
1018.160617379185
 31
0.0
  0
LINE
  5
1F3
330
2
100
AcDbEntity
  8
4
100
AcDbLine
 10
489.9906285282896
 20
1007.972262379185
 30
0.0
 11
489.9906285282896
 21
1016.160617379186
 31
0.0
  0
LINE
  5
1F4
330
2
100
AcDbEntity
  8
4
100
AcDbLine
 10
491.9906285282896
 20
1016.160617379186
 30
0.0
 11
491.9906285282896
 21
1018.160617379185
 31
0.0
  0
LINE
  5
1F5
330
2
100
AcDbEntity
  8
4
100
AcDbLine
 10
571.9906285282896
 20
1026.160617379186
 30
0.0
 11
557.4602833548793
 21
1024.707582861846
 31
0.0
  0
ARC
  5
1F6
330
2
100
AcDbEntity
  8
4
100
AcDbCircle
 10
554.7178695762286
 20
1019.035996254466
 30
0.0
 40
3.875378875279244
100
AcDbArc
 50
224.955926762744
 51
315.0440732372548
  0
ARC
  5
1F7
330
2
100
AcDbEntity
  8
4
100
AcDbCircle
 10
546.4906282402762
 20
1028.956361514364
 30
0.0
 40
13.7957441351769
100
AcDbArc
 50
246.5734024913737
 51
293.4265975086262
  0
ARC
  5
1F8
330
2
100
AcDbEntity
  8
4
100
AcDbCircle
 10
538.2633869043243
 20
1019.035996254466
 30
0.0
 40
3.875378875279264
100
AcDbArc
 50
224.955926762744
 51
315.044073237256
  0
LINE
  5
1FA
330
2
100
AcDbEntity
  8
4
100
AcDbLine
 10
538.2633869043243
 20
1015.160617379186
 30
0.0
 11
554.7178695762286
 21
1015.160617379186
 31
0.0
  0
LINE
  5
1FB
330
2
100
AcDbEntity
  8
4
100
AcDbLine
 10
557.4602833548793
 20
1023.160617379186
 30
0.0
 11
535.5209731256737
 21
1023.160617379186
 31
0.0
  0
LINE
  5
1FC
330
2
100
AcDbEntity
  8
4
100
AcDbLine
 10
557.4602833548793
 20
1026.160617379186
 30
0.0
 11
535.5209731256737
 21
1026.160617379186
 31
0.0
  0
LINE
  5
1FD
330
2
100
AcDbEntity
  8
4
100
AcDbLine
 10
535.5209731256737
 20
1026.160617379186
 30
0.0
 11
535.5209731256737
 21
1016.297798289813
 31
0.0
  0
LINE
  5
1FE
330
2
100
AcDbEntity
  8
4
100
AcDbLine
 10
541.005800682975
 20
1016.297798289813
 30
0.0
 11
541.005800682975
 21
1023.160617379186
 31
0.0
  0
LINE
  5
1FF
330
2
100
AcDbEntity
  8
4
100
AcDbLine
 10
557.4602833548793
 20
1016.297798289813
 30
0.0
 11
557.4602833548793
 21
1026.160617379186
 31
0.0
  0
LINE
  5
200
330
2
100
AcDbEntity
  8
4
100
AcDbLine
 10
551.975455797578
 20
1016.297798289813
 30
0.0
 11
551.975455797578
 21
1023.160617379186
 31
0.0
  0
LINE
  5
201
330
2
100
AcDbEntity
  8
4
100
AcDbLine
 10
570.9906285282896
 20
1209.160617379188
 30
0.0
 11
570.9906285282891
 21
1167.329128195959
 31
0.0
  0
LINE
  5
202
330
2
100
AcDbEntity
  8
4
100
AcDbLine
 10
572.9906285282896
 20
1216.660617379186
 30
0.0
 11
590.9906285282896
 21
1216.660617379186
 31
0.0
  0
LINE
  5
207
330
2
100
AcDbEntity
  8
4
100
AcDbLine
 10
617.9906285282896
 20
1116.949514828259
 30
0.0
 11
617.9906285282896
 21
1059.160617379188
 31
0.0
  0
LINE
  5
208
330
2
100
AcDbEntity
  8
4
100
AcDbLine
 10
622.9906285282896
 20
1189.160617379186
 30
0.0
 11
622.9906285282896
 21
1059.160617379186
 31
0.0
  0
LINE
  5
209
330
2
100
AcDbEntity
  8
4
100
AcDbLine
 10
635.9906285282896
 20
1081.160617379186
 30
0.0
 11
635.99062852829
 21
1047.160617379186
 31
0.0
  0
ARC
  5
20A
330
2
100
AcDbEntity
  8
4
100
AcDbCircle
 10
629.2178698642424
 20
1019.035996254466
 30
0.0
 40
3.875378875279244
100
AcDbArc
 50
224.955926762744
 51
315.0440732372548
  0
ARC
  5
20B
330
2
100
AcDbEntity
  8
4
100
AcDbCircle
 10
620.99062852829
 20
1028.956361514364
 30
0.0
 40
13.7957441351769
100
AcDbArc
 50
246.5734024913737
 51
293.4265975086304
  0
ARC
  5
20C
330
2
100
AcDbEntity
  8
4
100
AcDbCircle
 10
612.7633871923381
 20
1019.035996254466
 30
0.0
 40
3.875378875279264
100
AcDbArc
 50
224.955926762744
 51
315.0440732372572
  0
LINE
  5
20E
330
2
100
AcDbEntity
  8
4
100
AcDbLine
 10
612.7633871923381
 20
1015.160617379186
 30
0.0
 11
629.2178698642424
 21
1015.160617379186
 31
0.0
  0
LINE
  5
20F
330
2
100
AcDbEntity
  8
4
100
AcDbLine
 10
631.960283642893
 20
1023.160617379186
 30
0.0
 11
610.0209734136874
 21
1023.160617379186
 31
0.0
  0
LINE
  5
210
330
2
100
AcDbEntity
  8
4
100
AcDbLine
 10
631.960283642893
 20
1026.160617379186
 30
0.0
 11
610.0209734136874
 21
1026.160617379186
 31
0.0
  0
LINE
  5
211
330
2
100
AcDbEntity
  8
4
100
AcDbLine
 10
608.9906285282905
 20
1026.160617379186
 30
0.0
 11
634.4906285282896
 21
1026.160617379186
 31
0.0
  0
LINE
  5
212
330
2
100
AcDbEntity
  8
4
100
AcDbLine
 10
617.9906285282896
 20
1059.160617379186
 30
0.0
 11
622.9906285282896
 21
1059.160617379186
 31
0.0
  0
LINE
  5
213
330
2
100
AcDbEntity
  8
4
100
AcDbLine
 10
610.0209734136874
 20
1026.160617379186
 30
0.0
 11
610.0209734136874
 21
1016.297798289813
 31
0.0
  0
LINE
  5
214
330
2
100
AcDbEntity
  8
4
100
AcDbLine
 10
615.5058009709887
 20
1016.297798289813
 30
0.0
 11
615.5058009709887
 21
1023.160617379186
 31
0.0
  0
ARC
  5
215
330
2
100
AcDbEntity
  8
4
100
AcDbCircle
 10
614.9906285282896
 20
1059.160617379187
 30
0.0
 40
3.0
100
AcDbArc
 50
270.0
 51
0.0
  0
LINE
  5
216
330
2
100
AcDbEntity
  8
4
100
AcDbLine
 10
631.960283642893
 20
1016.297798289813
 30
0.0
 11
631.960283642893
 21
1026.160617379186
 31
0.0
  0
LINE
  5
217
330
2
100
AcDbEntity
  8
4
100
AcDbLine
 10
626.4754560855918
 20
1016.297798289813
 30
0.0
 11
626.4754560855918
 21
1023.160617379186
 31
0.0
  0
LINE
  5
218
330
2
100
AcDbEntity
  8
4
100
AcDbLine
 10
634.4906285282896
 20
1026.160617379186
 30
0.0
 11
634.4906285282896
 21
1047.160617379185
 31
0.0
  0
LINE
  5
219
330
2
100
AcDbEntity
  8
4
100
AcDbLine
 10
634.49062852829
 20
1047.160617379186
 30
0.0
 11
634.49062852829
 21
1044.160617379186
 31
0.0
  0
LINE
  5
21A
330
2
100
AcDbEntity
  8
4
100
AcDbLine
 10
652.99062852829
 20
1143.160617379186
 30
0.0
 11
730.99062852829
 21
1143.160617379186
 31
0.0
  0
LINE
  5
21B
330
2
100
AcDbEntity
  8
4
100
AcDbLine
 10
652.99062852829
 20
1105.160617379186
 30
0.0
 11
730.99062852829
 21
1105.160617379186
 31
0.0
  0
LINE
  5
21C
330
2
100
AcDbEntity
  8
4
100
AcDbLine
 10
661.99062852829
 20
1129.160617379186
 30
0.0
 11
731.99062852829
 21
1129.160617379186
 31
0.0
  0
LINE
  5
21D
330
2
100
AcDbEntity
  8
4
100
AcDbLine
 10
661.99062852829
 20
1119.160617379186
 30
0.0
 11
731.99062852829
 21
1119.160617379186
 31
0.0
  0
LINE
  5
21E
330
2
100
AcDbEntity
  8
4
100
AcDbLine
 10
623.9906285282905
 20
1164.160617379186
 30
0.0
 11
623.9906285282905
 21
1084.160617379186
 31
0.0
  0
LINE
  5
21F
330
2
100
AcDbEntity
  8
4
100
AcDbLine
 10
617.9906285282896
 20
1189.160617379186
 30
0.0
 11
617.9906285282896
 21
1131.371719930116
 31
0.0
  0
LINE
  5
220
330
2
100
AcDbEntity
  8
4
100
AcDbLine
 10
623.99062852829
 20
1104.160617379186
 30
0.0
 11
651.99062852829
 21
1104.160617379186
 31
0.0
  0
LINE
  5
221
330
2
100
AcDbEntity
  8
4
100
AcDbLine
 10
623.99062852829
 20
1144.160617379186
 30
0.0
 11
651.99062852829
 21
1144.160617379186
 31
0.0
  0
LINE
  5
222
330
2
100
AcDbEntity
  8
4
100
AcDbLine
 10
622.9906285282896
 20
1084.160617379186
 30
0.0
 11
623.9906285282905
 21
1084.160617379186
 31
0.0
  0
LINE
  5
223
330
2
100
AcDbEntity
  8
4
100
AcDbLine
 10
622.9906285282896
 20
1084.160617379186
 30
0.0
 11
632.9906285282896
 21
1084.160617379186
 31
0.0
  0
LINE
  5
224
330
2
100
AcDbEntity
  8
L-CENTER
 48
5.0
100
AcDbLine
 10
605.9906285282896
 20
1148.622042379186
 30
0.0
 11
605.9906285282896
 21
1099.699192379186
 31
0.0
  0
ARC
  5
225
330
2
100
AcDbEntity
  8
4
100
AcDbCircle
 10
661.99062852829
 20
1124.160617379186
 30
0.0
 40
5.0
100
AcDbArc
 50
180.0
 51
270.0
  0
ARC
  5
226
330
2
100
AcDbEntity
  8
4
100
AcDbCircle
 10
661.99062852829
 20
1124.160617379186
 30
0.0
 40
5.0
100
AcDbArc
 50
90.0
 51
180.0
  0
LINE
  5
227
330
2
100
AcDbEntity
  8
4
100
AcDbLine
 10
651.99062852829
 20
1144.160617379186
 30
0.0
 11
651.99062852829
 21
1104.160617379186
 31
0.0
  0
ARC
  5
228
330
2
100
AcDbEntity
  8
4
100
AcDbCircle
 10
652.99062852829
 20
1104.160617379186
 30
0.0
 40
1.0
100
AcDbArc
 50
90.0
 51
180.0
  0
ARC
  5
229
330
2
100
AcDbEntity
  8
4
100
AcDbCircle
 10
652.99062852829
 20
1144.160617379186
 30
0.0
 40
1.0
100
AcDbArc
 50
180.0
 51
270.0
  0
LINE
  5
22A
330
2
100
AcDbEntity
  8
4
100
AcDbLine
 10
656.99062852829
 20
1124.160617379186
 30
0.0
 11
656.99062852829
 21
1124.160617379186
 31
0.0
  0
ARC
  5
22B
330
2
100
AcDbEntity
  8
4
100
AcDbCircle
 10
614.9906285282896
 20
1189.160617379186
 30
0.0
 40
3.0
100
AcDbArc
 50
0.0
 51
90.0
  0
LINE
  5
22C
330
2
100
AcDbEntity
  8
4
100
AcDbLine
 10
617.9906285282896
 20
1189.160617379186
 30
0.0
 11
622.9906285282896
 21
1189.160617379186
 31
0.0
  0
LINE
  5
22D
330
2
100
AcDbEntity
  8
4
100
AcDbLine
 10
622.9906285282896
 20
1164.160617379186
 30
0.0
 11
623.9906285282905
 21
1164.160617379186
 31
0.0
  0
CIRCLE
  5
22E
330
2
100
AcDbEntity
  8
4
100
AcDbCircle
 10
611.99062852829
 20
1214.160617379186
 30
0.0
 40
11.0
  0
LINE
  5
22F
330
2
100
AcDbEntity
  8
4
100
AcDbLine
 10
731.99062852829
 20
1142.160617379187
 30
0.0
 11
731.99062852829
 21
1106.160617379187
 31
0.0
  0
LINE
  5
230
330
2
100
AcDbEntity
  8
4
100
AcDbLine
 10
730.99062852829
 20
1119.160617379186
 30
0.0
 11
730.99062852829
 21
1105.160617379186
 31
0.0
  0
LINE
  5
231
330
2
100
AcDbEntity
  8
4
100
AcDbLine
 10
731.99062852829
 20
1106.160617379186
 30
0.0
 11
730.99062852829
 21
1105.160617379186
 31
0.0
  0
LINE
  5
232
330
2
100
AcDbEntity
  8
4
100
AcDbLine
 10
730.99062852829
 20
1143.160617379186
 30
0.0
 11
730.99062852829
 21
1129.160617379186
 31
0.0
  0
LINE
  5
233
330
2
100
AcDbEntity
  8
4
100
AcDbLine
 10
730.99062852829
 20
1143.160617379186
 30
0.0
 11
731.99062852829
 21
1142.160617379186
 31
0.0
  0
LINE
  5
234
330
2
100
AcDbEntity
  8
4
100
AcDbLine
 10
593.9906285282896
 20
1289.160617379188
 30
0.0
 11
641.9906285282896
 21
1289.160617379188
 31
0.0
  0
LINE
  5
235
330
2
100
AcDbEntity
  8
4
100
AcDbLine
 10
593.9906285282896
 20
1315.314463533032
 30
0.0
 11
603.349607607599
 21
1318.914070871228
 31
0.0
  0
LINE
  5
236
330
2
100
AcDbEntity
  8
4
100
AcDbLine
 10
593.9906285282896
 20
1513.006771225341
 30
0.0
 11
603.349607607599
 21
1509.407163887145
 31
0.0
  0
LINE
  5
237
330
2
100
AcDbEntity
  8
L-CENTER
 48
5.0
100
AcDbLine
 10
636.0795992237369
 20
1564.160617379186
 30
0.0
 11
587.9016578328432
 21
1564.160617379186
 31
0.0
  0
LINE
  5
238
330
2
100
AcDbEntity
  8
4
100
AcDbLine
 10
572.99062852829
 20
1614.160617379188
 30
0.0
 11
641.99062852829
 21
1614.160617379188
 31
0.0
  0
LINE
  5
239
330
2
100
AcDbEntity
  8
4
100
AcDbLine
 10
296.99062852829
 20
1609.160617379186
 30
0.0
 11
296.9906285282896
 21
1469.160617379188
 31
0.0
  0
LINE
  5
23A
330
2
100
AcDbEntity
  8
L-CENTER
 48
5.0
100
AcDbLine
 10
331.99062852829
 20
1588.249588074634
 30
0.0
 11
331.99062852829
 21
1540.071646683739
 31
0.0
  0
LINE
  5
23B
330
2
100
AcDbEntity
  8
L-CENTER
 48
5.0
100
AcDbLine
 10
437.4932906841155
 20
1524.160617379186
 30
0.0
 11
506.4879663724646
 21
1524.160617379186
 31
0.0
  0
LINE
  5
23C
330
2
100
AcDbEntity
  8
L-CENTER
 48
5.0
100
AcDbLine
 10
437.4932906841154
 20
1304.160617379186
 30
0.0
 11
506.4879663724641
 21
1304.160617379186
 31
0.0
  0
LINE
  5
23D
330
2
100
AcDbEntity
  8
4
100
AcDbLine
 10
311.99062852829
 20
1371.660617379186
 30
0.0
 11
311.99062852829
 21
1456.660617379186
 31
0.0
  0
LINE
  5
23E
330
2
100
AcDbEntity
  8
4
100
AcDbLine
 10
335.9906285282905
 20
1495.190962264584
 30
0.0
 11
335.9906285282905
 21
1333.13027249379
 31
0.0
  0
LINE
  5
23F
330
2
100
AcDbEntity
  8
4
100
AcDbLine
 10
334.9906285282905
 20
1469.160617379186
 30
0.0
 11
334.9906285282905
 21
1359.160617379186
 31
0.0
  0
LINE
  5
241
330
2
100
AcDbEntity
  8
4
100
AcDbLine
 10
344.9906285282905
 20
1333.13027249379
 30
0.0
 11
344.9906285282905
 21
1311.190962264584
 31
0.0
  0
LINE
  5
242
330
2
100
AcDbEntity
  8
4
100
AcDbLine
 10
341.9906285282905
 20
1333.13027249379
 30
0.0
 11
341.9906285282905
 21
1311.190962264584
 31
0.0
  0
ARC
  5
243
330
2
100
AcDbEntity
  8
4
100
AcDbCircle
 10
347.7863726634678
 20
1322.160617379187
 30
0.0
 40
13.7957441351769
100
AcDbArc
 50
156.5734024913727
 51
203.4265975086273
  0
LINE
  5
244
330
2
100
AcDbEntity
  8
4
100
AcDbLine
 10
333.9906285282905
 20
1313.933376043235
 30
0.0
 11
333.9906285282905
 21
1330.38785871514
 31
0.0
  0
LINE
  5
245
330
2
100
AcDbEntity
  8
4
100
AcDbLine
 10
301.99062852829
 20
1289.160617379186
 30
0.0
 11
344.9906285282905
 21
1289.160617379186
 31
0.0
  0
ARC
  5
246
330
2
100
AcDbEntity
  8
4
100
AcDbCircle
 10
301.99062852829
 20
1284.160617379186
 30
0.0
 40
5.0
100
AcDbArc
 50
90.0
 51
180.0
  0
LINE
  5
247
330
2
100
AcDbEntity
  8
4
100
AcDbLine
 10
335.1278094389172
 20
1235.645444936489
 30
0.0
 11
341.9906285282905
 21
1235.645444936489
 31
0.0
  0
LINE
  5
248
330
2
100
AcDbEntity
  8
4
100
AcDbLine
 10
335.1278094389172
 20
1241.13027249379
 30
0.0
 11
344.9906285282905
 21
1241.13027249379
 31
0.0
  0
ARC
  5
249
330
2
100
AcDbEntity
  8
4
100
AcDbCircle
 10
337.8660074035697
 20
1238.387858715139
 30
0.0
 40
3.875378875279244
100
AcDbArc
 50
134.9559267627559
 51
225.0440732372441
  0
LINE
  5
24A
330
2
100
AcDbEntity
  8
4
100
AcDbLine
 10
335.1278094389172
 20
1316.675789821886
 30
0.0
 11
341.9906285282905
 21
1316.675789821886
 31
0.0
  0
LINE
  5
24B
330
2
100
AcDbEntity
  8
4
100
AcDbLine
 10
344.9906285282905
 20
1311.190962264584
 30
0.0
 11
335.1278094389172
 21
1311.190962264584
 31
0.0
  0
ARC
  5
24C
330
2
100
AcDbEntity
  8
4
100
AcDbCircle
 10
337.8660074035697
 20
1313.933376043235
 30
0.0
 40
3.875378875279264
100
AcDbArc
 50
134.9559267627375
 51
225.0440732372483
  0
LINE
  5
24D
330
2
100
AcDbEntity
  8
4
100
AcDbLine
 10
334.9906285282909
 20
1371.660617379186
 30
0.0
 11
311.99062852829
 21
1371.660617379186
 31
0.0
  0
ARC
  5
24E
330
2
100
AcDbEntity
  8
4
100
AcDbCircle
 10
310.99062852829
 20
1371.660617379186
 30
0.0
 40
1.0
100
AcDbArc
 50
0.0
 51
90.0
  0
ARC
  5
24F
330
2
100
AcDbEntity
  8
4
100
AcDbCircle
 10
337.8660074035697
 20
1330.38785871514
 30
0.0
 40
3.875378875279244
100
AcDbArc
 50
134.9559267627517
 51
225.0440732372626
  0
LINE
  5
250
330
2
100
AcDbEntity
  8
4
100
AcDbLine
 10
335.1278094389172
 20
1333.13027249379
 30
0.0
 11
344.9906285282905
 21
1333.13027249379
 31
0.0
  0
LINE
  5
251
330
2
100
AcDbEntity
  8
4
100
AcDbLine
 10
335.1278094389172
 20
1327.645444936489
 30
0.0
 11
341.9906285282905
 21
1327.645444936489
 31
0.0
  0
LINE
  5
252
330
2
100
AcDbEntity
  8
4
100
AcDbLine
 10
334.9906285282905
 20
1359.160617379186
 30
0.0
 11
335.9906285282909
 21
1359.160617379186
 31
0.0
  0
LINE
  5
254
330
2
100
AcDbEntity
  8
4
100
AcDbLine
 10
341.9906285282905
 20
1495.190962264584
 30
0.0
 11
341.9906285282905
 21
1517.130272493789
 31
0.0
  0
LINE
  5
255
330
2
100
AcDbEntity
  8
4
100
AcDbLine
 10
344.9906285282905
 20
1495.190962264584
 30
0.0
 11
344.9906285282905
 21
1517.130272493789
 31
0.0
  0
ARC
  5
256
330
2
100
AcDbEntity
  8
4
100
AcDbCircle
 10
337.8660074035697
 20
1497.933376043234
 30
0.0
 40
3.875378875279244
100
AcDbArc
 50
134.9559267627375
 51
225.0440732372483
  0
LINE
  5
257
330
2
100
AcDbEntity
  8
4
100
AcDbLine
 10
334.9906285282909
 20
1456.660617379186
 30
0.0
 11
311.99062852829
 21
1456.660617379186
 31
0.0
  0
LINE
  5
258
330
2
100
AcDbEntity
  8
4
100
AcDbLine
 10
301.9906285282896
 20
1464.160617379188
 30
0.0
 11
334.9906285282905
 21
1464.160617379187
 31
0.0
  0
ARC
  5
259
330
2
100
AcDbEntity
  8
4
100
AcDbCircle
 10
301.9906285282896
 20
1469.160617379188
 30
0.0
 40
5.0
100
AcDbArc
 50
180.0
 51
270.0
  0
ARC
  5
25A
330
2
100
AcDbEntity
  8
4
100
AcDbCircle
 10
310.99062852829
 20
1456.660617379186
 30
0.0
 40
1.0
100
AcDbArc
 50
270.0
 51
0.0
  0
LINE
  5
25B
330
2
100
AcDbEntity
  8
4
100
AcDbLine
 10
335.1278094389172
 20
1495.190962264584
 30
0.0
 11
344.9906285282905
 21
1495.190962264584
 31
0.0
  0
LINE
  5
25C
330
2
100
AcDbEntity
  8
4
100
AcDbLine
 10
334.9906285282905
 20
1469.160617379186
 30
0.0
 11
335.9906285282909
 21
1469.160617379186
 31
0.0
  0
LINE
  5
25D
330
2
100
AcDbEntity
  8
L-CENTER
 48
5.0
100
AcDbLine
 10
307.9016578328432
 20
1564.160617379187
 30
0.0
 11
356.0795992237369
 21
1564.160617379186
 31
0.0
  0
CIRCLE
  5
25E
330
2
100
AcDbEntity
  8
4
100
AcDbCircle
 10
331.99062852829
 20
1564.160617379186
 30
0.0
 40
11.0
  0
LINE
  5
25F
330
2
100
AcDbEntity
  8
4
100
AcDbLine
 10
333.9906285282905
 20
1514.387858715138
 30
0.0
 11
333.9906285282905
 21
1497.933376043234
 31
0.0
  0
ARC
  5
260
330
2
100
AcDbEntity
  8
4
100
AcDbCircle
 10
347.7863726634678
 20
1506.160617379186
 30
0.0
 40
13.7957441351769
100
AcDbArc
 50
156.5734024913727
 51
203.4265975086273
  0
ARC
  5
261
330
2
100
AcDbEntity
  8
4
100
AcDbCircle
 10
337.8660074035697
 20
1514.387858715138
 30
0.0
 40
3.875378875279264
100
AcDbArc
 50
134.9559267627411
 51
225.0440732372483
  0
LINE
  5
262
330
2
100
AcDbEntity
  8
4
100
AcDbLine
 10
335.1278094389172
 20
1500.675789821885
 30
0.0
 11
341.9906285282905
 21
1500.675789821885
 31
0.0
  0
LINE
  5
263
330
2
100
AcDbEntity
  8
4
100
AcDbLine
 10
344.9906285282905
 20
1517.130272493789
 30
0.0
 11
335.1278094389172
 21
1517.130272493789
 31
0.0
  0
LINE
  5
264
330
2
100
AcDbEntity
  8
4
100
AcDbLine
 10
335.1278094389172
 20
1511.645444936489
 30
0.0
 11
341.9906285282905
 21
1511.645444936489
 31
0.0
  0
LWPOLYLINE
  5
265
330
2
100
AcDbEntity
  8
4
100
AcDbPolyline
 90
        6
 70
     1
 43
0.0
 10
471.99062852829
 20
1437.160617379186
 10
452.0720442412476
 20
1425.660617379186
 10
452.0720442412476
 20
1402.660617379186
 10
471.99062852829
 20
1391.160617379186
 10
491.909212815332
 20
1402.660617379186
 10
491.909212815332
 20
1425.660617379186
  0
CIRCLE
  5
266
330
2
100
AcDbEntity
  8
4
100
AcDbCircle
 10
471.99062852829
 20
1414.160617379186
 30
0.0
 40
23.0
  0
CIRCLE
  5
267
330
2
100
AcDbEntity
  8
4
100
AcDbCircle
 10
471.99062852829
 20
1414.160617379186
 30
0.0
 40
25.0
  0
ARC
  5
268
330
2
100
AcDbEntity
  8
4
100
AcDbCircle
 10
471.99062852829
 20
1304.160617379186
 30
0.0
 40
20.0
100
AcDbArc
 50
288.209956864283
 51
71.79004313571733
  0
LINE
  5
269
330
2
100
AcDbEntity
  8
4
100
AcDbLine
 10
478.24062852829
 20
1280.410617379186
 30
0.0
 11
478.24062852829
 21
1327.910617379186
 31
0.0
  0
LINE
  5
26A
330
2
100
AcDbEntity
  8
4
100
AcDbLine
 10
465.74062852829
 20
1280.410617379186
 30
0.0
 11
465.74062852829
 21
1327.910617379186
 31
0.0
  0
ARC
  5
26B
330
2
100
AcDbEntity
  8
4
100
AcDbCircle
 10
471.99062852829
 20
1304.160617379186
 30
0.0
 40
20.0
100
AcDbArc
 50
108.2099568642827
 51
251.7900431357167
  0
ARC
  5
26C
330
2
100
AcDbEntity
  8
4
100
AcDbCircle
 10
471.99062852829
 20
1304.160617379186
 30
0.0
 40
13.5
100
AcDbArc
 50
297.5784679781241
 51
62.42153202187714
  0
ARC
  5
26D
330
2
100
AcDbEntity
  8
4
100
AcDbCircle
 10
471.99062852829
 20
1304.160617379186
 30
0.0
 40
15.0
100
AcDbArc
 50
294.6243183521654
 51
65.37568164783693
  0
ARC
  5
26E
330
2
100
AcDbEntity
  8
4
100
AcDbCircle
 10
471.99062852829
 20
1280.410617379186
 30
0.0
 40
6.25
100
AcDbArc
 50
180.0
 51
0.0
  0
ARC
  5
26F
330
2
100
AcDbEntity
  8
4
100
AcDbCircle
 10
471.99062852829
 20
1304.160617379186
 30
0.0
 40
15.0
100
AcDbArc
 50
114.6243183521631
 51
245.3756816478342
  0
ARC
  5
270
330
2
100
AcDbEntity
  8
4
100
AcDbCircle
 10
471.99062852829
 20
1304.160617379186
 30
0.0
 40
13.5
100
AcDbArc
 50
117.5784679781229
 51
242.4215320218759
  0
ARC
  5
271
330
2
100
AcDbEntity
  8
4
100
AcDbCircle
 10
471.99062852829
 20
1327.910617379186
 30
0.0
 40
6.25
100
AcDbArc
 50
0.0
 51
180.0
  0
ARC
  5
272
330
2
100
AcDbEntity
  8
4
100
AcDbCircle
 10
471.99062852829
 20
1500.410617379186
 30
0.0
 40
6.25
100
AcDbArc
 50
180.0
 51
0.0
  0
ARC
  5
273
330
2
100
AcDbEntity
  8
4
100
AcDbCircle
 10
471.99062852829
 20
1524.160617379186
 30
0.0
 40
13.5
100
AcDbArc
 50
297.5784679781259
 51
62.42153202187799
  0
ARC
  5
274
330
2
100
AcDbEntity
  8
4
100
AcDbCircle
 10
471.99062852829
 20
1524.160617379186
 30
0.0
 40
15.0
100
AcDbArc
 50
294.6243183521673
 51
65.37568164783768
  0
ARC
  5
275
330
2
100
AcDbEntity
  8
4
100
AcDbCircle
 10
471.99062852829
 20
1524.160617379186
 30
0.0
 40
20.0
100
AcDbArc
 50
288.209956864283
 51
71.79004313571784
  0
ARC
  5
276
330
2
100
AcDbEntity
  8
4
100
AcDbCircle
 10
471.99062852829
 20
1524.160617379186
 30
0.0
 40
20.0
100
AcDbArc
 50
108.2099568642822
 51
251.7900431357167
  0
LINE
  5
277
330
2
100
AcDbEntity
  8
4
100
AcDbLine
 10
478.24062852829
 20
1500.410617379186
 30
0.0
 11
478.24062852829
 21
1547.910617379186
 31
0.0
  0
LINE
  5
278
330
2
100
AcDbEntity
  8
4
100
AcDbLine
 10
465.74062852829
 20
1500.410617379186
 30
0.0
 11
465.74062852829
 21
1547.910617379186
 31
0.0
  0
ARC
  5
279
330
2
100
AcDbEntity
  8
4
100
AcDbCircle
 10
471.99062852829
 20
1524.160617379186
 30
0.0
 40
15.0
100
AcDbArc
 50
114.6243183521615
 51
245.3756816478369
  0
ARC
  5
27A
330
2
100
AcDbEntity
  8
4
100
AcDbCircle
 10
471.99062852829
 20
1524.160617379186
 30
0.0
 40
13.5
100
AcDbArc
 50
117.578467978119
 51
242.4215320218763
  0
ARC
  5
27B
330
2
100
AcDbEntity
  8
4
100
AcDbCircle
 10
471.99062852829
 20
1547.910617379186
 30
0.0
 40
6.25
100
AcDbArc
 50
0.0
 51
180.0
  0
ARC
  5
27C
330
2
100
AcDbEntity
  8
4
100
AcDbCircle
 10
443.9678698642424
 20
1644.585238503908
 30
0.0
 40
3.875378875279244
100
AcDbArc
 50
44.955926762744
 51
135.044073237256
  0
LINE
  5
27D
330
2
100
AcDbEntity
  8
4
100
AcDbLine
 10
446.710283642893
 20
1637.460617379187
 30
0.0
 11
424.7709734136874
 21
1637.460617379187
 31
0.0
  0
LINE
  5
27E
330
2
100
AcDbEntity
  8
4
100
AcDbLine
 10
446.710283642893
 20
1640.460617379187
 30
0.0
 11
424.7709734136874
 21
1640.460617379187
 31
0.0
  0
LINE
  5
27F
330
2
100
AcDbEntity
  8
4
100
AcDbLine
 10
386.99062852829
 20
1619.460617379186
 30
0.0
 11
556.99062852829
 21
1619.460617379187
 31
0.0
  0
LINE
  5
280
330
2
100
AcDbEntity
  8
4
100
AcDbLine
 10
388.99062852829
 20
1637.460617379187
 30
0.0
 11
554.99062852829
 21
1637.460617379187
 31
0.0
  0
LINE
  5
281
330
2
100
AcDbEntity
  8
4
100
AcDbLine
 10
373.9906285282905
 20
1619.160617379186
 30
0.0
 11
569.99062852829
 21
1619.160617379186
 31
0.0
  0
LINE
  5
283
330
2
100
AcDbEntity
  8
4
100
AcDbLine
 10
364.9906285282905
 20
1611.660617379186
 30
0.0
 11
370.9906285282905
 21
1611.660617379186
 31
0.0
  0
LINE
  5
284
330
2
100
AcDbEntity
  8
4
100
AcDbLine
 10
301.99062852829
 20
1614.160617379186
 30
0.0
 11
370.9906285282905
 21
1614.160617379186
 31
0.0
  0
ARC
  5
285
330
2
100
AcDbEntity
  8
4
100
AcDbCircle
 10
301.99062852829
 20
1609.160617379186
 30
0.0
 40
5.0
100
AcDbArc
 50
90.0
 51
180.0
  0
LINE
  5
286
330
2
100
AcDbEntity
  8
4
100
AcDbLine
 10
347.9906285282905
 20
1611.660617379186
 30
0.0
 11
364.6906285282903
 21
1611.660617379186
 31
0.0
  0
LINE
  5
287
330
2
100
AcDbEntity
  8
4
100
AcDbLine
 10
335.1278094389172
 20
1603.645444936488
 30
0.0
 11
341.9906285282905
 21
1603.645444936488
 31
0.0
  0
LINE
  5
288
330
2
100
AcDbEntity
  8
4
100
AcDbLine
 10
344.9906285282905
 20
1609.13027249379
 30
0.0
 11
335.1278094389172
 21
1609.13027249379
 31
0.0
  0
LINE
  5
289
330
2
100
AcDbEntity
  8
4
100
AcDbLine
 10
335.1278094389172
 20
1592.675789821885
 30
0.0
 11
341.9906285282905
 21
1592.675789821885
 31
0.0
  0
LINE
  5
28A
330
2
100
AcDbEntity
  8
4
100
AcDbLine
 10
335.1278094389172
 20
1587.190962264584
 30
0.0
 11
344.9906285282905
 21
1587.190962264584
 31
0.0
  0
ARC
  5
28B
330
2
100
AcDbEntity
  8
4
100
AcDbCircle
 10
337.8660074035697
 20
1606.387858715138
 30
0.0
 40
3.875378875279264
100
AcDbArc
 50
134.9559267627559
 51
225.0440732372441
  0
ARC
  5
28C
330
2
100
AcDbEntity
  8
4
100
AcDbCircle
 10
347.7863726634678
 20
1598.160617379187
 30
0.0
 40
13.7957441351769
100
AcDbArc
 50
156.5734024913727
 51
203.4265975086273
  0
LINE
  5
28D
330
2
100
AcDbEntity
  8
4
100
AcDbLine
 10
333.9906285282905
 20
1606.387858715138
 30
0.0
 11
333.9906285282905
 21
1589.933376043235
 31
0.0
  0
ARC
  5
28E
330
2
100
AcDbEntity
  8
4
100
AcDbCircle
 10
337.8660074035697
 20
1589.933376043235
 30
0.0
 40
3.875378875279244
100
AcDbArc
 50
134.9559267627559
 51
225.0440732372548
  0
LINE
  5
28F
330
2
100
AcDbEntity
  8
4
100
AcDbLine
 10
344.9906285282905
 20
1587.190962264584
 30
0.0
 11
344.9906285282905
 21
1609.13027249379
 31
0.0
  0
LINE
  5
290
330
2
100
AcDbEntity
  8
4
100
AcDbLine
 10
341.9906285282905
 20
1587.190962264584
 30
0.0
 11
341.9906285282905
 21
1609.13027249379
 31
0.0
  0
ARC
  5
291
330
2
100
AcDbEntity
  8
4
100
AcDbCircle
 10
347.9906285282905
 20
1608.660617379186
 30
0.0
 40
3.0
100
AcDbArc
 50
90.0
 51
180.0
  0
ARC
  5
292
330
2
100
AcDbEntity
  8
4
100
AcDbCircle
 10
407.7178698642424
 20
1644.585238503908
 30
0.0
 40
3.875378875279244
100
AcDbArc
 50
44.955926762744
 51
135.044073237256
  0
LINE
  5
293
330
2
100
AcDbEntity
  8
4
100
AcDbLine
 10
391.2633871923381
 20
1648.460617379187
 30
0.0
 11
407.7178698642424
 21
1648.460617379187
 31
0.0
  0
LINE
  5
294
330
2
100
AcDbEntity
  8
4
100
AcDbLine
 10
410.460283642893
 20
1640.460617379187
 30
0.0
 11
388.5209734136874
 21
1640.460617379187
 31
0.0
  0
LINE
  5
295
330
2
100
AcDbEntity
  8
4
100
AcDbLine
 10
410.460283642893
 20
1637.460617379187
 30
0.0
 11
388.5209734136874
 21
1637.460617379187
 31
0.0
  0
LINE
  5
297
330
2
100
AcDbEntity
  8
4
100
AcDbLine
 10
386.99062852829
 20
1635.460617379187
 30
0.0
 11
386.99062852829
 21
1619.160617379186
 31
0.0
  0
ARC
  5
298
330
2
100
AcDbEntity
  8
4
100
AcDbCircle
 10
388.99062852829
 20
1635.460617379187
 30
0.0
 40
2.0
100
AcDbArc
 50
90.0
 51
180.0
  0
ARC
  5
299
330
2
100
AcDbEntity
  8
4
100
AcDbCircle
 10
391.2633871923381
 20
1644.585238503908
 30
0.0
 40
3.875378875279264
100
AcDbArc
 50
44.955926762744
 51
135.044073237256
  0
ARC
  5
29A
330
2
100
AcDbEntity
  8
4
100
AcDbCircle
 10
399.49062852829
 20
1634.66487324401
 30
0.0
 40
13.7957441351769
100
AcDbArc
 50
66.57340249137434
 51
113.4265975086294
  0
LINE
  5
29B
330
2
100
AcDbEntity
  8
4
100
AcDbLine
 10
404.9754560855918
 20
1647.32343646856
 30
0.0
 11
404.9754560855918
 21
1640.460617379187
 31
0.0
  0
LINE
  5
29C
330
2
100
AcDbEntity
  8
4
100
AcDbLine
 10
388.5209734136874
 20
1637.460617379187
 30
0.0
 11
388.5209734136874
 21
1647.32343646856
 31
0.0
  0
LINE
  5
29D
330
2
100
AcDbEntity
  8
4
100
AcDbLine
 10
394.0058009709887
 20
1647.32343646856
 30
0.0
 11
394.0058009709887
 21
1640.460617379187
 31
0.0
  0
ARC
  5
29F
330
2
100
AcDbEntity
  8
4
100
AcDbCircle
 10
427.5133871923381
 20
1644.585238503908
 30
0.0
 40
3.875378875279264
100
AcDbArc
 50
44.955926762744
 51
135.044073237256
  0
LINE
  5
2A0
330
2
100
AcDbEntity
  8
4
100
AcDbLine
 10
410.460283642893
 20
1647.32343646856
 30
0.0
 11
410.460283642893
 21
1637.460617379187
 31
0.0
  0
LINE
  5
2A1
330
2
100
AcDbEntity
  8
4
100
AcDbLine
 10
424.7709734136874
 20
1637.460617379187
 30
0.0
 11
424.7709734136874
 21
1647.32343646856
 31
0.0
  0
ARC
  5
2A2
330
2
100
AcDbEntity
  8
4
100
AcDbCircle
 10
435.74062852829
 20
1634.66487324401
 30
0.0
 40
13.7957441351769
100
AcDbArc
 50
66.57340249137455
 51
113.4265975086292
  0
LINE
  5
2A3
330
2
100
AcDbEntity
  8
4
100
AcDbLine
 10
427.5133871923381
 20
1648.460617379187
 30
0.0
 11
443.9678698642424
 21
1648.460617379187
 31
0.0
  0
LINE
  5
2A4
330
2
100
AcDbEntity
  8
4
100
AcDbLine
 10
430.2558009709887
 20
1647.32343646856
 30
0.0
 11
430.2558009709887
 21
1640.460617379187
 31
0.0
  0
LINE
  5
2A5
330
2
100
AcDbEntity
  8
4
100
AcDbLine
 10
441.2254560855918
 20
1647.32343646856
 30
0.0
 11
441.2254560855918
 21
1640.460617379187
 31
0.0
  0
LINE
  5
2A6
330
2
100
AcDbEntity
  8
4
100
AcDbLine
 10
446.710283642893
 20
1647.32343646856
 30
0.0
 11
446.710283642893
 21
1637.460617379187
 31
0.0
  0
LINE
  5
2A8
330
2
100
AcDbEntity
  8
4
100
AcDbLine
 10
516.467869864242
 20
1648.460617379187
 30
0.0
 11
500.0133871923376
 21
1648.460617379187
 31
0.0
  0
ARC
  5
2A9
330
2
100
AcDbEntity
  8
4
100
AcDbCircle
 10
508.24062852829
 20
1634.66487324401
 30
0.0
 40
13.7957441351769
100
AcDbArc
 50
66.57340249137077
 51
113.4265975086254
  0
LINE
  5
2AA
330
2
100
AcDbEntity
  8
4
100
AcDbLine
 10
497.270973413687
 20
1640.460617379187
 30
0.0
 11
519.2102836428926
 21
1640.460617379187
 31
0.0
  0
LINE
  5
2AB
330
2
100
AcDbEntity
  8
4
100
AcDbLine
 10
497.270973413687
 20
1637.460617379187
 30
0.0
 11
519.2102836428926
 21
1637.460617379187
 31
0.0
  0
ARC
  5
2AC
330
2
100
AcDbEntity
  8
4
100
AcDbCircle
 10
500.0133871923376
 20
1644.585238503908
 30
0.0
 40
3.875378875279244
100
AcDbArc
 50
44.955926762744
 51
135.044073237256
  0
LINE
  5
2AD
330
2
100
AcDbEntity
  8
4
100
AcDbLine
 10
497.270973413687
 20
1647.32343646856
 30
0.0
 11
497.270973413687
 21
1637.460617379187
 31
0.0
  0
LINE
  5
2AE
330
2
100
AcDbEntity
  8
4
100
AcDbLine
 10
502.7558009709883
 20
1647.32343646856
 30
0.0
 11
502.7558009709883
 21
1640.460617379187
 31
0.0
  0
ARC
  5
2AF
330
2
100
AcDbEntity
  8
4
100
AcDbCircle
 10
516.467869864242
 20
1644.585238503908
 30
0.0
 40
3.875378875279264
100
AcDbArc
 50
44.95592676274281
 51
135.044073237256
  0
LINE
  5
2B0
330
2
100
AcDbEntity
  8
4
100
AcDbLine
 10
519.2102836428926
 20
1637.460617379187
 30
0.0
 11
519.2102836428926
 21
1647.32343646856
 31
0.0
  0
LINE
  5
2B1
330
2
100
AcDbEntity
  8
4
100
AcDbLine
 10
513.7254560855913
 20
1647.32343646856
 30
0.0
 11
513.7254560855913
 21
1640.460617379187
 31
0.0
  0
LINE
  5
2B3
330
2
100
AcDbEntity
  8
4
100
AcDbLine
 10
556.99062852829
 20
1635.460617379187
 30
0.0
 11
556.99062852829
 21
1619.160617379186
 31
0.0
  0
ARC
  5
2B4
330
2
100
AcDbEntity
  8
4
100
AcDbCircle
 10
544.49062852829
 20
1634.66487324401
 30
0.0
 40
13.7957441351769
100
AcDbArc
 50
66.57340249137077
 51
113.4265975086254
  0
LINE
  5
2B5
330
2
100
AcDbEntity
  8
4
100
AcDbLine
 10
552.717869864242
 20
1648.460617379187
 30
0.0
 11
536.2633871923376
 21
1648.460617379187
 31
0.0
  0
LINE
  5
2B6
330
2
100
AcDbEntity
  8
4
100
AcDbLine
 10
533.520973413687
 20
1637.460617379187
 30
0.0
 11
555.4602836428926
 21
1637.460617379187
 31
0.0
  0
LINE
  5
2B7
330
2
100
AcDbEntity
  8
4
100
AcDbLine
 10
533.520973413687
 20
1640.460617379187
 30
0.0
 11
555.4602836428926
 21
1640.460617379187
 31
0.0
  0
ARC
  5
2B8
330
2
100
AcDbEntity
  8
4
100
AcDbCircle
 10
536.2633871923376
 20
1644.585238503908
 30
0.0
 40
3.875378875279244
100
AcDbArc
 50
44.955926762744
 51
135.044073237256
  0
LINE
  5
2B9
330
2
100
AcDbEntity
  8
4
100
AcDbLine
 10
539.0058009709883
 20
1647.32343646856
 30
0.0
 11
539.0058009709883
 21
1640.460617379187
 31
0.0
  0
LINE
  5
2BA
330
2
100
AcDbEntity
  8
4
100
AcDbLine
 10
533.520973413687
 20
1647.32343646856
 30
0.0
 11
533.520973413687
 21
1637.460617379187
 31
0.0
  0
ARC
  5
2BB
330
2
100
AcDbEntity
  8
4
100
AcDbCircle
 10
552.717869864242
 20
1644.585238503908
 30
0.0
 40
3.875378875279264
100
AcDbArc
 50
44.95592676274281
 51
135.044073237256
  0
LINE
  5
2BC
330
2
100
AcDbEntity
  8
4
100
AcDbLine
 10
549.9754560855913
 20
1647.32343646856
 30
0.0
 11
549.9754560855913
 21
1640.460617379187
 31
0.0
  0
LINE
  5
2BD
330
2
100
AcDbEntity
  8
4
100
AcDbLine
 10
555.4602836428926
 20
1637.460617379187
 30
0.0
 11
555.4602836428926
 21
1647.32343646856
 31
0.0
  0
ARC
  5
2BE
330
2
100
AcDbEntity
  8
4
100
AcDbCircle
 10
554.99062852829
 20
1635.460617379187
 30
0.0
 40
2.0
100
AcDbArc
 50
0.0
 51
90.0
  0
LINE
  5
2BF
330
2
100
AcDbEntity
  8
4
100
AcDbLine
 10
572.99062852829
 20
1611.660617379188
 30
0.0
 11
590.99062852829
 21
1611.660617379188
 31
0.0
  0
LINE
  5
2C0
330
2
100
AcDbEntity
  8
4
100
AcDbLine
 10
646.99062852829
 20
1609.160617379188
 30
0.0
 11
646.99062852829
 21
1469.160617379186
 31
0.0
  0
LINE
  5
2C1
330
2
100
AcDbEntity
  8
L-CENTER
 48
5.0
100
AcDbLine
 10
611.99062852829
 20
1588.249588074633
 30
0.0
 11
611.99062852829
 21
1540.071646683739
 31
0.0
  0
LINE
  5
2C2
330
2
100
AcDbEntity
  8
4
100
AcDbLine
 10
603.99062852829
 20
1508.473818280942
 30
0.0
 11
603.9906285282896
 21
1319.847416477431
 31
0.0
  0
ARC
  5
2C3
330
2
100
AcDbEntity
  8
4
100
AcDbCircle
 10
602.99062852829
 20
1319.847416477431
 30
0.0
 40
1.0
100
AcDbArc
 50
291.0375110254237
 51
0.0
  0
ARC
  5
2C4
330
2
100
AcDbEntity
  8
4
100
AcDbCircle
 10
641.99062852829
 20
1284.160617379187
 30
0.0
 40
5.0
100
AcDbArc
 50
0.0
 51
90.0
  0
LINE
  5
2C5
330
2
100
AcDbEntity
  8
4
100
AcDbLine
 10
604.9906285282902
 20
1464.160617379186
 30
0.0
 11
641.99062852829
 21
1464.160617379186
 31
0.0
  0
ARC
  5
2C6
330
2
100
AcDbEntity
  8
4
100
AcDbCircle
 10
641.99062852829
 20
1469.160617379186
 30
0.0
 40
5.0
100
AcDbArc
 50
270.0
 51
0.0
  0
ARC
  5
2C7
330
2
100
AcDbEntity
  8
4
100
AcDbCircle
 10
602.99062852829
 20
1508.473818280942
 30
0.0
 40
1.0
100
AcDbArc
 50
0.0
 51
68.96248897457632
  0
CIRCLE
  5
2C8
330
2
100
AcDbEntity
  8
4
100
AcDbCircle
 10
611.99062852829
 20
1564.160617379186
 30
0.0
 40
11.0
  0
ARC
  5
2C9
330
2
100
AcDbEntity
  8
4
100
AcDbCircle
 10
641.99062852829
 20
1609.160617379188
 30
0.0
 40
5.0
100
AcDbArc
 50
0.0
 51
90.0
  0
ARC
  5
2CE
330
2
100
AcDbEntity
  8
4
100
AcDbCircle
 10
2208.403826901341
 20
422.4769809729593
 30
0.0
 40
1000.0
100
AcDbArc
 50
169.4005390000001
 51
190.5994609999998
  0
ARC
  5
2CF
330
2
100
AcDbEntity
  8
4
100
AcDbCircle
 10
618.4038269013408
 20
422.4769809729593
 30
0.0
 40
1000.0
100
AcDbArc
 50
349.400539
 51
10.59946099999995
  0
CIRCLE
  5
2D0
330
2
100
AcDbEntity
  8
4
100
AcDbCircle
 10
1413.403826901341
 20
422.4769809729593
 30
0.0
 40
197.5
  0
CIRCLE
  5
2D1
330
2
100
AcDbEntity
  8
4
100
AcDbCircle
 10
1413.403826901341
 20
422.4769809729593
 30
0.0
 40
165.0
  0
ARC
  5
2D2
330
2
100
AcDbEntity
  8
4
100
AcDbCircle
 10
913.4038269013408
 20
422.4769809729593
 30
0.0
 40
600.0
100
AcDbArc
 50
351.6709509999999
 51
8.329049000000015
  0
ARC
  5
2D3
330
2
100
AcDbEntity
  8
4
100
AcDbCircle
 10
913.4038269013408
 20
422.4769809729593
 30
0.0
 40
595.0
100
AcDbArc
 50
352.035204
 51
7.964795999999989
  0
ARC
  5
2D4
330
2
100
AcDbEntity
  8
4
100
AcDbCircle
 10
1913.403826901341
 20
422.4769809729593
 30
0.0
 40
600.0
100
AcDbArc
 50
171.670951
 51
188.329049
  0
ARC
  5
2D5
330
2
100
AcDbEntity
  8
4
100
AcDbCircle
 10
1913.403826901341
 20
422.4769809729593
 30
0.0
 40
595.0
100
AcDbArc
 50
172.035204
 51
187.964796
  0
LINE
  5
2D6
330
2
100
AcDbEntity
  8
L-CENTER
 48
5.0
100
AcDbLine
 10
1413.403826901341
 20
651.5197921114727
 30
0.0
 11
1413.403826901341
 21
45.0146009683948
 31
0.0
  0
LINE
  5
2D9
330
2
100
AcDbEntity
  8
L-CENTER
 48
5.0
100
AcDbLine
 10
1194.339281901341
 20
422.4769809729593
 30
0.0
 11
1632.468371901341
 21
422.4769809729593
 31
0.0
  0
LINE
  5
2DA
330
2
100
AcDbEntity
  8
4
100
AcDbLine
 10
1463.403826901341
 20
137.4769809729593
 30
0.0
 11
1477.40382690134
 21
137.4769809729593
 31
0.0
  0
LINE
  5
2DB
330
2
100
AcDbEntity
  8
4
100
AcDbLine
 10
1466.40382690134
 20
82.47698097295927
 30
0.0
 11
1610.403826901341
 21
82.47698097295927
 31
0.0
  0
LINE
  5
2DC
330
2
100
AcDbEntity
  8
4
100
AcDbLine
 10
1463.403826901341
 20
42.47698097295927
 30
0.0
 11
1613.403826901341
 21
42.47698097295927
 31
0.0
  0
ARC
  5
2DD
330
2
100
AcDbEntity
  8
4
100
AcDbCircle
 10
1413.403826901341
 20
1217.476980972959
 30
0.0
 40
1000.0
100
AcDbArc
 50
259.400539
 51
280.599461
  0
ARC
  5
2DE
330
2
100
AcDbEntity
  8
4
100
AcDbCircle
 10
1413.403826901341
 20
922.4769809729592
 30
0.0
 40
600.0
100
AcDbArc
 50
261.670951
 51
278.3290490000001
  0
ARC
  5
2DF
330
2
100
AcDbEntity
  8
4
100
AcDbCircle
 10
1413.403826901341
 20
922.4769809729592
 30
0.0
 40
595.0
100
AcDbArc
 50
262.035204
 51
277.964796
  0
LINE
  5
2E2
330
2
100
AcDbEntity
  8
L-CENTER
 48
5.0
100
AcDbLine
 10
1000.728338580432
 20
212.4769809729593
 30
0.0
 11
1651.304666781445
 21
212.4769809729593
 31
0.0
  0
LINE
  5
3BC
330
2
100
AcDbEntity
  8
L-CENTER
 48
5.0
100
AcDbLine
 10
1045.396351901341
 20
360.4769809729588
 30
0.0
 11
1201.41130190134
 21
360.4769809729588
 31
0.0
  0
ARC
  5
3BD
330
2
100
AcDbEntity
  8
4
100
AcDbCircle
 10
1123.403826901341
 20
-171.5230190270416
 30
0.0
 40
600.0
100
AcDbArc
 50
84.45569999999998
 51
95.78466800000001
  0
LINE
  5
3BF
330
2
100
AcDbEntity
  8
4
100
AcDbLine
 10
1141.40382690134
 20
82.47698097295927
 30
0.0
 11
1285.403826901341
 21
82.47698097295927
 31
0.0
  0
ARC
  5
3C0
330
2
100
AcDbEntity
  8
4
100
AcDbCircle
 10
1123.403826901341
 20
892.4769809729592
 30
0.0
 40
600.0
100
AcDbArc
 50
264.2153319999999
 51
275.784668
  0
LINE
  5
3C1
330
2
100
AcDbEntity
  8
4
100
AcDbLine
 10
1138.403826901341
 20
42.47698097295927
 30
0.0
 11
1288.403826901341
 21
42.47698097295927
 31
0.0
  0
CIRCLE
  5
3C2
330
2
100
AcDbEntity
  8
4
100
AcDbCircle
 10
1123.403826901341
 20
360.4769809729588
 30
0.0
 40
65.0
  0
CIRCLE
  5
3C3
330
2
100
AcDbEntity
  8
4
100
AcDbCircle
 10
1123.403826901341
 20
360.4769809729588
 30
0.0
 40
40.0
  0
LINE
  5
3C4
330
2
100
AcDbEntity
  8
4
100
AcDbLine
 10
1025.403826901341
 20
112.4769809729593
 30
0.0
 11
1017.40382690134
 21
192.4769809729593
 31
0.0
  0
LINE
  5
3C5
330
2
100
AcDbEntity
  8
4
100
AcDbLine
 10
1083.403826901341
 20
293.8118009729588
 30
0.0
 11
1083.403826901341
 21
51.47698097295836
 31
0.0
  0
LINE
  5
3C6
330
2
100
AcDbEntity
  8
4
100
AcDbLine
 10
1043.403826901341
 20
374.9769809729593
 30
0.0
 11
1043.403826901341
 21
49.97698097295927
 31
0.0
  0
LINE
  5
3C7
330
2
100
AcDbEntity
  8
L-CENTER
 48
5.0
100
AcDbLine
 10
1123.403826901341
 20
463.1439476116863
 30
0.0
 11
1123.403826901341
 21
282.4695059729594
 31
0.0
  0
LINE
  5
3C9
330
2
100
AcDbEntity
  8
4
100
AcDbLine
 10
1046.40382690134
 20
376.4769809729602
 30
0.0
 11
1046.40382690134
 21
48.47698097295836
 31
0.0
  0
ARC
  5
3D2
330
2
100
AcDbEntity
  8
4
100
AcDbCircle
 10
1093.403826901341
 20
52.47698097295927
 30
0.0
 40
10.0
100
AcDbArc
 50
90.0
 51
180.0
  0
LINE
  5
3D3
330
2
100
AcDbEntity
  8
4
100
AcDbLine
 10
1046.40382690134
 20
48.47698097295836
 30
0.0
 11
1080.403826901341
 21
48.47698097295836
 31
0.0
  0
LINE
  5
3D5
330
2
100
AcDbEntity
  8
4
100
AcDbLine
 10
1027.403826901341
 20
49.97698097295927
 30
0.0
 11
1046.40382690134
 21
49.97698097295927
 31
0.0
  0
LINE
  5
3D6
330
2
100
AcDbEntity
  8
4
100
AcDbLine
 10
1025.403826901341
 20
71.43919597295837
 30
0.0
 11
1025.403826901341
 21
95.43919597295928
 31
0.0
  0
LINE
  5
3D7
330
2
100
AcDbEntity
  8
4
100
AcDbLine
 10
1014.403826901341
 20
74.43919597296019
 30
0.0
 11
1014.403826901341
 21
92.43919597295974
 31
0.0
  0
LINE
  5
3D8
330
2
100
AcDbEntity
  8
4
100
AcDbLine
 10
1022.40382690134
 20
71.43919597295837
 30
0.0
 11
1022.40382690134
 21
95.43919597295928
 31
0.0
  0
ARC
  5
3D9
330
2
100
AcDbEntity
  8
4
100
AcDbCircle
 10
1032.40382690134
 20
83.43919597295883
 30
0.0
 40
18.0
100
AcDbArc
 50
160.5287790000007
 51
199.4712209999993
  0
LINE
  5
3DA
330
2
100
AcDbEntity
  8
4
100
AcDbLine
 10
1016.13587690134
 20
71.43919597295837
 30
0.0
 11
1025.403826901341
 21
71.43919597295837
 31
0.0
  0
LINE
  5
3DB
330
2
100
AcDbEntity
  8
4
100
AcDbLine
 10
1015.43326190134
 20
77.43919597295974
 30
0.0
 11
1022.40382690134
 21
77.43919597295974
 31
0.0
  0
LINE
  5
3DC
330
2
100
AcDbEntity
  8
4
100
AcDbLine
 10
1014.403826901341
 20
74.43919597296019
 30
0.0
 11
1016.13587690134
 21
71.43919597295837
 31
0.0
  0
ARC
  5
3DD
330
2
100
AcDbEntity
  8
4
100
AcDbCircle
 10
1018.987826901341
 20
74.43919597296019
 30
0.0
 40
4.584
100
AcDbArc
 50
139.1220210000001
 51
180.0
  0
LINE
  5
3DE
330
2
100
AcDbEntity
  8
4
100
AcDbLine
 10
1025.403826901341
 20
372.9769809729593
 30
0.0
 11
1025.403826901341
 21
51.97698097295927
 31
0.0
  0
LINE
  5
3DF
330
2
100
AcDbEntity
  8
4
100
AcDbLine
 10
1016.13587690134
 20
95.43919597295928
 30
0.0
 11
1025.403826901341
 21
95.43919597295928
 31
0.0
  0
LINE
  5
3E0
330
2
100
AcDbEntity
  8
4
100
AcDbLine
 10
1015.43326190134
 20
89.43919597296019
 30
0.0
 11
1022.40382690134
 21
89.43919597296019
 31
0.0
  0
ARC
  5
3E1
330
2
100
AcDbEntity
  8
4
100
AcDbCircle
 10
1018.987826901341
 20
92.43919597295974
 30
0.0
 40
4.584
100
AcDbArc
 50
180.0
 51
220.8779789999999
  0
LINE
  5
3E2
330
2
100
AcDbEntity
  8
4
100
AcDbLine
 10
1014.403826901341
 20
92.43919597295974
 30
0.0
 11
1016.13587690134
 21
95.43919597295928
 31
0.0
  0
LINE
  5
3E3
330
2
100
AcDbEntity
  8
4
100
AcDbLine
 10
1138.403826901341
 20
79.47698097295972
 30
0.0
 11
1138.403826901341
 21
42.47698097295927
 31
0.0
  0
LINE
  5
3E4
330
2
100
AcDbEntity
  8
4
100
AcDbLine
 10
1093.403826901341
 20
62.47698097295927
 30
0.0
 11
1128.403826901341
 21
62.47698097295927
 31
0.0
  0
ARC
  5
3E5
330
2
100
AcDbEntity
  8
4
100
AcDbCircle
 10
1141.40382690134
 20
79.47698097295972
 30
0.0
 40
3.0
100
AcDbArc
 50
90.0
 51
180.0
  0
ARC
  5
3E6
330
2
100
AcDbEntity
  8
4
100
AcDbCircle
 10
1128.403826901341
 20
52.47698097295927
 30
0.0
 40
10.0
100
AcDbArc
 50
0.0
 51
90.0
  0
LINE
  5
3F4
330
2
100
AcDbEntity
  8
4
100
AcDbLine
 10
1025.403826901341
 20
312.4769809729593
 30
0.0
 11
1017.40382690134
 21
232.4769809729593
 31
0.0
  0
ARC
  5
3F5
330
2
100
AcDbEntity
  8
4
100
AcDbCircle
 10
1655.403826901341
 20
360.4769809729588
 30
0.0
 40
600.0
100
AcDbArc
 50
174.215332
 51
185.784668
  0
LINE
  5
3F6
330
2
100
AcDbEntity
  8
4
100
AcDbLine
 10
1011.40382690134
 20
194.4769809729597
 30
0.0
 11
1011.40382690134
 21
230.4769809729588
 31
0.0
  0
ARC
  5
3F7
330
2
100
AcDbEntity
  8
4
100
AcDbCircle
 10
1206.40382690134
 20
212.4769809729593
 30
0.0
 40
200.0
100
AcDbArc
 50
174.8363929999999
 51
185.1636070000001
  0
LINE
  5
3F8
330
2
100
AcDbEntity
  8
4
100
AcDbLine
 10
1025.403826901341
 20
224.4769809729597
 30
0.0
 11
1025.403826901341
 21
200.4769809729588
 31
0.0
  0
LINE
  5
3F9
330
2
100
AcDbEntity
  8
4
100
AcDbLine
 10
1014.403826901341
 20
221.4769809729602
 30
0.0
 11
1014.403826901341
 21
203.4769809729584
 31
0.0
  0
LINE
  5
3FA
330
2
100
AcDbEntity
  8
4
100
AcDbLine
 10
1022.40382690134
 20
224.4769809729597
 30
0.0
 11
1022.40382690134
 21
200.4769809729588
 31
0.0
  0
ARC
  5
3FB
330
2
100
AcDbEntity
  8
4
100
AcDbCircle
 10
1032.40382690134
 20
212.4769809729593
 30
0.0
 40
18.0
100
AcDbArc
 50
160.5287790000007
 51
199.4712209999993
  0
LINE
  5
3FC
330
2
100
AcDbEntity
  8
4
100
AcDbLine
 10
1013.403826901341
 20
230.4769809729588
 30
0.0
 11
1013.403826901341
 21
194.4769809729597
 31
0.0
  0
LINE
  5
3FD
330
2
100
AcDbEntity
  8
4
100
AcDbLine
 10
1016.13587690134
 20
200.4769809729588
 30
0.0
 11
1025.403826901341
 21
200.4769809729588
 31
0.0
  0
LINE
  5
3FE
330
2
100
AcDbEntity
  8
4
100
AcDbLine
 10
1006.606431901341
 20
203.4769809729584
 30
0.0
 11
1011.40382690134
 21
203.4769809729584
 31
0.0
  0
LINE
  5
3FF
330
2
100
AcDbEntity
  8
4
100
AcDbLine
 10
1007.21547190134
 20
194.4769809729597
 30
0.0
 11
1015.403826901341
 21
194.4769809729597
 31
0.0
  0
LINE
  5
400
330
2
100
AcDbEntity
  8
4
100
AcDbLine
 10
1015.43326190134
 20
206.4769809729602
 30
0.0
 11
1022.40382690134
 21
206.4769809729602
 31
0.0
  0
ARC
  5
401
330
2
100
AcDbEntity
  8
4
100
AcDbCircle
 10
1018.987826901341
 20
203.4769809729584
 30
0.0
 40
4.584
100
AcDbArc
 50
139.1220210000001
 51
180.0
  0
LINE
  5
402
330
2
100
AcDbEntity
  8
4
100
AcDbLine
 10
1014.403826901341
 20
203.4769809729584
 30
0.0
 11
1016.13587690134
 21
200.4769809729588
 31
0.0
  0
LINE
  5
403
330
2
100
AcDbEntity
  8
4
100
AcDbLine
 10
1015.403826901341
 20
192.4769809729593
 30
0.0
 11
1017.40382690134
 21
192.4769809729593
 31
0.0
  0
LINE
  5
404
330
2
100
AcDbEntity
  8
4
100
AcDbLine
 10
1017.40382690134
 20
192.4769809729593
 30
0.0
 11
1017.40382690134
 21
200.4769809729588
 31
0.0
  0
LINE
  5
405
330
2
100
AcDbEntity
  8
4
100
AcDbLine
 10
1015.403826901341
 20
192.4769809729593
 30
0.0
 11
1015.403826901341
 21
201.7449309729601
 31
0.0
  0
LINE
  5
406
330
2
100
AcDbEntity
  8
4
100
AcDbLine
 10
1016.13587690134
 20
224.4769809729597
 30
0.0
 11
1025.403826901341
 21
224.4769809729597
 31
0.0
  0
LINE
  5
407
330
2
100
AcDbEntity
  8
4
100
AcDbLine
 10
1015.403826901341
 20
232.4769809729593
 30
0.0
 11
1017.40382690134
 21
232.4769809729593
 31
0.0
  0
LINE
  5
408
330
2
100
AcDbEntity
  8
4
100
AcDbLine
 10
1007.21547190134
 20
230.4769809729588
 30
0.0
 11
1015.403826901341
 21
230.4769809729588
 31
0.0
  0
LINE
  5
409
330
2
100
AcDbEntity
  8
4
100
AcDbLine
 10
1006.606431901341
 20
221.4769809729602
 30
0.0
 11
1011.40382690134
 21
221.4769809729602
 31
0.0
  0
LINE
  5
40A
330
2
100
AcDbEntity
  8
4
100
AcDbLine
 10
1015.43326190134
 20
218.4769809729584
 30
0.0
 11
1022.40382690134
 21
218.4769809729584
 31
0.0
  0
LINE
  5
40B
330
2
100
AcDbEntity
  8
4
100
AcDbLine
 10
1014.403826901341
 20
221.4769809729602
 30
0.0
 11
1016.13587690134
 21
224.4769809729597
 31
0.0
  0
ARC
  5
40C
330
2
100
AcDbEntity
  8
4
100
AcDbCircle
 10
1018.987826901341
 20
221.4769809729602
 30
0.0
 40
4.584
100
AcDbArc
 50
180.0
 51
220.8779789999999
  0
LINE
  5
40D
330
2
100
AcDbEntity
  8
4
100
AcDbLine
 10
1017.40382690134
 20
224.4769809729597
 30
0.0
 11
1017.40382690134
 21
232.4769809729593
 31
0.0
  0
LINE
  5
40E
330
2
100
AcDbEntity
  8
4
100
AcDbLine
 10
1015.403826901341
 20
223.2090309729584
 30
0.0
 11
1015.403826901341
 21
232.4769809729593
 31
0.0
  0
ARC
  5
40F
330
2
100
AcDbEntity
  8
4
100
AcDbCircle
 10
1063.433736901341
 20
300.5068909729595
 30
0.0
 40
5.0
100
AcDbArc
 50
185.7846679999987
 51
264.2153319999961
  0
LINE
  5
410
330
2
100
AcDbEntity
  8
4
100
AcDbLine
 10
1027.403826901341
 20
374.9769809729593
 30
0.0
 11
1046.40382690134
 21
374.9769809729593
 31
0.0
  0
LINE
  5
412
330
2
100
AcDbEntity
  8
4
100
AcDbLine
 10
1025.403826901341
 20
353.5147659729602
 30
0.0
 11
1025.403826901341
 21
329.5147659729593
 31
0.0
  0
LINE
  5
413
330
2
100
AcDbEntity
  8
4
100
AcDbLine
 10
1014.403826901341
 20
350.5147659729583
 30
0.0
 11
1014.403826901341
 21
332.5147659729588
 31
0.0
  0
LINE
  5
414
330
2
100
AcDbEntity
  8
4
100
AcDbLine
 10
1022.40382690134
 20
353.5147659729602
 30
0.0
 11
1022.40382690134
 21
329.5147659729593
 31
0.0
  0
ARC
  5
415
330
2
100
AcDbEntity
  8
4
100
AcDbCircle
 10
1018.987826901341
 20
350.5147659729583
 30
0.0
 40
4.584
100
AcDbArc
 50
180.0
 51
220.8779789999999
  0
LINE
  5
416
330
2
100
AcDbEntity
  8
4
100
AcDbLine
 10
1016.13587690134
 20
329.5147659729593
 30
0.0
 11
1025.403826901341
 21
329.5147659729593
 31
0.0
  0
LINE
  5
417
330
2
100
AcDbEntity
  8
4
100
AcDbLine
 10
1015.43326190134
 20
347.5147659729588
 30
0.0
 11
1022.40382690134
 21
347.5147659729588
 31
0.0
  0
LINE
  5
418
330
2
100
AcDbEntity
  8
4
100
AcDbLine
 10
1015.43326190134
 20
335.5147659729583
 30
0.0
 11
1022.40382690134
 21
335.5147659729583
 31
0.0
  0
ARC
  5
419
330
2
100
AcDbEntity
  8
4
100
AcDbCircle
 10
1032.40382690134
 20
341.5147659729597
 30
0.0
 40
18.0
100
AcDbArc
 50
160.5287790000007
 51
199.4712209999993
  0
ARC
  5
41A
330
2
100
AcDbEntity
  8
4
100
AcDbCircle
 10
1018.987826901341
 20
332.5147659729588
 30
0.0
 40
4.584
100
AcDbArc
 50
139.1220210000001
 51
180.0
  0
LINE
  5
41B
330
2
100
AcDbEntity
  8
4
100
AcDbLine
 10
1014.403826901341
 20
332.5147659729588
 30
0.0
 11
1016.13587690134
 21
329.5147659729593
 31
0.0
  0
LINE
  5
41C
330
2
100
AcDbEntity
  8
4
100
AcDbLine
 10
1016.13587690134
 20
353.5147659729602
 30
0.0
 11
1025.403826901341
 21
353.5147659729602
 31
0.0
  0
LINE
  5
41D
330
2
100
AcDbEntity
  8
4
100
AcDbLine
 10
1014.403826901341
 20
350.5147659729583
 30
0.0
 11
1016.13587690134
 21
353.5147659729602
 31
0.0
  0
LINE
  5
41E
330
2
100
AcDbEntity
  8
4
100
AcDbLine
 10
1046.40382690134
 20
376.4769809729602
 30
0.0
 11
1055.54467690134
 21
376.4769809729602
 31
0.0
  0
ARC
  5
41F
330
2
100
AcDbEntity
  8
4
100
AcDbCircle
 10
1063.433736901341
 20
420.4470709729582
 30
0.0
 40
5.0
100
AcDbArc
 50
95.78466800000396
 51
174.2153320000013
  0
LINE
  5
420
330
2
100
AcDbEntity
  8
4
100
AcDbLine
 10
1118.403826901341
 20
374.9769809729593
 30
0.0
 11
1128.403826901341
 21
374.9769809729593
 31
0.0
  0
LINE
  5
421
330
2
100
AcDbEntity
  8
4
100
AcDbLine
 10
1118.403826901341
 20
382.9769809729588
 30
0.0
 11
1128.403826901341
 21
382.9769809729588
 31
0.0
  0
ARC
  5
422
330
2
100
AcDbEntity
  8
4
100
AcDbCircle
 10
1123.403826901341
 20
360.4769809729588
 30
0.0
 40
19.0
100
AcDbArc
 50
105.257523
 51
74.74247699999998
  0
LINE
  5
423
330
2
100
AcDbEntity
  8
4
100
AcDbLine
 10
1118.403826901341
 20
382.9769809729588
 30
0.0
 11
1118.403826901341
 21
374.9769809729593
 31
0.0
  0
LINE
  5
424
330
2
100
AcDbEntity
  8
4
100
AcDbLine
 10
1128.403826901341
 20
382.9769809729588
 30
0.0
 11
1128.403826901341
 21
374.9769809729593
 31
0.0
  0
LINE
  5
425
330
2
100
AcDbEntity
  8
4
100
AcDbLine
 10
1137.403536901341
 20
453.4768979729585
 30
0.0
 11
1109.403536901341
 21
453.4768979729585
 31
0.0
  0
LINE
  5
426
330
2
100
AcDbEntity
  8
4
100
AcDbLine
 10
1137.403536901341
 20
455.4768979729585
 30
0.0
 11
1109.403536901341
 21
455.4768979729585
 31
0.0
  0
LINE
  5
427
330
2
100
AcDbEntity
  8
4
100
AcDbLine
 10
1135.903536901341
 20
456.4768979729585
 30
0.0
 11
1110.903536901341
 21
456.4768979729585
 31
0.0
  0
LINE
  5
428
330
2
100
AcDbEntity
  8
4
100
AcDbLine
 10
1134.903536901341
 20
440.4768979729585
 30
0.0
 11
1110.903536901341
 21
440.4768979729585
 31
0.0
  0
LINE
  5
429
330
2
100
AcDbEntity
  8
4
100
AcDbLine
 10
1135.903536901341
 20
440.4768979729585
 30
0.0
 11
1110.903536901341
 21
440.4768979729585
 31
0.0
  0
ARC
  5
42A
330
2
100
AcDbEntity
  8
4
100
AcDbCircle
 10
1120.403971901341
 20
424.2277679729583
 30
0.0
 40
9.249130000000001
100
AcDbArc
 50
71.07445699999852
 51
108.9255430000015
  0
LINE
  5
42B
330
2
100
AcDbEntity
  8
4
100
AcDbLine
 10
1117.403536901341
 20
434.9768979729585
 30
0.0
 11
1117.403536901341
 21
428.4768979729585
 31
0.0
  0
LINE
  5
42C
330
2
100
AcDbEntity
  8
4
100
AcDbLine
 10
1109.403535901341
 20
455.4768979729585
 30
0.0
 11
1109.403536901341
 21
453.4768979729585
 31
0.0
  0
LINE
  5
42D
330
2
100
AcDbEntity
  8
4
100
AcDbLine
 10
1110.903536901341
 20
456.4768979729585
 30
0.0
 11
1109.403536901341
 21
455.4768979729585
 31
0.0
  0
ARC
  5
42E
330
2
100
AcDbEntity
  8
4
100
AcDbCircle
 10
1111.903536901341
 20
434.9768979729585
 30
0.0
 40
5.5
100
AcDbArc
 50
0.0
 51
90.96750600000075
  0
LINE
  5
42F
330
2
100
AcDbEntity
  8
4
100
AcDbLine
 10
1110.903536901341
 20
453.4768979729585
 30
0.0
 11
1110.903536901341
 21
440.4768979729585
 31
0.0
  0
LINE
  5
430
330
2
100
AcDbEntity
  8
4
100
AcDbLine
 10
1129.403536901341
 20
435.3638189729583
 30
0.0
 11
1129.403536901341
 21
428.4768979729585
 31
0.0
  0
ARC
  5
431
330
2
100
AcDbEntity
  8
4
100
AcDbCircle
 10
1126.403681901341
 20
424.2277679729583
 30
0.0
 40
9.249130000000001
100
AcDbArc
 50
71.07445699999852
 51
108.9255430000015
  0
LINE
  5
432
330
2
100
AcDbEntity
  8
4
100
AcDbLine
 10
1137.403536901341
 20
455.4768979729585
 30
0.0
 11
1137.403536901341
 21
453.4768979729585
 31
0.0
  0
LINE
  5
433
330
2
100
AcDbEntity
  8
4
100
AcDbLine
 10
1137.403536901341
 20
455.4768979729585
 30
0.0
 11
1135.903536901341
 21
456.4768979729585
 31
0.0
  0
ARC
  5
434
330
2
100
AcDbEntity
  8
4
100
AcDbCircle
 10
1134.903536901341
 20
434.9768979729585
 30
0.0
 40
5.5
100
AcDbArc
 50
90.0
 51
180.0
  0
LINE
  5
435
330
2
100
AcDbEntity
  8
4
100
AcDbLine
 10
1135.903536901341
 20
453.4768979729585
 30
0.0
 11
1135.903536901341
 21
440.4768979729585
 31
0.0
  0
LINE
  5
436
330
2
100
AcDbEntity
  8
4
100
AcDbLine
 10
1463.403826901341
 20
42.47698097295927
 30
0.0
 11
1463.403826901341
 21
137.4769809729593
 31
0.0
  0
LINE
  5
437
330
2
100
AcDbEntity
  8
4
100
AcDbLine
 10
1288.403826901341
 20
137.4769809729593
 30
0.0
 11
1288.403826901341
 21
42.47698097295927
 31
0.0
  0
LINE
  5
438
330
2
100
AcDbEntity
  8
4
100
AcDbLine
 10
1274.403826901341
 20
137.4769809729593
 30
0.0
 11
1274.403826901341
 21
97.47698097295927
 31
0.0
  0
LINE
  5
439
330
2
100
AcDbEntity
  8
4
100
AcDbLine
 10
1183.403826901341
 20
293.1028609729593
 30
0.0
 11
1183.403826901341
 21
92.47698097295927
 31
0.0
  0
LINE
  5
43A
330
2
100
AcDbEntity
  8
4
100
AcDbLine
 10
1297.40382690134
 20
52.47698097295927
 30
0.0
 11
1454.403826901341
 21
52.47698097295927
 31
0.0
  0
LINE
  5
43D
330
2
100
AcDbEntity
  8
L-CENTER
 48
5.0
100
AcDbLine
 10
1213.403826901341
 20
94.47698097295927
 30
0.0
 11
1213.403826901341
 21
30.47698097295927
 31
0.0
  0
ARC
  5
43E
330
2
100
AcDbEntity
  8
4
100
AcDbCircle
 10
1193.403826901341
 20
92.47698097295927
 30
0.0
 40
10.0
100
AcDbArc
 50
180.0
 51
270.0
  0
ARC
  5
43F
330
2
100
AcDbEntity
  8
4
100
AcDbCircle
 10
1259.403826901341
 20
97.47698097295927
 30
0.0
 40
15.0
100
AcDbArc
 50
270.0
 51
0.0
  0
ARC
  5
440
330
2
100
AcDbEntity
  8
4
100
AcDbCircle
 10
1297.40382690134
 20
43.47698097295836
 30
0.0
 40
9.0
100
AcDbArc
 50
90.0
 51
180.0
  0
ARC
  5
441
330
2
100
AcDbEntity
  8
4
100
AcDbCircle
 10
1285.403826901341
 20
79.47698097295972
 30
0.0
 40
3.0
100
AcDbArc
 50
0.0
 51
90.0
  0
LINE
  5
446
330
2
100
AcDbEntity
  8
L-CENTER
 48
5.0
100
AcDbLine
 10
1391.68404475092
 20
77.47698097295927
 30
0.0
 11
1435.123609051762
 21
77.47698097295927
 31
0.0
  0
CIRCLE
  5
447
330
2
100
AcDbEntity
  8
2
100
AcDbCircle
 10
1413.403826901341
 20
77.47698097295927
 30
0.0
 40
10.0
  0
ARC
  5
448
330
2
100
AcDbEntity
  8
4
100
AcDbCircle
 10
1413.403826901341
 20
77.47698097295927
 30
0.0
 40
12.0
100
AcDbArc
 50
0.0
 51
180.0
  0
LINE
  5
449
330
2
100
AcDbEntity
  8
2
100
AcDbLine
 10
1413.403826901341
 20
86.32228097295967
 30
0.0
 11
1405.743571901342
 21
81.89963097295833
 31
0.0
  0
LINE
  5
44A
330
2
100
AcDbEntity
  8
2
100
AcDbLine
 10
1405.743571901342
 20
73.0543309729602
 30
0.0
 11
1413.403826901341
 21
68.63168097295886
 31
0.0
  0
LINE
  5
44B
330
2
100
AcDbEntity
  8
4
100
AcDbLine
 10
1401.40382690134
 20
77.47698097295927
 30
0.0
 11
1401.40382690134
 21
52.47698097295927
 31
0.0
  0
LINE
  5
44C
330
2
100
AcDbEntity
  8
2
100
AcDbLine
 10
1405.743571901342
 20
81.89963097295833
 30
0.0
 11
1405.743571901342
 21
73.0543309729602
 31
0.0
  0
LINE
  5
44D
330
2
100
AcDbEntity
  8
2
100
AcDbLine
 10
1413.403826901341
 20
86.32228097295967
 30
0.0
 11
1421.06408190134
 21
81.89963097295833
 31
0.0
  0
LINE
  5
44E
330
2
100
AcDbEntity
  8
2
100
AcDbLine
 10
1421.06408190134
 20
73.0543309729602
 30
0.0
 11
1413.403826901341
 21
68.63168097295886
 31
0.0
  0
LINE
  5
44F
330
2
100
AcDbEntity
  8
4
100
AcDbLine
 10
1425.403826901341
 20
77.47698097295927
 30
0.0
 11
1425.403826901341
 21
52.47698097295927
 31
0.0
  0
LINE
  5
450
330
2
100
AcDbEntity
  8
2
100
AcDbLine
 10
1421.06408190134
 20
81.89963097295833
 30
0.0
 11
1421.06408190134
 21
73.0543309729602
 31
0.0
  0
ARC
  5
451
330
2
100
AcDbEntity
  8
4
100
AcDbCircle
 10
1466.40382690134
 20
79.47698097295972
 30
0.0
 40
3.0
100
AcDbArc
 50
90.0
 51
180.0
  0
ARC
  5
452
330
2
100
AcDbEntity
  8
4
100
AcDbCircle
 10
1454.403826901341
 20
43.47698097295836
 30
0.0
 40
9.0
100
AcDbArc
 50
0.0
 51
90.0
  0
ARC
  5
453
330
2
100
AcDbEntity
  8
4
100
AcDbCircle
 10
1308.48751190134
 20
343.8878409729601
 30
0.0
 40
10.0
100
AcDbArc
 50
7.402257000000415
 51
80.18466499999838
  0
ARC
  5
454
330
2
100
AcDbEntity
  8
4
100
AcDbCircle
 10
591.4038269013404
 20
360.4769809729588
 30
0.0
 40
600.0
100
AcDbArc
 50
354.215332
 51
5.784668000000035
  0
ARC
  5
455
330
2
100
AcDbEntity
  8
4
100
AcDbCircle
 10
1186.40382690134
 20
293.1028609729593
 30
0.0
 40
3.0
100
AcDbArc
 50
112.2555749999994
 51
180.0
  0
ARC
  5
456
330
2
100
AcDbEntity
  8
4
100
AcDbCircle
 10
1183.373916901341
 20
300.5068909729595
 30
0.0
 40
5.0
100
AcDbArc
 50
292.2555750000001
 51
354.2153320000013
  0
ARC
  5
457
330
2
100
AcDbEntity
  8
4
100
AcDbCircle
 10
1230.38143190134
 20
239.4545859729589
 30
0.0
 40
5.0
100
AcDbArc
 50
190.5994609999968
 51
259.4005389999978
  0
LINE
  5
458
330
2
100
AcDbEntity
  8
4
100
AcDbLine
 10
1274.403826901341
 20
137.4769809729593
 30
0.0
 11
1288.403826901341
 21
137.4769809729593
 31
0.0
  0
ARC
  5
459
330
2
100
AcDbEntity
  8
4
100
AcDbCircle
 10
1183.788421901341
 20
450.5531009729599
 30
0.0
 40
25.0
100
AcDbArc
 50
264.4556999999998
 51
358.4303959999999
  0
ARC
  5
45A
330
2
100
AcDbEntity
  8
4
100
AcDbCircle
 10
1183.373916901341
 20
420.4470709729582
 30
0.0
 40
5.0
100
AcDbArc
 50
5.784667999998709
 51
84.21533199999604
  0
LINE
  5
45B
330
2
100
AcDbEntity
  8
4
100
AcDbLine
 10
1310.192246901341
 20
353.7414609729591
 30
0.0
 11
1266.87058190134
 21
361.2363559729589
 31
0.0
  0
ARC
  5
45C
330
2
100
AcDbEntity
  8
4
100
AcDbCircle
 10
1266.188686901341
 20
357.2949059729591
 30
0.0
 40
4.0
100
AcDbArc
 50
80.1846649999958
 51
203.8822049999991
  0
LINE
  5
45D
330
2
100
AcDbEntity
  8
4
100
AcDbLine
 10
1344.668306901341
 20
319.2654009729596
 30
0.0
 11
1352.16320190134
 21
275.9437359729587
 31
0.0
  0
ARC
  5
45E
330
2
100
AcDbEntity
  8
4
100
AcDbCircle
 10
1348.221751901341
 20
275.2618409729586
 30
0.0
 40
4.0
100
AcDbArc
 50
246.1177950000002
 51
9.815334999997756
  0
ARC
  5
45F
330
2
100
AcDbEntity
  8
4
100
AcDbCircle
 10
1327.647961901341
 20
336.7211159729583
 30
0.0
 40
8.0
100
AcDbArc
 50
188.3290489999994
 51
261.6709509999974
  0
ARC
  5
460
330
2
100
AcDbEntity
  8
4
100
AcDbCircle
 10
1332.066386901341
 20
341.1395409729595
 30
0.0
 40
8.0
100
AcDbArc
 50
187.9647959999994
 51
262.0352040000007
  0
ARC
  5
461
330
2
100
AcDbEntity
  8
4
100
AcDbCircle
 10
1334.81468690134
 20
317.5606659729589
 30
0.0
 40
10.0
100
AcDbArc
 50
9.81533499999895
 51
82.59774299999958
  0
LINE
  5
47C
330
2
100
AcDbEntity
  8
4
100
AcDbLine
 10
1618.703826901341
 20
297.4769809729593
 30
0.0
 11
1618.703826901341
 21
127.4769809729593
 31
0.0
  0
LINE
  5
47D
330
2
100
AcDbEntity
  8
4
100
AcDbLine
 10
1477.40382690134
 20
137.4769809729593
 30
0.0
 11
1477.40382690134
 21
97.47698097295927
 31
0.0
  0
LINE
  5
47E
330
2
100
AcDbEntity
  8
4
100
AcDbLine
 10
1603.403826901341
 20
249.92264097296
 30
0.0
 11
1603.403826901341
 21
87.47698097295927
 31
0.0
  0
LINE
  5
47F
330
2
100
AcDbEntity
  8
4
100
AcDbLine
 10
1636.703826901341
 20
129.4769809729593
 30
0.0
 11
1636.703826901341
 21
295.4769809729593
 31
0.0
  0
LINE
  5
480
330
2
100
AcDbEntity
  8
4
100
AcDbLine
 10
1618.403826901341
 20
297.4769809729593
 30
0.0
 11
1618.403826901341
 21
127.4769809729593
 31
0.0
  0
LINE
  5
481
330
2
100
AcDbEntity
  8
4
100
AcDbLine
 10
1606.40382690134
 20
127.4769809729593
 30
0.0
 11
1634.703826901341
 21
127.4769809729593
 31
0.0
  0
ARC
  5
48D
330
2
100
AcDbEntity
  8
4
100
AcDbCircle
 10
1492.40382690134
 20
97.47698097295927
 30
0.0
 40
15.0
100
AcDbArc
 50
180.0
 51
270.0
  0
LINE
  5
48E
330
2
100
AcDbEntity
  8
4
100
AcDbLine
 10
1613.403826901341
 20
42.47698097295927
 30
0.0
 11
1613.403826901341
 21
79.47698097295972
 31
0.0
  0
LINE
  5
48F
330
2
100
AcDbEntity
  8
L-CENTER
 48
5.0
100
AcDbLine
 10
1563.403826901341
 20
94.47698097295927
 30
0.0
 11
1563.403826901341
 21
30.47698097295927
 31
0.0
  0
ARC
  5
492
330
2
100
AcDbEntity
  8
4
100
AcDbCircle
 10
1608.403826901341
 20
87.47698097295927
 30
0.0
 40
5.0
100
AcDbArc
 50
180.0
 51
270.0
  0
ARC
  5
493
330
2
100
AcDbEntity
  8
4
100
AcDbCircle
 10
1610.403826901341
 20
79.47698097295972
 30
0.0
 40
3.0
100
AcDbArc
 50
0.0
 51
90.0
  0
ARC
  5
494
330
2
100
AcDbEntity
  8
4
100
AcDbCircle
 10
1606.40382690134
 20
124.4769809729597
 30
0.0
 40
3.0
100
AcDbArc
 50
90.0
 51
180.0
  0
ARC
  5
495
330
2
100
AcDbEntity
  8
4
100
AcDbCircle
 10
1634.703826901341
 20
129.4769809729593
 30
0.0
 40
2.0
100
AcDbArc
 50
270.0
 51
0.0
  0
LINE
  5
498
330
2
100
AcDbEntity
  8
4
100
AcDbLine
 10
1613.956436901341
 20
297.4769809729593
 30
0.0
 11
1634.703826901341
 21
297.4769809729593
 31
0.0
  0
LINE
  5
499
330
2
100
AcDbEntity
  8
4
100
AcDbLine
 10
1482.139346901341
 20
319.2654009729596
 30
0.0
 11
1474.644451901341
 21
275.9437359729587
 31
0.0
  0
ARC
  5
49A
330
2
100
AcDbEntity
  8
4
100
AcDbCircle
 10
1478.585901901341
 20
275.2618409729586
 30
0.0
 40
4.0
100
AcDbArc
 50
170.1846650000023
 51
293.8822049999998
  0
ARC
  5
49B
330
2
100
AcDbEntity
  8
4
100
AcDbCircle
 10
1596.426221901341
 20
239.4545859729589
 30
0.0
 40
5.0
100
AcDbArc
 50
280.5994610000022
 51
349.4005390000032
  0
ARC
  5
49C
330
2
100
AcDbEntity
  8
4
100
AcDbCircle
 10
1613.956436901341
 20
300.4769809729588
 30
0.0
 40
3.0
100
AcDbArc
 50
173.0135220000009
 51
270.0
  0
LINE
  5
49D
330
2
100
AcDbEntity
  8
4
100
AcDbLine
 10
1516.615406901341
 20
353.7414609729591
 30
0.0
 11
1559.937071901341
 21
361.2363559729589
 31
0.0
  0
ARC
  5
49E
330
2
100
AcDbEntity
  8
4
100
AcDbCircle
 10
1499.15969190134
 20
336.7211159729583
 30
0.0
 40
8.0
100
AcDbArc
 50
278.3290490000026
 51
351.6709510000006
  0
ARC
  5
49F
330
2
100
AcDbEntity
  8
4
100
AcDbCircle
 10
1491.992966901341
 20
317.5606659729589
 30
0.0
 40
10.0
100
AcDbArc
 50
97.40225700000043
 51
170.1846650000011
  0
ARC
  5
4A0
330
2
100
AcDbEntity
  8
4
100
AcDbCircle
 10
1494.741266901341
 20
341.1395409729595
 30
0.0
 40
8.0
100
AcDbArc
 50
277.9647959999993
 51
352.0352040000006
  0
ARC
  5
4A1
330
2
100
AcDbEntity
  8
4
100
AcDbCircle
 10
1518.320141901341
 20
343.8878409729601
 30
0.0
 40
10.0
100
AcDbArc
 50
99.81533500000165
 51
172.5977429999996
  0
ARC
  5
4A2
330
2
100
AcDbEntity
  8
4
100
AcDbCircle
 10
1560.618966901341
 20
357.2949059729591
 30
0.0
 40
4.0
100
AcDbArc
 50
336.1177950000009
 51
99.81533500000421
  0
LINE
  5
4A3
330
2
100
AcDbEntity
  8
4
100
AcDbLine
 10
1647.703826901341
 20
204.2497396370073
 30
0.0
 11
1647.703826901341
 21
220.7042223089117
 31
0.0
  0
ARC
  5
4A4
330
2
100
AcDbEntity
  8
4
100
AcDbCircle
 10
1633.908082766163
 20
212.4769809729593
 30
0.0
 40
13.7957441351769
100
AcDbArc
 50
336.5734024913729
 51
23.42659750862713
  0
LINE
  5
4A5
330
2
100
AcDbEntity
  8
4
100
AcDbLine
 10
1639.703826901341
 20
223.4466360875623
 30
0.0
 11
1639.703826901341
 21
201.5073258583567
 31
0.0
  0
LINE
  5
4A6
330
2
100
AcDbEntity
  8
4
100
AcDbLine
 10
1636.703826901341
 20
223.4466360875623
 30
0.0
 11
1636.703826901341
 21
201.5073258583567
 31
0.0
  0
LINE
  5
4A7
330
2
100
AcDbEntity
  8
4
100
AcDbLine
 10
1646.566645990714
 20
138.7204840839842
 30
0.0
 11
1636.703826901341
 21
138.7204840839842
 31
0.0
  0
LINE
  5
4A8
330
2
100
AcDbEntity
  8
4
100
AcDbLine
 10
1646.566645990714
 20
144.2053116412854
 30
0.0
 11
1639.703826901341
 21
144.2053116412854
 31
0.0
  0
LINE
  5
4A9
330
2
100
AcDbEntity
  8
4
100
AcDbLine
 10
1636.703826901341
 20
160.6597943131898
 30
0.0
 11
1646.566645990714
 21
160.6597943131898
 31
0.0
  0
LINE
  5
4AA
330
2
100
AcDbEntity
  8
4
100
AcDbLine
 10
1646.566645990714
 20
155.1749667558885
 30
0.0
 11
1639.703826901341
 21
155.1749667558885
 31
0.0
  0
LINE
  5
4AB
330
2
100
AcDbEntity
  8
4
100
AcDbLine
 10
1639.703826901341
 20
138.7204840839842
 30
0.0
 11
1639.703826901341
 21
160.6597943131898
 31
0.0
  0
LINE
  5
4AC
330
2
100
AcDbEntity
  8
4
100
AcDbLine
 10
1636.703826901341
 20
138.7204840839842
 30
0.0
 11
1636.703826901341
 21
160.6597943131898
 31
0.0
  0
ARC
  5
4AD
330
2
100
AcDbEntity
  8
4
100
AcDbCircle
 10
1643.828448026061
 20
141.4628978626348
 30
0.0
 40
3.875378875279244
100
AcDbArc
 50
314.955926762744
 51
45.04407323725601
  0
LINE
  5
4AE
330
2
100
AcDbEntity
  8
4
100
AcDbLine
 10
1647.703826901341
 20
157.9173805345391
 30
0.0
 11
1647.703826901341
 21
141.4628978626348
 31
0.0
  0
ARC
  5
4AF
330
2
100
AcDbEntity
  8
4
100
AcDbCircle
 10
1633.908082766163
 20
149.6901391985872
 30
0.0
 40
13.7957441351769
100
AcDbArc
 50
336.5734024913729
 51
23.42659750862713
  0
ARC
  5
4B0
330
2
100
AcDbEntity
  8
4
100
AcDbCircle
 10
1643.828448026061
 20
157.9173805345391
 30
0.0
 40
3.875378875279264
100
AcDbArc
 50
314.955926762744
 51
45.04407323725601
  0
LINE
  5
4B1
330
2
100
AcDbEntity
  8
4
100
AcDbLine
 10
1636.703826901341
 20
201.5073258583567
 30
0.0
 11
1646.566645990714
 21
201.5073258583567
 31
0.0
  0
LINE
  5
4B2
330
2
100
AcDbEntity
  8
4
100
AcDbLine
 10
1646.566645990714
 20
206.992153415658
 30
0.0
 11
1639.703826901341
 21
206.992153415658
 31
0.0
  0
ARC
  5
4B3
330
2
100
AcDbEntity
  8
4
100
AcDbCircle
 10
1643.828448026061
 20
204.2497396370073
 30
0.0
 40
3.875378875279264
100
AcDbArc
 50
314.955926762744
 51
45.04407323725601
  0
LINE
  5
4B4
330
2
100
AcDbEntity
  8
4
100
AcDbLine
 10
1646.566645990714
 20
223.4466360875623
 30
0.0
 11
1636.703826901341
 21
223.4466360875623
 31
0.0
  0
LINE
  5
4B5
330
2
100
AcDbEntity
  8
4
100
AcDbLine
 10
1646.566645990714
 20
217.961808530261
 30
0.0
 11
1639.703826901341
 21
217.961808530261
 31
0.0
  0
ARC
  5
4B6
330
2
100
AcDbEntity
  8
4
100
AcDbCircle
 10
1643.828448026061
 20
220.7042223089117
 30
0.0
 40
3.875378875279244
100
AcDbArc
 50
314.955926762744
 51
45.04407323725601
  0
LINE
  5
4B7
330
2
100
AcDbEntity
  8
4
100
AcDbLine
 10
1646.566645990714
 20
286.2334778619344
 30
0.0
 11
1636.703826901341
 21
286.2334778619344
 31
0.0
  0
LINE
  5
4B8
330
2
100
AcDbEntity
  8
4
100
AcDbLine
 10
1646.566645990714
 20
280.7486503046331
 30
0.0
 11
1639.703826901341
 21
280.7486503046331
 31
0.0
  0
LINE
  5
4B9
330
2
100
AcDbEntity
  8
4
100
AcDbLine
 10
1636.703826901341
 20
264.2941676327288
 30
0.0
 11
1646.566645990714
 21
264.2941676327288
 31
0.0
  0
LINE
  5
4BA
330
2
100
AcDbEntity
  8
4
100
AcDbLine
 10
1646.566645990714
 20
269.7789951900301
 30
0.0
 11
1639.703826901341
 21
269.7789951900301
 31
0.0
  0
LINE
  5
4BB
330
2
100
AcDbEntity
  8
4
100
AcDbLine
 10
1639.703826901341
 20
286.2334778619344
 30
0.0
 11
1639.703826901341
 21
264.2941676327288
 31
0.0
  0
LINE
  5
4BC
330
2
100
AcDbEntity
  8
4
100
AcDbLine
 10
1636.703826901341
 20
286.2334778619344
 30
0.0
 11
1636.703826901341
 21
264.2941676327288
 31
0.0
  0
ARC
  5
4BD
330
2
100
AcDbEntity
  8
4
100
AcDbCircle
 10
1634.703826901341
 20
295.4769809729593
 30
0.0
 40
2.0
100
AcDbArc
 50
0.0
 51
90.0
  0
ARC
  5
4BE
330
2
100
AcDbEntity
  8
4
100
AcDbCircle
 10
1643.828448026061
 20
283.4910640832837
 30
0.0
 40
3.875378875279244
100
AcDbArc
 50
314.955926762744
 51
45.04407323725601
  0
LINE
  5
4BF
330
2
100
AcDbEntity
  8
4
100
AcDbLine
 10
1647.703826901341
 20
267.0365814113794
 30
0.0
 11
1647.703826901341
 21
283.4910640832837
 31
0.0
  0
ARC
  5
4C0
330
2
100
AcDbEntity
  8
4
100
AcDbCircle
 10
1633.908082766163
 20
275.2638227473313
 30
0.0
 40
13.7957441351769
100
AcDbArc
 50
336.5734024913729
 51
23.42659750862713
  0
ARC
  5
4C1
330
2
100
AcDbEntity
  8
4
100
AcDbCircle
 10
1643.828448026061
 20
267.0365814113794
 30
0.0
 40
3.875378875279264
100
AcDbArc
 50
314.955926762744
 51
45.04407323725601
  0
LINE
  5
4C2
330
2
100
AcDbEntity
  8
4
100
AcDbLine
 10
1467.40382690134
 20
565.4769809729587
 30
0.0
 11
1462.847974023825
 21
537.4769809729587
 31
0.0
  0
LINE
  5
4C3
330
2
100
AcDbEntity
  8
4
100
AcDbLine
 10
1358.403826901341
 20
577.4769809729582
 30
0.0
 11
1468.403826901341
 21
577.4769809729582
 31
0.0
  0
LINE
  5
4C4
330
2
100
AcDbEntity
  8
4
100
AcDbLine
 10
1358.403826901341
 20
531.4769809729592
 30
0.0
 11
1468.403826901341
 21
531.4769809729587
 31
0.0
  0
LINE
  5
4C5
330
2
100
AcDbEntity
  8
4
100
AcDbLine
 10
1443.40382690134
 20
571.4769809729587
 30
0.0
 11
1467.40382690134
 21
571.4769809729587
 31
0.0
  0
ARC
  5
4C7
330
2
100
AcDbEntity
  8
4
100
AcDbCircle
 10
1413.403826901341
 20
-372.5230190270407
 30
0.0
 40
1000.0
100
AcDbArc
 50
79.40053900000001
 51
100.599461
  0
ARC
  5
4C8
330
2
100
AcDbEntity
  8
4
100
AcDbCircle
 10
1413.403826901341
 20
-77.52301902704073
 30
0.0
 40
600.0
100
AcDbArc
 50
81.67095099999997
 51
98.32904900000003
  0
ARC
  5
4C9
330
2
100
AcDbEntity
  8
4
100
AcDbCircle
 10
1413.403826901341
 20
-77.52301902704073
 30
0.0
 40
595.0
100
AcDbArc
 50
82.03520400000001
 51
97.96479599999999
  0
TEXT
  5
4CE
330
2
100
AcDbEntity
  8
1
 62
     1
100
AcDbText
 10
2023.001687279502
 20
7818.355143125407
 30
0.0
 40
6.000000000000001
  1
1
 50
90.0
  7
KANJI
 72
     4
 11
2020.001687279502
 21
7819.355143125407
 31
0.0
100
AcDbText
  0
LWPOLYLINE
  5
4CF
330
2
100
AcDbEntity
  8
1
 62
     1
100
AcDbPolyline
 90
        4
 70
     0
 43
0.0
 10
2011.521428118836
 20
7819.222674703602
 10
2025.377834579387
 20
7811.222674703602
 10
2025.377834579387
 20
7827.222674703602
 10
2011.521428118836
 20
7819.222674703602
  0
LINE
  5
4D9
330
2
100
AcDbEntity
  8
4
100
AcDbLine
 10
1303.403826901341
 20
637.9769809729587
 30
0.0
 11
1314.240751901341
 21
636.7323509729599
 31
0.0
  0
LINE
  5
4DA
330
2
100
AcDbEntity
  8
4
100
AcDbLine
 10
1323.403826901341
 20
625.4769809729587
 30
0.0
 11
1283.403826901341
 21
625.4769809729587
 31
0.0
  0
LINE
  5
4DB
330
2
100
AcDbEntity
  8
L-CENTER
 48
5.0
100
AcDbLine
 10
1261.341936901341
 20
655.4769809729587
 30
0.0
 11
1345.465716901341
 21
655.4769809729587
 31
0.0
  0
LINE
  5
4DC
330
2
100
AcDbEntity
  8
4
100
AcDbLine
 10
1291.65454690134
 20
636.4769809729601
 30
0.0
 11
1315.153106901341
 21
636.4769809729601
 31
0.0
  0
ARC
  5
4DD
330
2
100
AcDbEntity
  8
4
100
AcDbCircle
 10
1308.48751190134
 20
501.0661209729583
 30
0.0
 40
10.0
100
AcDbArc
 50
279.8153350000015
 51
352.5977429999996
  0
CIRCLE
  5
4DE
330
2
100
AcDbEntity
  8
4
100
AcDbCircle
 10
1303.403826901341
 20
655.4769809729587
 30
0.0
 40
17.5
  0
ARC
  5
4DF
330
2
100
AcDbEntity
  8
4
100
AcDbCircle
 10
1303.403826901341
 20
655.4769809729587
 30
0.0
 40
30.0
100
AcDbArc
 50
304.5871149999994
 51
235.412885
  0
LINE
  5
4E0
330
2
100
AcDbEntity
  8
L-CENTER
 48
5.0
100
AcDbLine
 10
1303.403826901341
 20
696.1137009729587
 30
0.0
 11
1303.403826901341
 21
613.4150909729588
 31
0.0
  0
ARC
  5
4E1
330
2
100
AcDbEntity
  8
4
100
AcDbCircle
 10
1230.38143190134
 20
605.4993759729596
 30
0.0
 40
5.0
100
AcDbArc
 50
100.599461000002
 51
169.4005390000032
  0
LINE
  5
4E2
330
2
100
AcDbEntity
  8
4
100
AcDbLine
 10
1310.192246901341
 20
491.2125009729593
 30
0.0
 11
1266.87058190134
 21
483.7176059729596
 31
0.0
  0
ARC
  5
4E3
330
2
100
AcDbEntity
  8
4
100
AcDbCircle
 10
1266.188686901341
 20
487.6590559729594
 30
0.0
 40
4.0
100
AcDbArc
 50
156.1177950000009
 51
279.8153350000042
  0
LINE
  5
4E4
330
2
100
AcDbEntity
  8
4
100
AcDbLine
 10
1292.566901901341
 20
636.7323509729599
 30
0.0
 11
1303.403826901341
 21
637.9769809729587
 31
0.0
  0
LINE
  5
4E5
330
2
100
AcDbEntity
  8
4
100
AcDbLine
 10
1283.403826901341
 20
625.4769809729587
 30
0.0
 11
1283.403826901341
 21
621.6198259729581
 31
0.0
  0
ARC
  5
4E6
330
2
100
AcDbEntity
  8
4
100
AcDbCircle
 10
1280.403826901341
 20
621.6198259729581
 30
0.0
 40
3.0
100
AcDbArc
 50
277.6199890000009
 51
0.0
  0
LINE
  5
4E7
330
2
100
AcDbEntity
  8
4
100
AcDbLine
 10
1288.403826901341
 20
625.4769809729587
 30
0.0
 11
1289.954781901341
 21
634.2728859729582
 31
0.0
  0
ARC
  5
4E8
330
2
100
AcDbEntity
  8
4
100
AcDbCircle
 10
1283.535776901341
 20
626.6627409729595
 30
0.0
 40
5.0
100
AcDbArc
 50
350.0000000000003
 51
55.41288500000426
  0
ARC
  5
4E9
330
2
100
AcDbEntity
  8
4
100
AcDbCircle
 10
1292.909206901341
 20
633.7519409729598
 30
0.0
 40
3.0
100
AcDbArc
 50
96.55176900000414
 51
169.9999999999946
  0
LINE
  5
4EB
330
2
100
AcDbEntity
  8
4
100
AcDbLine
 10
1389.40382690134
 20
571.4769809729582
 30
0.0
 11
1413.40382690134
 21
571.4769809729582
 31
0.0
  0
LINE
  5
4EC
330
2
100
AcDbEntity
  8
4
100
AcDbLine
 10
1389.40382690134
 20
537.4769809729587
 30
0.0
 11
1413.40382690134
 21
537.4769809729587
 31
0.0
  0
LINE
  5
4ED
330
2
100
AcDbEntity
  8
4
100
AcDbLine
 10
1389.403826901341
 20
632.4769809729592
 30
0.0
 11
1437.40382690134
 21
632.4769809729592
 31
0.0
  0
ARC
  5
4EE
330
2
100
AcDbEntity
  8
4
100
AcDbCircle
 10
1339.40382690134
 20
565.4629942749598
 30
0.0
 40
4.0
100
AcDbArc
 50
0.0
 51
117.363062351958
  0
LINE
  5
4EF
330
2
100
AcDbEntity
  8
4
100
AcDbLine
 10
1353.403826901341
 20
572.4769809729582
 30
0.0
 11
1353.403826901341
 21
536.4769809729592
 31
0.0
  0
LINE
  5
4F0
330
2
100
AcDbEntity
  8
4
100
AcDbLine
 10
1365.40382690134
 20
571.4769809729582
 30
0.0
 11
1365.40382690134
 21
543.4769809729582
 31
0.0
  0
LINE
  5
4F1
330
2
100
AcDbEntity
  8
4
100
AcDbLine
 10
1389.40382690134
 20
571.4769809729582
 30
0.0
 11
1389.40382690134
 21
537.4769809729587
 31
0.0
  0
LINE
  5
4F2
330
2
100
AcDbEntity
  8
4
100
AcDbLine
 10
1359.40382690134
 20
571.4769809729582
 30
0.0
 11
1359.40382690134
 21
537.4769809729587
 31
0.0
  0
ARC
  5
4F3
330
2
100
AcDbEntity
  8
4
100
AcDbCircle
 10
1333.40382690134
 20
527.2083262825931
 30
0.0
 40
10.0
100
AcDbArc
 50
277.5359093422798
 51
0.0
  0
ARC
  5
4F4
330
2
100
AcDbEntity
  8
4
100
AcDbCircle
 10
1327.647961901341
 20
508.2328459729601
 30
0.0
 40
8.0
100
AcDbArc
 50
98.32904900000263
 51
171.6709510000006
  0
ARC
  5
4F5
330
2
100
AcDbEntity
  8
4
100
AcDbCircle
 10
1332.066386901341
 20
503.8144209729589
 30
0.0
 40
8.0
100
AcDbArc
 50
97.96479599999941
 51
172.0352040000006
  0
LINE
  5
4F6
330
2
100
AcDbEntity
  8
4
100
AcDbLine
 10
1343.403826901339
 20
565.4629942749598
 30
0.0
 11
1343.40382690134
 21
527.2083262825931
 31
0.0
  0
LINE
  5
4F7
330
2
100
AcDbEntity
  8
4
100
AcDbLine
 10
1365.40382690134
 20
543.4769809729587
 30
0.0
 11
1383.40382690134
 21
543.4769809729582
 31
0.0
  0
LINE
  5
4F8
330
2
100
AcDbEntity
  8
4
100
AcDbLine
 10
1359.40382690134
 20
537.4769809729587
 30
0.0
 11
1383.40382690134
 21
537.4769809729592
 31
0.0
  0
ARC
  5
4F9
330
2
100
AcDbEntity
  8
4
100
AcDbCircle
 10
1358.403826901341
 20
536.4769809729592
 30
0.0
 40
5.0
100
AcDbArc
 50
180.0
 51
270.0
  0
LINE
  5
4FA
330
2
100
AcDbEntity
  8
4
100
AcDbLine
 10
1383.40382690134
 20
543.4769809729582
 30
0.0
 11
1383.40382690134
 21
537.4769809729587
 31
0.0
  0
LINE
  5
4FB
330
2
100
AcDbEntity
  8
4
100
AcDbLine
 10
1323.403826901341
 20
625.4769809729587
 30
0.0
 11
1323.403826901341
 21
625.0590559729594
 31
0.0
  0
ARC
  5
4FC
330
2
100
AcDbEntity
  8
4
100
AcDbCircle
 10
1324.90382690134
 20
625.0590559729594
 30
0.0
 40
1.5
100
AcDbArc
 50
180.0
 51
275.069695
  0
LINE
  5
4FD
330
2
100
AcDbEntity
  8
4
100
AcDbLine
 10
1318.403826901341
 20
625.4769809729587
 30
0.0
 11
1316.852871901341
 21
634.2728859729582
 31
0.0
  0
ARC
  5
4FE
330
2
100
AcDbEntity
  8
4
100
AcDbCircle
 10
1323.271876901341
 20
626.6627409729595
 30
0.0
 40
5.0
100
AcDbArc
 50
124.5871149999957
 51
189.9999999999997
  0
ARC
  5
4FF
330
2
100
AcDbEntity
  8
4
100
AcDbCircle
 10
1313.89844690134
 20
633.7519409729598
 30
0.0
 40
3.0
100
AcDbArc
 50
10.00000000000544
 51
83.44823099999586
  0
ARC
  5
500
330
2
100
AcDbEntity
  8
4
100
AcDbCircle
 10
1358.403826901341
 20
572.4769809729582
 30
0.0
 40
5.0
100
AcDbArc
 50
90.0
 51
180.0
  0
LINE
  5
501
330
2
100
AcDbEntity
  8
4
100
AcDbLine
 10
1359.40382690134
 20
571.4769809729582
 30
0.0
 11
1365.40382690134
 21
571.4769809729582
 31
0.0
  0
LINE
  5
502
330
2
100
AcDbEntity
  8
4
100
AcDbLine
 10
1389.403826901341
 20
632.4769809729592
 30
0.0
 11
1389.403826901341
 21
630.1135059729595
 31
0.0
  0
ARC
  5
503
330
2
100
AcDbEntity
  8
4
100
AcDbCircle
 10
1386.40382690134
 20
630.1135059729595
 30
0.0
 40
3.0
100
AcDbArc
 50
271.5425449999942
 51
0.0
  0
LINE
  5
504
330
2
100
AcDbEntity
  8
4
100
AcDbLine
 10
1443.40382690134
 20
571.4769809729587
 30
0.0
 11
1443.403826901342
 21
557.4769809729582
 31
0.0
  0
LINE
  5
505
330
2
100
AcDbEntity
  8
4
100
AcDbLine
 10
1413.403826901341
 20
571.4769809729582
 30
0.0
 11
1413.403826901341
 21
565.4769809729587
 31
0.0
  0
LINE
  5
506
330
2
100
AcDbEntity
  8
4
100
AcDbLine
 10
1419.403826901339
 20
551.4769809729582
 30
0.0
 11
1437.40382690134
 21
551.4769809729587
 31
0.0
  0
LINE
  5
507
330
2
100
AcDbEntity
  8
4
100
AcDbLine
 10
1419.40382690134
 20
557.4769809729587
 30
0.0
 11
1437.403826901341
 21
557.4769809729587
 31
0.0
  0
LINE
  5
508
330
2
100
AcDbEntity
  8
4
100
AcDbLine
 10
1395.40382690134
 20
551.4769809729582
 30
0.0
 11
1413.40382690134
 21
551.4769809729582
 31
0.0
  0
LINE
  5
509
330
2
100
AcDbEntity
  8
4
100
AcDbLine
 10
1395.40382690134
 20
557.4769809729582
 30
0.0
 11
1413.40382690134
 21
557.4769809729582
 31
0.0
  0
LINE
  5
50A
330
2
100
AcDbEntity
  8
4
100
AcDbLine
 10
1395.403826901339
 20
543.4769809729587
 30
0.0
 11
1413.40382690134
 21
543.4769809729587
 31
0.0
  0
LINE
  5
50B
330
2
100
AcDbEntity
  8
4
100
AcDbLine
 10
1395.40382690134
 20
565.4769809729582
 30
0.0
 11
1413.40382690134
 21
565.4769809729582
 31
0.0
  0
LINE
  5
50C
330
2
100
AcDbEntity
  8
4
100
AcDbLine
 10
1395.40382690134
 20
551.4769809729582
 30
0.0
 11
1395.40382690134
 21
543.4769809729582
 31
0.0
  0
LINE
  5
50D
330
2
100
AcDbEntity
  8
4
100
AcDbLine
 10
1395.40382690134
 20
565.4769809729587
 30
0.0
 11
1395.40382690134
 21
557.4769809729582
 31
0.0
  0
LINE
  5
50E
330
2
100
AcDbEntity
  8
4
100
AcDbLine
 10
1419.403826901341
 20
557.4769809729582
 30
0.0
 11
1419.403826901339
 21
551.4769809729582
 31
0.0
  0
LINE
  5
50F
330
2
100
AcDbEntity
  8
4
100
AcDbLine
 10
1413.40382690134
 20
557.4769809729582
 30
0.0
 11
1413.40382690134
 21
551.4769809729582
 31
0.0
  0
LINE
  5
510
330
2
100
AcDbEntity
  8
4
100
AcDbLine
 10
1413.403826901341
 20
543.4769809729582
 30
0.0
 11
1413.40382690134
 21
537.4769809729587
 31
0.0
  0
LINE
  5
511
330
2
100
AcDbEntity
  8
4
100
AcDbLine
 10
1443.403826901342
 20
557.4769809729582
 30
0.0
 11
1449.403826901343
 21
557.4769809729582
 31
0.0
  0
LINE
  5
512
330
2
100
AcDbEntity
  8
4
100
AcDbLine
 10
1437.40382690134
 20
557.4769809729587
 30
0.0
 11
1437.40382690134
 21
551.4769809729582
 31
0.0
  0
LINE
  5
513
330
2
100
AcDbEntity
  8
4
100
AcDbLine
 10
1461.32492303307
 20
565.4769809729587
 30
0.0
 11
1456.769070155557
 21
537.4769809729582
 31
0.0
  0
LINE
  5
514
330
2
100
AcDbEntity
  8
4
100
AcDbLine
 10
1456.769070155557
 20
537.4769809729587
 30
0.0
 11
1462.847974023825
 21
537.4769809729587
 31
0.0
  0
LINE
  5
515
330
2
100
AcDbEntity
  8
4
100
AcDbLine
 10
1449.40382690134
 20
565.4769809729587
 30
0.0
 11
1449.403826901342
 21
557.4769809729582
 31
0.0
  0
LINE
  5
516
330
2
100
AcDbEntity
  8
4
100
AcDbLine
 10
1449.403826901341
 20
565.4769809729587
 30
0.0
 11
1461.32492303307
 21
565.4769809729587
 31
0.0
  0
LINE
  5
517
330
2
100
AcDbEntity
  8
4
100
AcDbLine
 10
1390.403826901341
 20
642.9769809729587
 30
0.0
 11
1436.40382690134
 21
642.9769809729587
 31
0.0
  0
LINE
  5
518
330
2
100
AcDbEntity
  8
4
100
AcDbLine
 10
1390.403826901341
 20
637.9769809729587
 30
0.0
 11
1436.40382690134
 21
637.9769809729587
 31
0.0
  0
LINE
  5
519
330
2
100
AcDbEntity
  8
4
100
AcDbLine
 10
1390.403826901341
 20
633.9769809729601
 30
0.0
 11
1436.40382690134
 21
633.9769809729601
 31
0.0
  0
LINE
  5
51A
330
2
100
AcDbEntity
  8
4
100
AcDbLine
 10
1401.903826901341
 20
642.9769809729587
 30
0.0
 11
1401.903826901341
 21
637.9769809729587
 31
0.0
  0
LINE
  5
51B
330
2
100
AcDbEntity
  8
4
100
AcDbLine
 10
1390.403826901341
 20
642.9769809729587
 30
0.0
 11
1390.403826901341
 21
633.9769809729601
 31
0.0
  0
LINE
  5
51C
330
2
100
AcDbEntity
  8
4
100
AcDbLine
 10
1392.40382690134
 20
633.9769809729601
 30
0.0
 11
1392.40382690134
 21
632.4769809729592
 31
0.0
  0
LINE
  5
51D
330
2
100
AcDbEntity
  8
4
100
AcDbLine
 10
1424.90382690134
 20
642.9769809729587
 30
0.0
 11
1424.90382690134
 21
637.9769809729587
 31
0.0
  0
LINE
  5
51E
330
2
100
AcDbEntity
  8
4
100
AcDbLine
 10
1437.40382690134
 20
632.4769809729592
 30
0.0
 11
1437.40382690134
 21
630.1135059729595
 31
0.0
  0
ARC
  5
51F
330
2
100
AcDbEntity
  8
4
100
AcDbCircle
 10
1440.403826901341
 20
630.1135059729595
 30
0.0
 40
3.0
100
AcDbArc
 50
180.0
 51
268.4574550000058
  0
LINE
  5
520
330
2
100
AcDbEntity
  8
4
100
AcDbLine
 10
1436.40382690134
 20
642.9769809729587
 30
0.0
 11
1436.40382690134
 21
633.9769809729601
 31
0.0
  0
LINE
  5
521
330
2
100
AcDbEntity
  8
4
100
AcDbLine
 10
1434.403826901341
 20
633.9769809729601
 30
0.0
 11
1434.403826901341
 21
632.4769809729592
 31
0.0
  0
LINE
  5
526
330
2
100
AcDbEntity
  8
L-CENTER
 48
5.0
100
AcDbLine
 10
1523.403826901341
 20
697.5388709729586
 30
0.0
 11
1523.403826901341
 21
613.4150909729588
 31
0.0
  0
CIRCLE
  5
527
330
2
100
AcDbEntity
  8
4
100
AcDbCircle
 10
1523.403826901341
 20
655.4769809729587
 30
0.0
 40
17.5
  0
ARC
  5
528
330
2
100
AcDbEntity
  8
4
100
AcDbCircle
 10
1523.403826901341
 20
655.4769809729587
 30
0.0
 40
30.0
100
AcDbArc
 50
304.5871149999994
 51
235.412885
  0
ARC
  5
529
330
2
100
AcDbEntity
  8
4
100
AcDbCircle
 10
1546.40382690134
 20
621.6198259729581
 30
0.0
 40
3.0
100
AcDbArc
 50
180.0
 51
262.3800109999991
  0
LINE
  5
52A
330
2
100
AcDbEntity
  8
4
100
AcDbLine
 10
1516.615406901341
 20
491.2125009729593
 30
0.0
 11
1559.937071901341
 21
483.7176059729596
 31
0.0
  0
ARC
  5
52B
330
2
100
AcDbEntity
  8
4
100
AcDbCircle
 10
1487.403826901341
 20
565.4629942749602
 30
0.0
 40
4.0
100
AcDbArc
 50
62.63693764804201
 51
180.0
  0
LINE
  5
52C
330
2
100
AcDbEntity
  8
4
100
AcDbLine
 10
1473.403826901341
 20
572.4769809729582
 30
0.0
 11
1473.403826901341
 21
536.4769809729587
 31
0.0
  0
LINE
  5
52D
330
2
100
AcDbEntity
  8
4
100
AcDbLine
 10
1467.403826901341
 20
571.4769809729587
 30
0.0
 11
1467.403826901341
 21
565.4769809729582
 31
0.0
  0
ARC
  5
52E
330
2
100
AcDbEntity
  8
4
100
AcDbCircle
 10
1499.15969190134
 20
508.2328459729601
 30
0.0
 40
8.0
100
AcDbArc
 50
8.3290489999994
 51
81.67095099999736
  0
ARC
  5
52F
330
2
100
AcDbEntity
  8
4
100
AcDbCircle
 10
1493.403826901341
 20
527.2083262825936
 30
0.0
 40
10.0
100
AcDbArc
 50
180.0
 51
262.4640906577202
  0
ARC
  5
530
330
2
100
AcDbEntity
  8
4
100
AcDbCircle
 10
1494.741266901341
 20
503.8144209729589
 30
0.0
 40
8.0
100
AcDbArc
 50
7.964795999999392
 51
82.0352040000006
  0
LINE
  5
531
330
2
100
AcDbEntity
  8
4
100
AcDbLine
 10
1483.40382690134
 20
565.4629942749602
 30
0.0
 11
1483.403826901341
 21
527.2083262825936
 31
0.0
  0
ARC
  5
532
330
2
100
AcDbEntity
  8
4
100
AcDbCircle
 10
1468.403826901341
 20
536.4769809729587
 30
0.0
 40
5.0
100
AcDbArc
 50
270.0
 51
0.0
  0
ARC
  5
533
330
2
100
AcDbEntity
  8
4
100
AcDbCircle
 10
1518.320141901341
 20
501.0661209729583
 30
0.0
 40
10.0
100
AcDbArc
 50
187.4022570000004
 51
260.1846649999985
  0
LINE
  5
534
330
2
100
AcDbEntity
  8
4
100
AcDbLine
 10
1503.403826901341
 20
625.4769809729587
 30
0.0
 11
1543.403826901341
 21
625.4769809729587
 31
0.0
  0
ARC
  5
535
330
2
100
AcDbEntity
  8
4
100
AcDbCircle
 10
1468.403826901341
 20
572.4769809729582
 30
0.0
 40
5.0
100
AcDbArc
 50
0.0
 51
90.0
  0
LINE
  5
536
330
2
100
AcDbEntity
  8
4
100
AcDbLine
 10
1503.403826901341
 20
625.4769809729587
 30
0.0
 11
1503.403826901341
 21
625.0590559729594
 31
0.0
  0
ARC
  5
537
330
2
100
AcDbEntity
  8
4
100
AcDbCircle
 10
1501.903826901341
 20
625.0590559729594
 30
0.0
 40
1.5
100
AcDbArc
 50
264.930305
 51
0.0
  0
LINE
  5
538
330
2
100
AcDbEntity
  8
4
100
AcDbLine
 10
1534.240751901341
 20
636.7323509729599
 30
0.0
 11
1523.403826901341
 21
637.9769809729587
 31
0.0
  0
LINE
  5
539
330
2
100
AcDbEntity
  8
4
100
AcDbLine
 10
1535.153106901341
 20
636.4769809729601
 30
0.0
 11
1511.65454690134
 21
636.4769809729601
 31
0.0
  0
LINE
  5
53A
330
2
100
AcDbEntity
  8
4
100
AcDbLine
 10
1508.403826901341
 20
625.4769809729587
 30
0.0
 11
1509.954781901341
 21
634.2728859729582
 31
0.0
  0
ARC
  5
53B
330
2
100
AcDbEntity
  8
4
100
AcDbCircle
 10
1503.535776901341
 20
626.6627409729595
 30
0.0
 40
5.0
100
AcDbArc
 50
350.0000000000003
 51
55.41288500000426
  0
ARC
  5
53C
330
2
100
AcDbEntity
  8
4
100
AcDbCircle
 10
1512.909206901341
 20
633.7519409729598
 30
0.0
 40
3.0
100
AcDbArc
 50
96.55176900000414
 51
169.9999999999946
  0
LINE
  5
53D
330
2
100
AcDbEntity
  8
4
100
AcDbLine
 10
1523.403826901341
 20
637.9769809729587
 30
0.0
 11
1512.566901901341
 21
636.7323509729599
 31
0.0
  0
LINE
  5
53E
330
2
100
AcDbEntity
  8
4
100
AcDbLine
 10
1543.403826901341
 20
625.4769809729587
 30
0.0
 11
1543.403826901341
 21
621.6198259729581
 31
0.0
  0
LINE
  5
53F
330
2
100
AcDbEntity
  8
4
100
AcDbLine
 10
1538.403826901341
 20
625.4769809729587
 30
0.0
 11
1536.852871901341
 21
634.2728859729582
 31
0.0
  0
ARC
  5
540
330
2
100
AcDbEntity
  8
4
100
AcDbCircle
 10
1543.271876901341
 20
626.6627409729595
 30
0.0
 40
5.0
100
AcDbArc
 50
124.5871149999957
 51
189.9999999999997
  0
ARC
  5
541
330
2
100
AcDbEntity
  8
4
100
AcDbCircle
 10
1533.89844690134
 20
633.7519409729598
 30
0.0
 40
3.0
100
AcDbArc
 50
10.00000000000544
 51
83.44823099999586
  0
ARC
  5
542
330
2
100
AcDbEntity
  8
4
100
AcDbCircle
 10
1560.618966901341
 20
487.6590559729594
 30
0.0
 40
4.0
100
AcDbArc
 50
260.1846649999958
 51
23.88220499999908
  0
ARC
  5
543
330
2
100
AcDbEntity
  8
4
100
AcDbCircle
 10
1596.426221901341
 20
605.4993759729596
 30
0.0
 40
5.0
100
AcDbArc
 50
10.59946099999684
 51
79.40053899999803
  0
LINE
  5
545
330
2
100
AcDbEntity
  8
L-CENTER
 48
5.0
100
AcDbLine
 10
1565.465716901341
 20
655.4769809729587
 30
0.0
 11
1481.341936901341
 21
655.4769809729587
 31
0.0
  0
TEXT
  5
5BD
330
2
100
AcDbEntity
  8
L-CENTER
100
AcDbText
 10
885.0734153056803
 20
129.2418388088457
 30
0.0
 40
17.49999997229166
  1

  7
KANJI
100
AcDbText
  0
LINE
  5
1EA7
330
2
100
AcDbEntity
  8
4
 48
5.0
100
AcDbLine
 10
599.9906285282896
 20
82.47698097295927
 30
0.0
 11
599.9906285282896
 21
42.47698097295927
 31
0.0
  0
LINE
  5
1EBF
330
2
100
AcDbEntity
  8
4
100
AcDbLine
 10
182.99062852829
 20
380.9769809729593
 30
0.0
 11
181.99062852829
 21
381.9769809729593
 31
0.0
  0
LINE
  5
1EC0
330
2
100
AcDbEntity
  8
4
100
AcDbLine
 10
182.99062852829
 20
380.9769809729584
 30
0.0
 11
182.99062852829
 21
463.9769809729593
 31
0.0
  0
LINE
  5
1EC1
330
2
100
AcDbEntity
  8
4
100
AcDbLine
 10
181.99062852829
 20
462.9769809729593
 30
0.0
 11
182.99062852829
 21
463.9769809729593
 31
0.0
  0
LINE
  5
1EC2
330
2
100
AcDbEntity
  8
4
100
AcDbLine
 10
731.99062852829
 20
342.4769809729588
 30
0.0
 11
730.99062852829
 21
341.4769809729588
 31
0.0
  0
LINE
  5
1EC3
330
2
100
AcDbEntity
  8
4
100
AcDbLine
 10
730.99062852829
 20
379.4769809729588
 30
0.0
 11
730.99062852829
 21
341.4769809729602
 31
0.0
  0
LINE
  5
1EC4
330
2
100
AcDbEntity
  8
4
100
AcDbLine
 10
730.99062852829
 20
379.4769809729588
 30
0.0
 11
731.99062852829
 21
378.4769809729588
 31
0.0
  0
LINE
  5
1EC5
330
2
100
AcDbEntity
  8
L-CENTER
 48
5.0
100
AcDbLine
 10
337.99062852829
 20
461.41217583334
 30
0.0
 11
337.99062852829
 21
401.7486391124273
 31
0.0
  0
CIRCLE
  5
1EC9
330
2
100
AcDbEntity
  8
4
100
AcDbCircle
 10
1413.403826901341
 20
77.47698097295927
 30
0.0
 40
11.0
  0
ARC
  5
1ECD
330
2
100
AcDbEntity
  8
4
100
AcDbCircle
 10
299.99062852829
 20
79.47698097295927
 30
0.0
 40
3.0
100
AcDbArc
 50
90.0
 51
180.0
  0
ARC
  5
1ECE
330
2
100
AcDbEntity
  8
4
100
AcDbCircle
 10
643.99062852829
 20
79.47698097295927
 30
0.0
 40
3.0
100
AcDbArc
 50
0.0
 51
90.0
  0
SPLINE
  5
1ECF
330
2
100
AcDbEntity
  8
2
100
AcDbSpline
210
0.0
220
0.0
230
1.0
 70
     8
 71
     3
 72
    10
 73
     6
 74
     0
 42
0.000000001
 43
0.0
 40
5.189765276570789
 40
5.189765276570789
 40
5.189765276570789
 40
5.189765276570789
 40
17.60560505195809
 40
35.76236308633528
 40
46.72534651391584
 40
46.72534651391584
 40
46.72534651391584
 40
46.72534651391584
 10
585.4927638857603
 20
82.47698097301941
 30
0.0
 10
586.774834646951
 20
78.41093587171952
 30
0.0
 10
590.3003093557666
 20
68.41085717478904
 30
0.0
 10
580.042487192176
 20
55.42674756614076
 30
0.0
 10
583.394287039456
 20
45.97207304605195
 30
0.0
 10
584.8789600670033
 20
42.47698097295927
 30
0.0
  0
LINE
  5
1ED7
330
2
100
AcDbEntity
  8
L-CENTER
 48
5.0
100
AcDbLine
 10
1010.802987021237
 20
341.5147659729597
 30
0.0
 11
1065.694784778949
 21
341.5147659729597
 31
0.0
  0
LINE
  5
1ED8
330
2
100
AcDbEntity
  8
L-CENTER
 48
5.0
100
AcDbLine
 10
1651.304666781445
 20
275.2638227473313
 30
0.0
 11
1596.412869023733
 21
275.2638227473313
 31
0.0
  0
LINE
  5
1ED9
330
2
100
AcDbEntity
  8
L-CENTER
 48
5.0
100
AcDbLine
 10
1651.304666781445
 20
149.6901391985872
 30
0.0
 11
1596.412869023733
 21
149.6901391985872
 31
0.0
  0
LINE
  5
1EDB
330
2
100
AcDbEntity
  8
L-CENTER
 48
5.0
100
AcDbLine
 10
1010.802987021237
 20
83.43919597295883
 30
0.0
 11
1065.694784778949
 21
83.43919597295883
 31
0.0
  0
LINE
  5
1EEE
330
2
100
AcDbEntity
  8
L-CENTER
 48
5.0
100
AcDbLine
 10
330.3897886481864
 20
1598.160617379187
 30
0.0
 11
385.2815864058982
 21
1598.160617379187
 31
0.0
  0
LINE
  5
1EEF
330
2
100
AcDbEntity
  8
L-CENTER
 48
5.0
100
AcDbLine
 10
330.3897886481864
 20
1506.160617379186
 30
0.0
 11
385.2815864058982
 21
1506.160617379186
 31
0.0
  0
LINE
  5
1EF0
330
2
100
AcDbEntity
  8
L-CENTER
 48
5.0
100
AcDbLine
 10
330.3897886481864
 20
1230.160617379186
 30
0.0
 11
385.2815864058982
 21
1230.160617379186
 31
0.0
  0
LINE
  5
1EF1
330
2
100
AcDbEntity
  8
L-CENTER
 48
5.0
100
AcDbLine
 10
330.3897886481864
 20
1322.160617379186
 30
0.0
 11
385.2815864058982
 21
1322.160617379186
 31
0.0
  0
LINE
  5
1EF2
330
2
100
AcDbEntity
  8
L-CENTER
 48
5.0
100
AcDbLine
 10
399.49062852829
 20
1652.061457259291
 30
0.0
 11
399.49062852829
 21
1597.169659501579
 31
0.0
  0
LINE
  5
1EF3
330
2
100
AcDbEntity
  8
L-CENTER
 48
5.0
100
AcDbLine
 10
435.74062852829
 20
1652.061457259291
 30
0.0
 11
435.74062852829
 21
1597.169659501579
 31
0.0
  0
LINE
  5
1EF4
330
2
100
AcDbEntity
  8
L-CENTER
 48
5.0
100
AcDbLine
 10
544.49062852829
 20
1652.061457259291
 30
0.0
 11
544.49062852829
 21
1597.169659501579
 31
0.0
  0
LINE
  5
1EF5
330
2
100
AcDbEntity
  8
L-CENTER
 48
5.0
100
AcDbLine
 10
508.24062852829
 20
1652.061457259291
 30
0.0
 11
508.24062852829
 21
1597.169659501579
 31
0.0
  0
LINE
  5
1EF6
330
2
100
AcDbEntity
  8
L-CENTER
 48
5.0
100
AcDbLine
 10
322.9906285282896
 20
1011.559777499082
 30
0.0
 11
322.9906285282896
 21
1066.451575256794
 31
0.0
  0
LINE
  5
1EF7
330
2
100
AcDbEntity
  8
L-CENTER
 48
5.0
100
AcDbLine
 10
397.4906288163033
 20
1011.559777499082
 30
0.0
 11
397.4906288163033
 21
1066.451575256794
 31
0.0
  0
LINE
  5
1EF8
330
2
100
AcDbEntity
  8
L-CENTER
 48
5.0
100
AcDbLine
 10
620.9906285282896
 20
1011.559777499082
 30
0.0
 11
620.9906285282896
 21
1066.451575256794
 31
0.0
  0
LINE
  5
1EF9
330
2
100
AcDbEntity
  8
L-CENTER
 48
5.0
100
AcDbLine
 10
546.4906282402758
 20
1011.559777499082
 30
0.0
 11
546.4906282402758
 21
1066.451575256794
 31
0.0
  0
ARC
  5
1EFE
330
2
100
AcDbEntity
  8
4
100
AcDbCircle
 10
373.9906285282905
 20
1616.160617379186
 30
0.0
 40
3.0
100
AcDbArc
 50
90.0
 51
180.0
  0
ARC
  5
1EFF
330
2
100
AcDbEntity
  8
4
100
AcDbCircle
 10
569.99062852829
 20
1616.160617379186
 30
0.0
 40
3.0
100
AcDbArc
 50
0.0
 51
90.0
  0
ARC
  5
1F00
330
2
100
AcDbEntity
  8
4
100
AcDbCircle
 10
590.99062852829
 20
1608.660617379188
 30
0.0
 40
3.0
100
AcDbArc
 50
0.0
 51
90.0
  0
ARC
  5
1F01
330
2
100
AcDbEntity
  8
4
100
AcDbCircle
 10
590.9906285282896
 20
1219.660617379186
 30
0.0
 40
3.0
100
AcDbArc
 50
270.0
 51
0.0
  0
ARC
  5
1F02
330
2
100
AcDbEntity
  8
4
100
AcDbCircle
 10
632.9906285282896
 20
1081.160617379186
 30
0.0
 40
3.0
100
AcDbArc
 50
0.0
 51
90.0
  0
ARC
  5
1F03
330
2
100
AcDbEntity
  8
4
100
AcDbCircle
 10
310.9906285282896
 20
1081.160617379186
 30
0.0
 40
3.0
100
AcDbArc
 50
90.0
 51
180.0
  0
ARC
  5
1F04
330
2
100
AcDbEntity
  8
4
100
AcDbCircle
 10
348.99062852829
 20
613.4769809729601
 30
0.0
 40
3.0
100
AcDbArc
 50
90.0
 51
180.0
  0
ARC
  5
1F05
330
2
100
AcDbEntity
  8
4
100
AcDbCircle
 10
590.9906285282905
 20
616.9769809729592
 30
0.0
 40
3.0
100
AcDbArc
 50
0.0
 51
90.0
  0
ARC
  5
1F06
330
2
100
AcDbEntity
  8
4
100
AcDbCircle
 10
569.99062852829
 20
621.2657880002446
 30
0.0
 40
3.0
100
AcDbArc
 50
0.0
 51
86.24648983592316
  0
ARC
  5
1F07
330
2
100
AcDbEntity
  8
4
100
AcDbCircle
 10
373.99062852829
 20
621.2657880002444
 30
0.0
 40
3.0
100
AcDbArc
 50
93.75351016407359
 51
180.0
  0
ARC
  5
1F08
330
2
100
AcDbEntity
  8
4
100
AcDbCircle
 10
1027.403826901341
 20
372.9769809729593
 30
0.0
 40
2.0
100
AcDbArc
 50
90.0
 51
180.0
  0
ARC
  5
1F09
330
2
100
AcDbEntity
  8
4
100
AcDbCircle
 10
1027.403826901341
 20
51.97698097295927
 30
0.0
 40
2.0
100
AcDbArc
 50
180.0
 51
270.0
  0
ARC
  5
1F0A
330
2
100
AcDbEntity
  8
4
100
AcDbCircle
 10
1080.403826901341
 20
51.47698097295836
 30
0.0
 40
3.0
100
AcDbArc
 50
270.0
 51
0.0
  0
ARC
  5
1F10
330
2
100
AcDbEntity
  8
4
100
AcDbCircle
 10
653.9906285282898
 20
1414.160617379187
 30
0.0
 40
12.0
100
AcDbArc
 50
90.0
 51
270.0000000000005
  0
LINE
  5
1F11
330
2
100
AcDbEntity
  8
4
100
AcDbLine
 10
760.9906285282898
 20
1455.660617379187
 30
0.0
 11
632.9906285282898
 21
1455.660617379187
 31
0.0
  0
LINE
  5
1F12
330
2
100
AcDbEntity
  8
4
100
AcDbLine
 10
760.99062852829
 20
1372.660617379187
 30
0.0
 11
632.99062852829
 21
1372.660617379187
 31
0.0
  0
LINE
  5
1F13
330
2
100
AcDbEntity
  8
4
100
AcDbLine
 10
761.99062852829
 20
1373.660617379187
 30
0.0
 11
761.9906285282898
 21
1454.660617379187
 31
0.0
  0
LINE
  5
1F14
330
2
100
AcDbEntity
  8
4
100
AcDbLine
 10
653.9906285282899
 20
1402.160617379187
 30
0.0
 11
761.9906285282899
 21
1402.160617379187
 31
0.0
  0
LINE
  5
1F15
330
2
100
AcDbEntity
  8
4
100
AcDbLine
 10
760.99062852829
 20
1372.660617379187
 30
0.0
 11
760.9906285282899
 21
1402.160617379187
 31
0.0
  0
LINE
  5
1F16
330
2
100
AcDbEntity
  8
4
100
AcDbLine
 10
760.99062852829
 20
1372.660617379187
 30
0.0
 11
761.99062852829
 21
1373.660617379187
 31
0.0
  0
LINE
  5
1F17
330
2
100
AcDbEntity
  8
4
100
AcDbLine
 10
653.9906285282898
 20
1426.160617379187
 30
0.0
 11
761.9906285282898
 21
1426.160617379187
 31
0.0
  0
LINE
  5
1F18
330
2
100
AcDbEntity
  8
4
100
AcDbLine
 10
760.9906285282898
 20
1426.160617379187
 30
0.0
 11
760.9906285282898
 21
1455.660617379187
 31
0.0
  0
LINE
  5
1F19
330
2
100
AcDbEntity
  8
4
100
AcDbLine
 10
761.9906285282898
 20
1454.660617379187
 30
0.0
 11
760.9906285282898
 21
1455.660617379187
 31
0.0
  0
LINE
  5
1F1A
330
2
100
AcDbEntity
  8
4
100
AcDbLine
 10
631.99062852829
 20
1371.660617379187
 30
0.0
 11
631.9906285282898
 21
1456.660617379187
 31
0.0
  0
LINE
  5
1F1B
330
2
100
AcDbEntity
  8
4
100
AcDbLine
 10
604.9906285282902
 20
1469.160617379187
 30
0.0
 11
604.9906285282905
 21
1359.160617379187
 31
0.0
  0
LINE
  5
1F1C
330
2
100
AcDbEntity
  8
4
100
AcDbLine
 10
604.9906285282905
 20
1371.660617379187
 30
0.0
 11
631.99062852829
 21
1371.660617379187
 31
0.0
  0
ARC
  5
1F1D
330
2
100
AcDbEntity
  8
4
100
AcDbCircle
 10
632.99062852829
 20
1371.660617379187
 30
0.0
 40
1.0
100
AcDbArc
 50
90.0
 51
180.0
  0
LINE
  5
1F1E
330
2
100
AcDbEntity
  8
4
100
AcDbLine
 10
604.9906285282905
 20
1359.160617379187
 30
0.0
 11
603.99062852829
 21
1359.160617379187
 31
0.0
  0
LINE
  5
1F1F
330
2
100
AcDbEntity
  8
4
100
AcDbLine
 10
604.9906285282902
 20
1456.660617379187
 30
0.0
 11
631.9906285282898
 21
1456.660617379187
 31
0.0
  0
ARC
  5
1F20
330
2
100
AcDbEntity
  8
4
100
AcDbCircle
 10
632.9906285282898
 20
1456.660617379187
 30
0.0
 40
1.0
100
AcDbArc
 50
180.0
 51
270.0
  0
LINE
  5
1F21
330
2
100
AcDbEntity
  8
4
100
AcDbLine
 10
604.9906285282902
 20
1469.160617379187
 30
0.0
 11
603.9906285282898
 21
1469.160617379187
 31
0.0
  0
LINE
  5
1F23
330
2
100
AcDbEntity
  8
4
100
AcDbLine
 10
760.9906285282891
 20
463.9769809729602
 30
0.0
 11
631.99062852829
 21
463.9769809729602
 31
0.0
  0
LINE
  5
1F24
330
2
100
AcDbEntity
  8
4
100
AcDbLine
 10
760.9906285282891
 20
380.9769809729584
 30
0.0
 11
731.99062852829
 21
380.9769809729584
 31
0.0
  0
LINE
  5
1F25
330
2
100
AcDbEntity
  8
4
100
AcDbLine
 10
761.99062852829
 20
473.9769809729602
 30
0.0
 11
641.99062852829
 21
473.9769809729602
 31
0.0
  0
LINE
  5
1F26
330
2
100
AcDbEntity
  8
4
100
AcDbLine
 10
761.99062852829
 20
473.9769809729602
 30
0.0
 11
761.99062852829
 21
381.9769809729593
 31
0.0
  0
LINE
  5
1F27
330
2
100
AcDbEntity
  8
4
100
AcDbLine
 10
631.99062852829
 20
464.9769809729593
 30
0.0
 11
631.99062852829
 21
380.4769809729588
 31
0.0
  0
LINE
  5
1F29
330
2
100
AcDbEntity
  8
4
100
AcDbLine
 10
631.99062852829
 20
464.9769809729593
 30
0.0
 11
604.9906285282905
 21
464.9769809729593
 31
0.0
  0
LINE
  5
1F2A
330
2
100
AcDbEntity
  8
4
100
AcDbLine
 10
641.99062852829
 20
473.9769809729602
 30
0.0
 11
641.99062852829
 21
463.9769809729602
 31
0.0
  0
LINE
  5
1F2B
330
2
100
AcDbEntity
  8
4
100
AcDbLine
 10
604.9906285282905
 20
477.4769809729593
 30
0.0
 11
603.9906285282905
 21
477.4769809729593
 31
0.0
  0
LINE
  5
1F2C
330
2
100
AcDbEntity
  8
4
100
AcDbLine
 10
604.9906285282905
 20
456.4768979729585
 30
0.0
 11
604.9906285282905
 21
477.4769809729593
 31
0.0
  0
LINE
  5
1F2D
330
2
100
AcDbEntity
  8
4
100
AcDbLine
 10
760.99062852829
 20
380.9769809729593
 30
0.0
 11
761.99062852829
 21
381.9769809729593
 31
0.0
  0
LINE
  5
1F2E
330
2
100
AcDbEntity
  8
4
100
AcDbLine
 10
760.99062852829
 20
380.9769809729584
 30
0.0
 11
760.99062852829
 21
463.9769809729593
 31
0.0
  0
LINE
  5
1F2F
330
2
100
AcDbEntity
  8
4
100
AcDbLine
 10
761.99062852829
 20
462.9769809729593
 30
0.0
 11
760.99062852829
 21
463.9769809729593
 31
0.0
  0
LINE
  5
1F31
330
2
100
AcDbEntity
  8
4
100
AcDbLine
 10
656.99062852829
 20
380.9769809729584
 30
0.0
 11
631.99062852829
 21
380.9769809729584
 31
0.0
  0
SOLID
  5
1F56
330
2
100
AcDbEntity
  8
2
100
AcDbTrace
 10
601.3053971240408
 20
465.4685030337946
 30
0.0
 11
605.99062852829
 21
456.4768979729586
 31
0.0
 12
604.4880354698553
 22
466.503989723918
 32
0.0
 13
604.4880354698553
 23
466.503989723918
 33
0.0
  0
SOLID
  5
1F58
330
2
100
AcDbEntity
  8
2
100
AcDbTrace
 10
343.7090850677433
 20
464.8494489395277
 30
0.0
 11
337.99062852829
 21
456.4768979729583
 31
0.0
 12
346.123371376385
 22
462.5315530951084
 32
0.0
 13
346.123371376385
 23
462.5315530951084
 33
0.0
  0
CIRCLE
  5
1F5A
330
2
100
AcDbEntity
  8
4
100
AcDbCircle
 10
1413.403826901341
 20
422.4769809729593
 30
0.0
 40
55.0
  0
ARC
  5
1F5B
330
2
100
AcDbEntity
  8
4
100
AcDbCircle
 10
1413.403826901341
 20
422.4769809729592
 30
0.0
 40
41.5
100
AcDbArc
 50
106.8074712234167
 51
73.1925289999998
  0
LINE
  5
1F5C
330
2
100
AcDbEntity
  8
4
100
AcDbLine
 10
1425.403826901341
 20
455.9769809729605
 30
0.0
 11
1425.403826901341
 21
471.9769809729596
 31
0.0
  0
LINE
  5
1F5D
330
2
100
AcDbEntity
  8
4
100
AcDbLine
 10
1401.403826901341
 20
455.9769809729605
 30
0.0
 11
1401.403826901341
 21
471.9769809729596
 31
0.0
  0
LINE
  5
1F5E
330
2
100
AcDbEntity
  8
4
100
AcDbLine
 10
1401.403826901341
 20
455.9769809729605
 30
0.0
 11
1425.403826901341
 21
455.9769809729605
 31
0.0
  0
LINE
  5
1F5F
330
2
100
AcDbEntity
  8
4
100
AcDbLine
 10
1401.403826901341
 20
471.9769809729596
 30
0.0
 11
1425.403826901341
 21
471.9769809729596
 31
0.0
  0
ENDSEC
  0
SECTION
  2
OBJECTS
  0
DICTIONARY
  5
7
330
0
100
AcDbDictionary
281
     1
  3
ACAD_COLOR
350
642
  3
ACAD_GROUP
350
1F
  3
ACAD_LAYOUT
350
B
  3
ACAD_MATERIAL
350
634
  3
ACAD_MLEADERSTYLE
350
638
  3
ACAD_MLINESTYLE
350
20
  3
ACAD_PLOTSETTINGS
350
21
  3
ACAD_PLOTSTYLENAME
350
6
  3
ACAD_SCALELIST
350
612
  3
ACAD_TABLESTYLE
350
63A
  3
ACAD_VISUALSTYLE
350
5F9
  3
ACDBHEADERROUNDTRIPXREC
350
1F6A
  3
AcDbVariableDictionary
350
549
  3
DWGPROPS
350
1F6D
  0
DICTIONARY
  5
1F6E
330
19
100
AcDbDictionary
280
     1
281
     1
  3
ACAD_XREC_ROUNDTRIP
360
1F6F
  0
DICTIONARY
  5
652
330
651
100
AcDbDictionary
280
     1
281
     1
  3
ADSK_XREC_LAYER_RECONCILED
360
653
  0
DICTIONARY
  5
658
330
657
100
AcDbDictionary
280
     1
281
     1
  3
ADSK_XREC_LAYER_RECONCILED
360
659
  0
DICTIONARY
  5
1ECA
330
2
100
AcDbDictionary
280
     1
281
     1
  3
ACAD_SORTENTS
360
1ECB
  0
DICTIONARY
  5
642
102
{ACAD_REACTORS
330
7
102
}
330
7
100
AcDbDictionary
281
     1
  0
DICTIONARY
  5
1F
102
{ACAD_REACTORS
330
7
102
}
330
7
100
AcDbDictionary
281
     1
  0
DICTIONARY
  5
B
102
{ACAD_REACTORS
330
7
102
}
330
7
100
AcDbDictionary
281
     1
  3
Model
350
A
  3
ﾚｲｱｳﾄ1
350
F
  0
DICTIONARY
  5
634
102
{ACAD_REACTORS
330
7
102
}
330
7
100
AcDbDictionary
281
     1
  3
ByBlock
350
636
  3
ByLayer
350
635
  3
Global
350
637
  0
DICTIONARY
  5
638
102
{ACAD_REACTORS
330
7
102
}
330
7
100
AcDbDictionary
281
     1
  3
Standard
350
664
  0
DICTIONARY
  5
20
102
{ACAD_REACTORS
330
7
102
}
330
7
100
AcDbDictionary
281
     1
  3
STANDARD
350
24
  0
DICTIONARY
  5
21
102
{ACAD_REACTORS
330
7
102
}
330
7
100
AcDbDictionary
281
     1
  0
ACDBDICTIONARYWDFLT
  5
6
102
{ACAD_REACTORS
330
7
102
}
330
7
100
AcDbDictionary
281
     1
  3
Normal
350
5
100
AcDbDictionaryWithDefault
340
5
  0
DICTIONARY
  5
612
102
{ACAD_REACTORS
330
7
102
}
330
7
100
AcDbDictionary
281
     1
  3
A0
350
613
  3
A1
350
614
  3
A2
350
615
  3
A3
350
616
  3
A4
350
617
  3
A5
350
618
  3
A6
350
619
  3
A7
350
61A
  3
A8
350
61B
  3
A9
350
61C
  3
B0
350
61D
  3
B1
350
61E
  3
B2
350
61F
  3
B3
350
620
  3
B4
350
621
  3
B5
350
622
  3
B6
350
623
  3
B7
350
624
  3
B8
350
625
  3
B9
350
626
  3
C0
350
627
  3
C1
350
628
  3
C2
350
629
  3
C3
350
62A
  3
C4
350
62B
  3
C5
350
62C
  3
C6
350
62D
  3
C7
350
62E
  3
C8
350
62F
  3
C9
350
630
  3
D0
350
631
  3
D1
350
632
  3
D2
350
633
  0
DICTIONARY
  5
63A
102
{ACAD_REACTORS
330
7
102
}
330
7
100
AcDbDictionary
281
     1
  3
Standard
350
663
  0
DICTIONARY
  5
5F9
102
{ACAD_REACTORS
330
7
102
}
330
7
100
AcDbDictionary
281
     1
  3
2dWireframe
350
5FE
  3
Basic
350
601
  3
Brighten
350
605
  3
ColorChange
350
609
  3
Conceptual
350
603
  3
Dim
350
604
  3
EdgeColorOff
350
60C
  3
Facepattern
350
608
  3
Flat
350
5FA
  3
FlatWithEdges
350
5FB
  3
Gouraud
350
5FC
  3
GouraudWithEdges
350
5FD
  3
Hidden
350
600
  3
JitterOff
350
60A
  3
Linepattern
350
607
  3
OverhangOff
350
60B
  3
Realistic
350
602
  3
Shaded
350
611
  3
Shaded with edges
350
610
  3
Shades of Gray
350
60D
  3
Sketchy
350
60E
  3
Thicken
350
606
  3
Wireframe
350
5FF
  3
X-Ray
350
60F
  0
DICTIONARY
  5
1F6A
102
{ACAD_REACTORS
330
7
102
}
330
7
100
AcDbDictionary
281
     1
  3
COLORDICT
350
1F6B
  3
MATERIALDICT
350
1F6C
  0
DICTIONARY
  5
549
102
{ACAD_REACTORS
330
7
102
}
330
7
100
AcDbDictionary
281
     1
  3
CANNOSCALE
350
639
  3
CTABLESTYLE
350
1F0B
  3
DIMASSOC
350
54B
  3
HIDETEXT
350
54A
  3
MSLTSCALE
350
63B
  3
XCLIPFRAME
350
63F
  0
XRECORD
  5
1F6D
102
{ACAD_REACTORS
330
7
102
}
330
7
100
AcDbXrecord
280
     1
  1
DWGPROPS COOKIE
  2

  3

  4

  6

  7

  8
sg-d03
  9

300
=
301
=
302
=
303
=
304
=
305
=
306
=
307
=
308
=
309
=
 40
0.0
 41
2457661.154530856
 42
2458124.121085833
  1

 90
        0
  0
XRECORD
  5
1F6F
102
{ACAD_REACTORS
330
1F6E
102
}
330
1F6E
100
AcDbXrecord
280
     1
102
VTR_0.000_0.000_1.000_1.000_GRIDDISPLAY
 70
     3
102
VTR_0.000_0.000_1.000_1.000_GRIDMAJOR
 70
     5
102
VTR_0.000_0.000_1.000_1.000_DEFAULTLIGHTING
280
     1
102
VTR_0.000_0.000_1.000_1.000_DEFAULTLIGHTINGTYPE
 70
     1
102
VTR_0.000_0.000_1.000_1.000_BRIGHTNESS
141
0.0
102
VTR_0.000_0.000_1.000_1.000_CONTRAST
142
0.0
  0
XRECORD
  5
653
102
{ACAD_REACTORS
330
652
102
}
330
652
100
AcDbXrecord
280
     1
290
     1
  0
XRECORD
  5
659
102
{ACAD_REACTORS
330
658
102
}
330
658
100
AcDbXrecord
280
     1
290
     1
  0
SORTENTSTABLE
  5
1ECB
102
{ACAD_REACTORS
330
1ECA
102
}
330
1ECA
100
AcDbSortentsTable
330
2
331
0
  5
1EB7
331
0
  5
46
331
0
  5
47
331
0
  5
48
331
0
  5
49
331
0
  5
4A
331
0
  5
54
331
0
  5
55
331
0
  5
56
331
0
  5
57
331
0
  5
58
331
0
  5
59
331
0
  5
5A
331
0
  5
5B
331
0
  5
5C
331
0
  5
5D
331
0
  5
5E
331
0
  5
5F
331
0
  5
60
331
0
  5
61
331
0
  5
62
331
0
  5
63
331
0
  5
64
331
0
  5
65
331
0
  5
66
331
0
  5
67
331
0
  5
68
331
0
  5
69
331
0
  5
6A
331
0
  5
6B
331
0
  5
6C
331
0
  5
6D
331
0
  5
6E
331
6E
  5
6F
331
0
  5
70
331
0
  5
71
331
0
  5
72
331
0
  5
73
331
0
  5
74
331
0
  5
75
331
0
  5
76
331
0
  5
77
331
0
  5
78
331
0
  5
79
331
0
  5
7A
331
0
  5
7B
331
0
  5
7C
331
0
  5
7D
331
0
  5
7E
331
0
  5
7F
331
0
  5
80
331
0
  5
81
331
0
  5
82
331
0
  5
83
331
0
  5
84
331
0
  5
85
331
0
  5
86
331
0
  5
87
331
0
  5
88
331
0
  5
89
331
0
  5
8A
331
0
  5
8B
331
0
  5
8C
331
0
  5
8D
331
0
  5
8E
331
0
  5
8F
331
0
  5
90
331
0
  5
91
331
0
  5
92
331
0
  5
93
331
0
  5
94
331
0
  5
95
331
0
  5
9B
331
9B
  5
9C
331
9C
  5
9D
331
9D
  5
9E
331
9E
  5
9F
331
9F
  5
A0
331
A0
  5
A1
331
A1
  5
A2
331
A2
  5
A3
331
A3
  5
A4
331
A4
  5
A6
331
0
  5
A9
331
A6
  5
AA
331
A7
  5
AB
331
A8
  5
AC
331
0
  5
AD
331
AA
  5
AE
331
AB
  5
AF
331
AC
  5
B0
331
0
  5
B1
331
0
  5
B2
331
0
  5
B3
331
0
  5
B6
331
B1
  5
B7
331
B2
  5
B8
331
B3
  5
B9
331
B4
  5
BA
331
B5
  5
BB
331
B6
  5
BC
331
B7
  5
BD
331
B8
  5
BE
331
B9
  5
BF
331
BA
  5
C0
331
BB
  5
C1
331
BC
  5
C2
331
0
  5
C3
331
0
  5
C4
331
BF
  5
C5
331
C0
  5
C6
331
C1
  5
C7
331
C2
  5
C8
331
C3
  5
C9
331
C4
  5
CA
331
C5
  5
CB
331
C6
  5
CC
331
C7
  5
CD
331
C8
  5
CE
331
C9
  5
CF
331
CA
  5
D0
331
CB
  5
D1
331
CC
  5
D2
331
CD
  5
D3
331
CE
  5
D4
331
CF
  5
D5
331
D0
  5
D6
331
D1
  5
D7
331
D2
  5
D8
331
D3
  5
DB
331
D4
  5
DC
331
D5
  5
DD
331
D6
  5
DE
331
D7
  5
DF
331
D8
  5
E0
331
D9
  5
E1
331
DA
  5
E2
331
DB
  5
E3
331
DC
  5
E4
331
DD
  5
E5
331
DE
  5
E6
331
DF
  5
E7
331
E0
  5
E8
331
E1
  5
EA
331
E2
  5
EB
331
E3
  5
EC
331
E4
  5
ED
331
E6
  5
EE
331
E7
  5
EF
331
E8
  5
F0
331
E9
  5
F1
331
EA
  5
F2
331
EB
  5
F3
331
EC
  5
F4
331
ED
  5
F5
331
EE
  5
F6
331
EF
  5
F7
331
F0
  5
F8
331
F1
  5
F9
331
F2
  5
FA
331
F3
  5
FB
331
F4
  5
FC
331
F5
  5
FD
331
F6
  5
FE
331
F7
  5
FF
331
F8
  5
100
331
F9
  5
101
331
FA
  5
102
331
FB
  5
103
331
FC
  5
104
331
FD
  5
105
331
FE
  5
106
331
FF
  5
107
331
100
  5
108
331
101
  5
109
331
102
  5
10A
331
103
  5
10B
331
104
  5
10C
331
105
  5
10D
331
106
  5
10E
331
107
  5
10F
331
108
  5
110
331
109
  5
111
331
0
  5
112
331
0
  5
113
331
0
  5
116
331
0
  5
117
331
0
  5
118
331
0
  5
119
331
0
  5
11A
331
111
  5
11B
331
112
  5
11C
331
113
  5
11D
331
116
  5
11E
331
0
  5
11F
331
0
  5
120
331
0
  5
121
331
0
  5
122
331
0
  5
123
331
0
  5
124
331
0
  5
125
331
0
  5
126
331
11F
  5
127
331
120
  5
128
331
121
  5
129
331
122
  5
12A
331
123
  5
12B
331
124
  5
12C
331
125
  5
12D
331
126
  5
12F
331
127
  5
130
331
128
  5
131
331
129
  5
133
331
12B
  5
134
331
12C
  5
135
331
12D
  5
136
331
12F
  5
137
331
130
  5
138
331
131
  5
139
331
132
  5
13A
331
133
  5
13B
331
134
  5
13E
331
135
  5
13F
331
136
  5
140
331
137
  5
141
331
138
  5
142
331
139
  5
143
331
13A
  5
146
331
13B
  5
149
331
13C
  5
14A
331
13D
  5
14B
331
13E
  5
14C
331
13F
  5
14D
331
142
  5
14E
331
0
  5
14F
331
0
  5
150
331
147
  5
151
331
148
  5
152
331
0
  5
153
331
14A
  5
155
331
14B
  5
156
331
14C
  5
158
331
14D
  5
15A
331
0
  5
15B
331
0
  5
15C
331
0
  5
15D
331
0
  5
15E
331
0
  5
15F
331
156
  5
160
331
157
  5
161
331
158
  5
162
331
159
  5
163
331
15A
  5
164
331
15B
  5
165
331
15C
  5
166
331
15D
  5
167
331
15E
  5
168
331
15F
  5
169
331
160
  5
16A
331
161
  5
16B
331
162
  5
16C
331
163
  5
16D
331
164
  5
16E
331
165
  5
16F
331
166
  5
170
331
167
  5
171
331
168
  5
172
331
169
  5
173
331
16A
  5
174
331
16B
  5
175
331
16C
  5
176
331
16D
  5
177
331
16E
  5
178
331
16F
  5
179
331
170
  5
17B
331
171
  5
17E
331
172
  5
17F
331
173
  5
180
331
174
  5
181
331
175
  5
182
331
177
  5
183
331
17A
  5
184
331
17B
  5
185
331
17C
  5
186
331
0
  5
187
331
17E
  5
188
331
17F
  5
189
331
180
  5
18A
331
181
  5
18B
331
182
  5
18C
331
183
  5
18D
331
184
  5
18E
331
185
  5
18F
331
186
  5
190
331
187
  5
191
331
188
  5
192
331
0
  5
193
331
18A
  5
194
331
18B
  5
195
331
18C
  5
196
331
18D
  5
197
331
18E
  5
198
331
18F
  5
199
331
190
  5
19A
331
191
  5
19B
331
192
  5
19C
331
193
  5
19D
331
194
  5
19E
331
195
  5
19F
331
196
  5
1A0
331
197
  5
1A1
331
198
  5
1A2
331
199
  5
1A3
331
19A
  5
1A4
331
19B
  5
1A5
331
19C
  5
1A6
331
19D
  5
1A7
331
19E
  5
1A8
331
19F
  5
1A9
331
1A0
  5
1AA
331
1A1
  5
1AB
331
1A2
  5
1AC
331
1A3
  5
1AD
331
1A4
  5
1AE
331
1A5
  5
1AF
331
1A6
  5
1B0
331
1A7
  5
1B1
331
1A8
  5
1B2
331
1A9
  5
1B3
331
1AA
  5
1B4
331
1AB
  5
1B5
331
1AC
  5
1B7
331
1AD
  5
1B8
331
1AE
  5
1B9
331
0
  5
1BA
331
0
  5
1BB
331
0
  5
1BC
331
1B3
  5
1BD
331
1B4
  5
1BE
331
1B5
  5
1BF
331
1B6
  5
1C1
331
1B7
  5
1C2
331
1B8
  5
1C3
331
1B9
  5
1C4
331
1BA
  5
1C5
331
1BB
  5
1C6
331
1BD
  5
1C7
331
1BE
  5
1C8
331
1BF
  5
1C9
331
1C0
  5
1CA
331
1C1
  5
1CB
331
1C2
  5
1CC
331
1C3
  5
1CD
331
1C4
  5
1CE
331
1C5
  5
1CF
331
1C6
  5
1D1
331
1C7
  5
1D2
331
1C8
  5
1D3
331
1C9
  5
1D4
331
1CA
  5
1D5
331
1CB
  5
1D6
331
1CD
  5
1D8
331
1CE
  5
1D9
331
1CF
  5
1DA
331
1D0
  5
1DB
331
1D1
  5
1DC
331
1D2
  5
1DD
331
1D4
  5
1DE
331
1D5
  5
1DF
331
1D6
  5
1E0
331
1D7
  5
1E1
331
1D8
  5
1E2
331
1D9
  5
1E3
331
1DA
  5
1E4
331
1DB
  5
1E5
331
1DC
  5
1E6
331
1DD
  5
1E7
331
1DE
  5
1E8
331
1DF
  5
1E9
331
1E0
  5
1EA
331
1E1
  5
1EB
331
1E2
  5
1EC
331
1E3
  5
1ED
331
1E4
  5
1EE
331
1E5
  5
1EF
331
1E6
  5
1F0
331
1E7
  5
1F1
331
1E8
  5
1F2
331
1E9
  5
1F3
331
1EA
  5
1F4
331
1EB
  5
1F5
331
1EC
  5
1F6
331
1ED
  5
1F7
331
1EE
  5
1F8
331
1EF
  5
1F9
331
1F0
  5
1FA
331
1F1
  5
1FB
331
1F2
  5
1FC
331
1F3
  5
1FE
331
1F4
  5
1FF
331
1F5
  5
200
331
1F6
  5
201
331
1F7
  5
202
331
1F8
  5
203
331
1FA
  5
204
331
1FB
  5
205
331
1FC
  5
206
331
1FD
  5
20A
331
1FE
  5
20B
331
1FF
  5
20C
331
200
  5
20D
331
201
  5
20E
331
202
  5
20F
331
0
  5
210
331
207
  5
212
331
208
  5
213
331
209
  5
214
331
20A
  5
215
331
20B
  5
216
331
20C
  5
217
331
20E
  5
218
331
20F
  5
219
331
210
  5
21A
331
211
  5
21B
331
212
  5
21C
331
213
  5
21D
331
214
  5
21E
331
215
  5
21F
331
216
  5
220
331
217
  5
221
331
218
  5
222
331
219
  5
223
331
21A
  5
224
331
21B
  5
225
331
21C
  5
226
331
21D
  5
227
331
21E
  5
228
331
21F
  5
229
331
220
  5
22A
331
221
  5
22B
331
222
  5
22C
331
223
  5
22D
331
224
  5
22E
331
225
  5
22F
331
226
  5
230
331
227
  5
231
331
228
  5
232
331
229
  5
233
331
22A
  5
234
331
22B
  5
235
331
22C
  5
236
331
22D
  5
237
331
22E
  5
238
331
22F
  5
239
331
230
  5
23A
331
231
  5
23B
331
232
  5
23C
331
233
  5
23D
331
234
  5
23E
331
235
  5
23F
331
236
  5
240
331
237
  5
241
331
238
  5
242
331
239
  5
243
331
23A
  5
245
331
23B
  5
246
331
23C
  5
247
331
23D
  5
248
331
23E
  5
249
331
23F
  5
24A
331
241
  5
24B
331
242
  5
24C
331
243
  5
24D
331
244
  5
24E
331
245
  5
24F
331
246
  5
250
331
247
  5
251
331
248
  5
252
331
249
  5
253
331
24A
  5
254
331
24B
  5
255
331
24C
  5
256
331
24D
  5
258
331
24E
  5
259
331
24F
  5
25A
331
250
  5
25B
331
251
  5
25C
331
252
  5
25D
331
254
  5
25E
331
255
  5
25F
331
256
  5
260
331
257
  5
261
331
258
  5
262
331
259
  5
263
331
25A
  5
264
331
25B
  5
265
331
25C
  5
266
331
25D
  5
267
331
25E
  5
268
331
25F
  5
269
331
260
  5
26A
331
261
  5
26B
331
262
  5
26C
331
263
  5
26D
331
264
  5
26E
331
265
  5
26F
331
266
  5
270
331
267
  5
271
331
268
  5
272
331
269
  5
273
331
26A
  5
274
331
26B
  5
275
331
26C
  5
276
331
26D
  5
277
331
26E
  5
278
331
26F
  5
279
331
270
  5
27A
331
271
  5
27B
331
272
  5
27C
331
273
  5
27D
331
274
  5
27E
331
275
  5
27F
331
276
  5
280
331
277
  5
281
331
278
  5
282
331
279
  5
283
331
27A
  5
284
331
27B
  5
285
331
27C
  5
287
331
27D
  5
288
331
27E
  5
289
331
27F
  5
28A
331
280
  5
28B
331
281
  5
28C
331
283
  5
28D
331
284
  5
28E
331
285
  5
28F
331
286
  5
290
331
287
  5
291
331
288
  5
292
331
289
  5
293
331
28A
  5
294
331
28B
  5
295
331
28C
  5
296
331
28D
  5
297
331
28E
  5
298
331
28F
  5
299
331
290
  5
29B
331
291
  5
29C
331
292
  5
29D
331
293
  5
29E
331
294
  5
29F
331
295
  5
2A0
331
297
  5
2A1
331
298
  5
2A3
331
299
  5
2A4
331
29A
  5
2A5
331
29B
  5
2A6
331
29C
  5
2A7
331
29D
  5
2A8
331
29F
  5
2A9
331
2A0
  5
2AA
331
2A1
  5
2AC
331
2A2
  5
2AD
331
2A3
  5
2AE
331
2A4
  5
2AF
331
2A5
  5
2B0
331
2A6
  5
2B1
331
2A8
  5
2B2
331
2A9
  5
2B3
331
2AA
  5
2B4
331
2AB
  5
2B5
331
2AC
  5
2B7
331
2AD
  5
2B8
331
2AE
  5
2B9
331
2AF
  5
2BA
331
2B0
  5
2BB
331
2B1
  5
2BC
331
2B3
  5
2BD
331
2B4
  5
2BE
331
2B5
  5
2BF
331
2B6
  5
2C0
331
2B7
  5
2C1
331
2B8
  5
2C2
331
2B9
  5
2C3
331
2BA
  5
2C4
331
2BB
  5
2C5
331
2BC
  5
2C6
331
2BD
  5
2C7
331
2BE
  5
2C8
331
2BF
  5
2C9
331
2C0
  5
2CA
331
2C1
  5
2CB
331
2C2
  5
2CC
331
2C3
  5
2CD
331
2C4
  5
2CF
331
2C5
  5
2D0
331
2C6
  5
2D1
331
2C7
  5
2D2
331
2C8
  5
2D3
331
2C9
  5
2D4
331
0
  5
2D5
331
0
  5
2D6
331
0
  5
2D7
331
2CE
  5
2D8
331
2CF
  5
2D9
331
2D0
  5
2DA
331
2D1
  5
2DB
331
2D2
  5
2DC
331
2D3
  5
2DD
331
2D4
  5
2DE
331
2D5
  5
2DF
331
2D6
  5
2E0
331
0
  5
2E1
331
0
  5
2E2
331
2D9
  5
2E3
331
2DA
  5
2E4
331
2DB
  5
2E5
331
2DC
  5
2E6
331
2DD
  5
2E7
331
2DE
  5
3C0
331
2DF
  5
3C1
331
0
  5
3C2
331
0
  5
3C3
331
2E2
  5
3C4
331
0
  5
3C5
331
3BC
  5
3C6
331
3BD
  5
3C7
331
0
  5
3C8
331
3BF
  5
3C9
331
3C0
  5
3CA
331
3C1
  5
3CB
331
3C2
  5
3CD
331
3C3
  5
3CE
331
3C4
  5
3CF
331
3C5
  5
3D0
331
3C6
  5
3D1
331
3C7
  5
3D2
331
3C9
  5
3D3
331
0
  5
3D4
331
0
  5
3D5
331
0
  5
3D6
331
0
  5
3D7
331
0
  5
3D9
331
0
  5
3DA
331
0
  5
3DB
331
0
  5
3DC
331
3D2
  5
3DD
331
3D3
  5
3DE
331
3D5
  5
3DF
331
3D6
  5
3E0
331
3D7
  5
3E1
331
3D8
  5
3E2
331
3D9
  5
3E3
331
3DA
  5
3E4
331
3DB
  5
3E5
331
3DC
  5
3E6
331
3DD
  5
3E7
331
3DE
  5
3E8
331
3DF
  5
3E9
331
3E0
  5
3EA
331
3E1
  5
3EB
331
3E2
  5
3EC
331
3E3
  5
3ED
331
3E4
  5
3EE
331
3E5
  5
3EF
331
3E6
  5
3F0
331
0
  5
3F1
331
0
  5
3F2
331
0
  5
3F3
331
0
  5
3F4
331
0
  5
3F5
331
0
  5
3F6
331
0
  5
3F7
331
0
  5
3F8
331
0
  5
3F9
331
0
  5
3FA
331
0
  5
3FB
331
0
  5
3FC
331
0
  5
3FD
331
3F4
  5
3FE
331
3F5
  5
3FF
331
3F6
  5
400
331
3F7
  5
401
331
3F8
  5
402
331
3F9
  5
403
331
3FA
  5
404
331
3FB
  5
405
331
3FC
  5
406
331
3FD
  5
407
331
3FE
  5
408
331
3FF
  5
409
331
400
  5
40A
331
401
  5
40B
331
402
  5
40C
331
403
  5
40D
331
404
  5
40E
331
405
  5
40F
331
406
  5
410
331
407
  5
411
331
408
  5
412
331
409
  5
413
331
40A
  5
414
331
40B
  5
416
331
40C
  5
417
331
40D
  5
418
331
40E
  5
419
331
40F
  5
41A
331
410
  5
41B
331
412
  5
41C
331
413
  5
41D
331
414
  5
41E
331
415
  5
41F
331
416
  5
420
331
417
  5
421
331
418
  5
422
331
419
  5
423
331
41A
  5
424
331
41B
  5
425
331
41C
  5
426
331
41D
  5
427
331
41E
  5
428
331
41F
  5
429
331
420
  5
42A
331
421
  5
42B
331
422
  5
42C
331
423
  5
42D
331
424
  5
42E
331
425
  5
42F
331
426
  5
430
331
427
  5
431
331
428
  5
432
331
429
  5
433
331
42A
  5
434
331
42B
  5
435
331
42C
  5
436
331
42D
  5
437
331
42E
  5
438
331
42F
  5
439
331
430
  5
43A
331
431
  5
43B
331
432
  5
43C
331
433
  5
43D
331
434
  5
43E
331
435
  5
43F
331
436
  5
440
331
437
  5
441
331
438
  5
442
331
439
  5
443
331
43A
  5
444
331
0
  5
445
331
0
  5
446
331
43D
  5
447
331
43E
  5
448
331
43F
  5
449
331
440
  5
44A
331
441
  5
44B
331
0
  5
44C
331
0
  5
44D
331
0
  5
44E
331
0
  5
44F
331
446
  5
450
331
447
  5
451
331
448
  5
453
331
449
  5
454
331
44A
  5
455
331
44B
  5
456
331
44C
  5
457
331
44D
  5
458
331
44E
  5
459
331
44F
  5
45A
331
450
  5
45B
331
451
  5
45C
331
452
  5
45D
331
453
  5
45E
331
454
  5
45F
331
455
  5
460
331
456
  5
461
331
457
  5
462
331
458
  5
463
331
459
  5
464
331
45A
  5
465
331
45B
  5
466
331
45C
  5
481
331
45D
  5
482
331
45E
  5
483
331
45F
  5
484
331
460
  5
485
331
461
  5
486
331
47C
  5
487
331
47D
  5
488
331
47E
  5
489
331
47F
  5
48A
331
480
  5
48B
331
481
  5
48C
331
0
  5
48D
331
0
  5
48E
331
0
  5
48F
331
0
  5
490
331
0
  5
491
331
0
  5
492
331
0
  5
493
331
0
  5
494
331
0
  5
495
331
0
  5
496
331
0
  5
497
331
48D
  5
498
331
48E
  5
499
331
48F
  5
49A
331
0
  5
49D
331
0
  5
49E
331
492
  5
49F
331
493
  5
4A0
331
494
  5
4A1
331
495
  5
4A2
331
498
  5
4A3
331
499
  5
4A4
331
49A
  5
4A5
331
49B
  5
4A6
331
49C
  5
4A7
331
49D
  5
4A8
331
49E
  5
4A9
331
49F
  5
4AA
331
4A0
  5
4AB
331
4A1
  5
4AC
331
4A2
  5
4AD
331
4A3
  5
4AE
331
4A4
  5
4AF
331
4A5
  5
4B0
331
4A6
  5
4B1
331
4A7
  5
4B2
331
4A8
  5
4B3
331
4A9
  5
4B4
331
4AA
  5
4B5
331
4AB
  5
4B6
331
4AC
  5
4B7
331
4AD
  5
4B8
331
4AE
  5
4B9
331
4AF
  5
4BA
331
4B0
  5
4BB
331
4B1
  5
4BC
331
4B2
  5
4BD
331
4B3
  5
4BE
331
4B4
  5
4BF
331
4B5
  5
4C0
331
4B6
  5
4C1
331
4B7
  5
4C2
331
4B8
  5
4C3
331
4B9
  5
4C4
331
4BA
  5
4C5
331
4BB
  5
4C6
331
4BC
  5
4C7
331
4BD
  5
4C8
331
4BE
  5
4C9
331
4BF
  5
4CA
331
4C0
  5
4CB
331
4C1
  5
4CC
331
4C2
  5
4CD
331
4C3
  5
4CE
331
4C4
  5
4CF
331
4C5
  5
4D0
331
0
  5
4D1
331
4C7
  5
4D2
331
4C8
  5
4D3
331
4C9
  5
4D4
331
0
  5
4D5
331
0
  5
4D6
331
0
  5
4D7
331
0
  5
4D8
331
4CE
  5
4D9
331
4CF
  5
4DA
331
0
  5
4DB
331
0
  5
4DC
331
0
  5
4DD
331
0
  5
4DE
331
0
  5
4DF
331
0
  5
4E0
331
0
  5
4E1
331
0
  5
4E2
331
0
  5
4E3
331
4D9
  5
4E4
331
4DA
  5
4E5
331
4DB
  5
4E6
331
4DC
  5
4E7
331
4DD
  5
4E8
331
4DE
  5
4E9
331
4DF
  5
4EA
331
4E0
  5
4EB
331
4E1
  5
4EC
331
4E2
  5
4ED
331
4E3
  5
4EE
331
4E4
  5
4EF
331
4E5
  5
4F0
331
4E6
  5
4F1
331
4E7
  5
4F2
331
4E8
  5
4F3
331
4E9
  5
4F4
331
0
  5
4F5
331
4EB
  5
4F6
331
4EC
  5
4F7
331
4ED
  5
4F8
331
4EE
  5
4F9
331
4EF
  5
4FA
331
4F0
  5
4FB
331
4F1
  5
4FC
331
4F2
  5
4FD
331
4F3
  5
4FE
331
4F4
  5
4FF
331
4F5
  5
500
331
4F6
  5
501
331
4F7
  5
502
331
4F8
  5
503
331
4F9
  5
504
331
4FA
  5
505
331
4FB
  5
506
331
4FC
  5
507
331
4FD
  5
508
331
4FE
  5
509
331
4FF
  5
50A
331
500
  5
50B
331
501
  5
50C
331
502
  5
50D
331
503
  5
50E
331
504
  5
50F
331
505
  5
510
331
506
  5
511
331
507
  5
512
331
508
  5
513
331
509
  5
514
331
50A
  5
515
331
50B
  5
516
331
50C
  5
517
331
50D
  5
518
331
50E
  5
519
331
50F
  5
51A
331
510
  5
51B
331
511
  5
51C
331
512
  5
51D
331
513
  5
51E
331
514
  5
51F
331
515
  5
520
331
516
  5
521
331
517
  5
522
331
518
  5
523
331
519
  5
524
331
51A
  5
525
331
51B
  5
526
331
51C
  5
527
331
51D
  5
528
331
51E
  5
529
331
51F
  5
52A
331
520
  5
52B
331
521
  5
52C
331
0
  5
52D
331
0
  5
52E
331
0
  5
52F
331
0
  5
530
331
526
  5
531
331
527
  5
532
331
528
  5
533
331
529
  5
534
331
52A
  5
535
331
52B
  5
536
331
52C
  5
537
331
52D
  5
538
331
52E
  5
539
331
52F
  5
53A
331
530
  5
53B
331
531
  5
53C
331
532
  5
53D
331
533
  5
53E
331
534
  5
53F
331
535
  5
540
331
536
  5
541
331
537
  5
542
331
538
  5
543
331
539
  5
544
331
53A
  5
545
331
53B
  5
546
331
53C
  5
547
331
53D
  5
548
331
53E
  5
5B1
331
53F
  5
5B2
331
540
  5
5B3
331
541
  5
5B4
331
542
  5
5B5
331
543
  5
129E
331
0
  5
12A0
331
545
  5
12A1
331
0
  5
12A2
331
0
  5
12A3
331
0
  5
12A4
331
5BD
  5
12A5
331
0
  5
12A6
331
0
  5
12A7
331
0
  5
12A8
331
0
  5
12A9
331
0
  5
12AA
331
0
  5
12AB
331
0
  5
12B1
331
0
  5
12B2
331
0
  5
12B3
331
0
  5
12B4
331
0
  5
12B5
331
0
  5
12B6
331
0
  5
12B9
331
0
  5
12BA
331
0
  5
12BB
331
0
  5
12BC
331
0
  5
12BD
331
0
  5
12BE
331
0
  5
12BF
331
0
  5
12C0
331
0
  5
12C1
331
0
  5
12C2
331
0
  5
12C3
331
0
  5
12C4
331
0
  5
12C5
331
0
  5
12C6
331
0
  5
12C7
331
0
  5
12C8
331
0
  5
12C9
331
0
  5
12CA
331
0
  5
12CB
331
0
  5
12CC
331
0
  5
12CD
331
0
  5
12CE
331
0
  5
12CF
331
0
  5
12D0
331
0
  5
12D1
331
0
  5
12D2
331
0
  5
12D3
331
0
  5
12D4
331
0
  5
12D5
331
0
  5
12D6
331
0
  5
12D7
331
0
  5
12D8
331
0
  5
12D9
331
0
  5
12DA
331
0
  5
12DB
331
0
  5
12DC
331
0
  5
12DD
331
0
  5
12DE
331
0
  5
12DF
331
0
  5
12E0
331
0
  5
12E1
331
0
  5
12E2
331
0
  5
12E3
331
0
  5
12E4
331
0
  5
12E5
331
0
  5
12E6
331
0
  5
12E7
331
0
  5
12E8
331
0
  5
12E9
331
0
  5
12EA
331
0
  5
12EB
331
0
  5
12EC
331
0
  5
12ED
331
0
  5
12EE
331
0
  5
12EF
331
0
  5
12F0
331
0
  5
12F1
331
0
  5
12F2
331
0
  5
12F3
331
0
  5
12F4
331
0
  5
12F5
331
0
  5
12F6
331
0
  5
12F7
331
0
  5
12F8
331
0
  5
12F9
331
0
  5
12FA
331
0
  5
12FB
331
0
  5
12FC
331
0
  5
12FD
331
0
  5
12FE
331
0
  5
12FF
331
0
  5
1300
331
0
  5
1301
331
0
  5
1302
331
0
  5
1303
331
0
  5
1304
331
0
  5
1305
331
0
  5
1306
331
0
  5
1307
331
0
  5
1308
331
0
  5
1309
331
0
  5
130A
331
0
  5
130B
331
0
  5
130C
331
0
  5
130D
331
0
  5
130E
331
0
  5
130F
331
0
  5
1310
331
0
  5
1311
331
0
  5
1312
331
0
  5
1313
331
0
  5
1314
331
0
  5
1315
331
0
  5
1316
331
0
  5
1317
331
0
  5
1318
331
0
  5
1319
331
0
  5
131A
331
0
  5
131B
331
0
  5
131C
331
0
  5
131D
331
0
  5
131E
331
0
  5
131F
331
0
  5
1320
331
0
  5
1321
331
0
  5
1322
331
0
  5
1323
331
0
  5
1324
331
0
  5
1325
331
0
  5
1326
331
0
  5
1327
331
0
  5
1328
331
0
  5
1329
331
0
  5
132A
331
0
  5
132B
331
0
  5
132C
331
0
  5
132D
331
0
  5
132E
331
0
  5
132F
331
0
  5
1330
331
0
  5
1331
331
0
  5
1332
331
0
  5
1333
331
0
  5
1334
331
0
  5
1335
331
0
  5
1336
331
0
  5
1337
331
0
  5
1338
331
0
  5
1339
331
0
  5
133A
331
0
  5
133B
331
0
  5
133C
331
0
  5
133D
331
0
  5
133E
331
0
  5
133F
331
0
  5
1340
331
0
  5
1341
331
0
  5
1342
331
0
  5
1343
331
0
  5
1344
331
0
  5
1345
331
0
  5
1346
331
0
  5
1347
331
0
  5
1348
331
0
  5
1349
331
0
  5
134A
331
0
  5
134B
331
0
  5
134C
331
0
  5
134D
331
0
  5
134E
331
0
  5
134F
331
0
  5
1350
331
0
  5
1351
331
0
  5
1352
331
0
  5
1353
331
0
  5
1354
331
0
  5
1355
331
0
  5
1356
331
0
  5
1357
331
0
  5
1358
331
0
  5
1359
331
0
  5
135A
331
0
  5
135B
331
0
  5
135C
331
0
  5
135D
331
0
  5
135E
331
0
  5
135F
331
0
  5
1360
331
0
  5
1361
331
0
  5
1362
331
0
  5
1363
331
0
  5
1364
331
0
  5
1365
331
0
  5
1366
331
0
  5
1367
331
0
  5
1368
331
0
  5
1369
331
0
  5
136A
331
0
  5
136B
331
0
  5
1378
331
0
  5
1379
331
0
  5
137A
331
0
  5
137B
331
0
  5
137C
331
0
  5
137D
331
0
  5
137E
331
0
  5
137F
331
0
  5
1380
331
0
  5
1381
331
0
  5
1382
331
0
  5
1383
331
0
  5
1384
331
0
  5
1385
331
0
  5
1386
331
0
  5
1387
331
0
  5
1388
331
0
  5
1389
331
0
  5
138A
331
0
  5
138B
331
0
  5
138C
331
0
  5
138D
331
0
  5
138E
331
0
  5
138F
331
0
  5
1390
331
0
  5
1391
331
0
  5
1392
331
0
  5
1393
331
0
  5
1394
331
0
  5
1395
331
0
  5
1396
331
0
  5
1397
331
0
  5
1398
331
0
  5
1399
331
0
  5
139C
331
0
  5
139D
331
0
  5
13A0
331
0
  5
13A1
331
0
  5
13A2
331
0
  5
13A3
331
0
  5
13A4
331
0
  5
13A5
331
0
  5
13A6
331
0
  5
13A7
331
0
  5
13A8
331
0
  5
13A9
331
0
  5
13AA
331
0
  5
13AB
331
0
  5
13AC
331
0
  5
13AD
331
0
  5
13BA
331
0
  5
13BB
331
0
  5
13BC
331
0
  5
13BD
331
0
  5
13BE
331
0
  5
13BF
331
0
  5
13C0
331
0
  5
13C1
331
0
  5
13C2
331
0
  5
13C3
331
0
  5
13C4
331
0
  5
13C5
331
0
  5
13C6
331
0
  5
13C7
331
0
  5
13C8
331
0
  5
13C9
331
0
  5
13CA
331
0
  5
13CB
331
0
  5
13CC
331
0
  5
13CD
331
0
  5
13CE
331
0
  5
13CF
331
0
  5
13D0
331
0
  5
13D1
331
0
  5
13D2
331
0
  5
13D3
331
0
  5
13D4
331
0
  5
13D5
331
0
  5
13D6
331
0
  5
13D7
331
0
  5
13D8
331
0
  5
13D9
331
0
  5
13DA
331
0
  5
13DB
331
0
  5
13DC
331
0
  5
13DD
331
0
  5
13DE
331
0
  5
13DF
331
0
  5
13E0
331
0
  5
13E1
331
0
  5
13E2
331
0
  5
13E3
331
0
  5
13E4
331
0
  5
13E5
331
0
  5
13E6
331
0
  5
13E7
331
0
  5
13E8
331
0
  5
13E9
331
0
  5
13EA
331
0
  5
13EB
331
0
  5
13EC
331
0
  5
13ED
331
0
  5
13EE
331
0
  5
13EF
331
0
  5
13F0
331
0
  5
13F1
331
0
  5
13F2
331
0
  5
13F3
331
0
  5
13F4
331
0
  5
13F5
331
0
  5
13F6
331
0
  5
13F7
331
0
  5
13F8
331
0
  5
13F9
331
0
  5
13FA
331
0
  5
13FB
331
0
  5
13FC
331
0
  5
13FD
331
0
  5
13FE
331
0
  5
13FF
331
0
  5
1400
331
0
  5
1401
331
0
  5
1402
331
0
  5
1403
331
0
  5
1404
331
0
  5
1405
331
0
  5
1406
331
0
  5
1407
331
0
  5
1408
331
0
  5
1409
331
0
  5
140A
331
0
  5
140B
331
0
  5
140C
331
0
  5
140D
331
0
  5
140E
331
0
  5
140F
331
0
  5
1410
331
0
  5
1411
331
0
  5
1412
331
0
  5
1413
331
0
  5
1EA7
331
0
  5
1EA8
331
0
  5
1EA9
331
0
  5
1EAA
331
0
  5
1EAB
331
0
  5
1EAC
331
0
  5
1EAD
331
0
  5
1EAE
331
0
  5
1EAF
331
0
  5
1EB0
331
0
  5
1EB1
331
1EA7
  5
1EB2
331
0
  5
1EB3
331
0
  5
1EB4
331
0
  5
1EB5
331
0
  5
1EB6
331
0
  5
1EB9
331
0
  5
1EBA
331
0
  5
1EBB
331
0
  5
1EBE
331
0
  5
1EBF
331
0
  5
1EC0
331
0
  5
1EC1
331
0
  5
1EC4
331
0
  5
1EC5
331
0
  5
1EC6
331
0
  5
1EC7
331
0
  5
1EC8
331
0
  5
1EC9
331
1EBF
  5
1ECC
331
1EC0
  5
1ED0
331
1EC1
  5
1ED1
331
1EC2
  5
1ED2
331
1EC3
  5
1ED3
331
1EC4
  5
1ED5
331
1EC5
  5
1ED8
331
1EC9
  5
452
331
0
  5
1EDB
331
1ECD
  5
1EDC
331
1ECE
  5
1EDD
331
1ECF
  5
1EDF
331
0
  5
1EEE
331
0
  5
1EEF
331
1ED7
  5
1EF0
331
1ED8
  5
1EF1
331
1ED9
  5
1EF2
331
1EDB
  5
1EF3
331
1EEE
  5
1EF4
331
1EEF
  5
1EF5
331
1EF0
  5
1EF6
331
1EF1
  5
1EF7
331
1EF2
  5
1EF8
331
1EF3
  5
1EF9
331
1EF4
  5
1EFE
331
1EF5
  5
1EFF
331
1EF6
  5
1F00
331
1EF7
  5
1F01
331
1EF8
  5
1F02
331
1EF9
  5
1F03
331
1EFE
  5
1F04
331
1EFF
  5
1F05
331
1F00
  5
1F06
331
1F01
  5
1F07
331
1F02
  5
1F08
331
1F03
  5
1F09
331
1F04
  5
1F0A
331
1F05
  5
1F0C
331
1F06
  5
1F0D
331
1F07
  5
1F10
331
1F08
  5
1F11
331
1F09
  5
1F12
331
1F0A
  5
1F13
331
0
  5
1F14
331
0
  5
1F15
331
1F10
  5
1F16
331
1F11
  5
1F17
331
1F12
  5
1F18
331
1F13
  5
1F19
331
1F14
  5
1F1A
331
1F15
  5
1F1B
331
1F16
  5
1F1C
331
1F17
  5
1F1D
331
1F18
  5
1F1E
331
1F19
  5
1F1F
331
1F1A
  5
1F20
331
1F1B
  5
1F21
331
1F1C
  5
1F23
331
1F1D
  5
1F24
331
1F1E
  5
1F25
331
1F1F
  5
1F26
331
1F20
  5
1F27
331
1F21
  5
1F28
331
1F23
  5
1F2A
331
1F24
  5
1F2B
331
1F25
  5
1F2D
331
1F26
  5
1F2E
331
1F27
  5
1F2F
331
1F29
  5
1F30
331
1F2A
  5
1F32
331
1F2B
  5
1F33
331
1F2C
  5
1F34
331
1F2D
  5
1F35
331
1F2E
  5
1F36
331
1F2F
  5
1F37
331
1F31
  5
1F2C
331
0
  5
1F39
331
0
  5
1F3A
331
0
  5
1F3B
331
0
  5
1F3C
331
0
  5
1F3D
331
0
  5
1F3E
331
0
  5
1F3F
331
0
  5
1F40
331
0
  5
1F41
331
0
  5
1F42
331
0
  5
1F43
331
0
  5
1F46
331
0
  5
1F47
331
0
  5
1F48
331
0
  5
1F49
331
0
  5
1F4A
331
0
  5
1F4B
331
0
  5
1F4C
331
0
  5
1F4D
331
0
  5
1F4E
331
0
  5
1F4F
331
0
  5
1F50
331
0
  5
1F51
331
0
  5
1F52
331
0
  5
1F53
331
0
  5
1F54
331
0
  5
1F55
331
0
  5
1F56
331
0
  5
1F57
331
0
  5
1F58
331
0
  5
1F5A
331
0
  5
1F5B
331
0
  5
1F5C
331
1F56
  5
1F5D
331
0
  5
1F5E
331
1F58
  5
1F5F
331
1F5A
  5
1F60
331
1F5B
  5
1F61
331
1F5C
  5
1F62
331
1F5D
  5
1F63
331
1F5E
  5
1F64
331
1F5F
  5
1F65
331
0
  5
1F66
  0
LAYOUT
  5
A
102
{ACAD_REACTORS
330
B
102
}
330
B
100
AcDbPlotSettings
  1

  2
Bullzip PDF Printer.pc3
  4
A3
  6

 40
0.2
 41
0.0
 42
0.0
 43
0.0
 44
420.2
 45
297.1
 46
25.0
 47
12.0
 48
99.99999976666686
 49
0.0
140
2009.999995391667
141
1362.499996820833
142
1.0
143
5.0
 70
 11936
 72
     1
 73
     0
 74
     4
  7
monochrome.ctb
 75
     0
147
0.2
148
-99.99999976666686
149
0.0
100
AcDbLayout
  1
Model
 70
     0
 71
     0
 10
0.0
 20
0.0
 11
12.0
 21
9.0
 12
0.0
 22
0.0
 32
0.0
 14
172.5157621771646
 24
30.47698097295938
 34
0.0
 15
2025.377834579387
 25
7827.222674703602
 35
0.0
146
0.0
 13
0.0
 23
0.0
 33
0.0
 16
1.0
 26
0.0
 36
0.0
 17
0.0
 27
1.0
 37
0.0
 76
     0
330
2
331
5F8
1001
ACAD_PSEXT
1000
Bullzip PDF Printer.pc3
1000
Bullzip PDF Printer
1000
BULLZIP
1000
Bullzip PDF Printer 10.1.0.1871
1070
     0
  0
LAYOUT
  5
F
102
{ACAD_REACTORS
330
B
102
}
330
B
100
AcDbPlotSettings
  1

  2
SR-LP8300F
  4

  6

 40
0.0
 41
0.0
 42
0.0
 43
0.0
 44
0.0
 45
0.0
 46
0.0
 47
0.0
 48
0.0
 49
0.0
140
0.0
141
0.0
142
1.0
143
1.0
 70
   688
 72
     0
 73
     0
 74
     5
  7
monochrome.ctb
 75
    16
147
1.0
148
0.0
149
0.0
100
AcDbLayout
  1
ﾚｲｱｳﾄ1
 70
     0
 71
     1
 10
0.0
 20
0.0
 11
12.0
 21
9.0
 12
0.0
 22
0.0
 32
0.0
 14
1000000000000000E+20
 24
1000000000000000E+20
 34
1000000000000000E+20
 15
-1000000000000000E+20
 25
-1000000000000000E+20
 35
-1000000000000000E+20
146
0.0
 13
0.0
 23
0.0
 33
0.0
 16
1.0
 26
0.0
 36
0.0
 17
0.0
 27
1.0
 37
0.0
 76
     0
330
C
  0
MATERIAL
  5
636
102
{ACAD_REACTORS
330
634
102
}
102
{ACAD_XDICTIONARY
360
1FA2
102
}
330
634
100
AcDbMaterial
  1
ByBlock
  0
MATERIAL
  5
635
102
{ACAD_REACTORS
330
634
102
}
102
{ACAD_XDICTIONARY
360
1FA0
102
}
330
634
100
AcDbMaterial
  1
ByLayer
  0
MATERIAL
  5
637
102
{ACAD_REACTORS
330
634
102
}
102
{ACAD_XDICTIONARY
360
1FA4
102
}
330
634
100
AcDbMaterial
  1
Global
1001
ACAD
1070
    -1
1070
     3
1070
     0
1000

1071
        0
  0
MLEADERSTYLE
  5
664
102
{ACAD_REACTORS
330
638
102
}
102
{ACAD_XDICTIONARY
360
1FA6
102
}
330
638
100
AcDbMLeaderStyle
170
     2
171
     1
172
     0
 90
        2
 40
0.0
 41
0.0
173
     1
 91
-1056964608
340
15
 92
       -2
290
     1
 42
0.09
291
     1
 43
0.36
  3
Standard
341
0
 44
0.18
300

342
12
174
     1
178
     6
175
     1
176
     0
 93
-1056964608
 45
0.18
292
     0
297
     0
 46
0.18
343
0
 94
-1056964608
 47
1.0
 49
1.0
140
1.0
293
     1
141
0.0
294
     1
177
     0
142
1.0
295
     0
296
     0
143
0.125
1001
ACAD_MLEADERVER
1070
     2
  0
MLINESTYLE
  5
24
102
{ACAD_REACTORS
330
20
102
}
330
20
100
AcDbMlineStyle
  2
STANDARD
 70
     0
  3

 62
     0
 51
90.0
 52
90.0
 71
     2
 49
0.5
 62
   256
  6
BYLAYER
 49
-0.5
 62
   256
  6
BYLAYER
  0
ACDBPLACEHOLDER
  5
5
102
{ACAD_REACTORS
330
6
102
}
330
6
  0
SCALE
  5
613
102
{ACAD_REACTORS
330
612
102
}
330
612
100
AcDbScale
 70
     0
300
1:1
140
1.0
141
1.0
290
     1
  0
SCALE
  5
614
102
{ACAD_REACTORS
330
612
102
}
330
612
100
AcDbScale
 70
     0
300
1:2
140
1.0
141
2.0
290
     0
  0
SCALE
  5
615
102
{ACAD_REACTORS
330
612
102
}
330
612
100
AcDbScale
 70
     0
300
1:4
140
1.0
141
4.0
290
     0
  0
SCALE
  5
616
102
{ACAD_REACTORS
330
612
102
}
330
612
100
AcDbScale
 70
     0
300
1:5
140
1.0
141
5.0
290
     0
  0
SCALE
  5
617
102
{ACAD_REACTORS
330
612
102
}
330
612
100
AcDbScale
 70
     0
300
1:8
140
1.0
141
8.0
290
     0
  0
SCALE
  5
618
102
{ACAD_REACTORS
330
612
102
}
330
612
100
AcDbScale
 70
     0
300
1:10
140
1.0
141
10.0
290
     0
  0
SCALE
  5
619
102
{ACAD_REACTORS
330
612
102
}
330
612
100
AcDbScale
 70
     0
300
1:16
140
1.0
141
16.0
290
     0
  0
SCALE
  5
61A
102
{ACAD_REACTORS
330
612
102
}
330
612
100
AcDbScale
 70
     0
300
1:20
140
1.0
141
20.0
290
     0
  0
SCALE
  5
61B
102
{ACAD_REACTORS
330
612
102
}
330
612
100
AcDbScale
 70
     0
300
1:30
140
1.0
141
30.0
290
     0
  0
SCALE
  5
61C
102
{ACAD_REACTORS
330
612
102
}
330
612
100
AcDbScale
 70
     0
300
1:40
140
1.0
141
40.0
290
     0
  0
SCALE
  5
61D
102
{ACAD_REACTORS
330
612
102
}
330
612
100
AcDbScale
 70
     0
300
1:50
140
1.0
141
50.0
290
     0
  0
SCALE
  5
61E
102
{ACAD_REACTORS
330
612
102
}
330
612
100
AcDbScale
 70
     0
300
1:100
140
1.0
141
100.0
290
     0
  0
SCALE
  5
61F
102
{ACAD_REACTORS
330
612
102
}
330
612
100
AcDbScale
 70
     0
300
2:1
140
2.0
141
1.0
290
     0
  0
SCALE
  5
620
102
{ACAD_REACTORS
330
612
102
}
330
612
100
AcDbScale
 70
     0
300
4:1
140
4.0
141
1.0
290
     0
  0
SCALE
  5
621
102
{ACAD_REACTORS
330
612
102
}
330
612
100
AcDbScale
 70
     0
300
8:1
140
8.0
141
1.0
290
     0
  0
SCALE
  5
622
102
{ACAD_REACTORS
330
612
102
}
330
612
100
AcDbScale
 70
     0
300
10:1
140
10.0
141
1.0
290
     0
  0
SCALE
  5
623
102
{ACAD_REACTORS
330
612
102
}
330
612
100
AcDbScale
 70
     0
300
100:1
140
100.0
141
1.0
290
     0
  0
SCALE
  5
624
102
{ACAD_REACTORS
330
612
102
}
330
612
100
AcDbScale
 70
     0
300
1/128" = 1'-0"
140
0.0078125
141
12.0
290
     0
  0
SCALE
  5
625
102
{ACAD_REACTORS
330
612
102
}
330
612
100
AcDbScale
 70
     0
300
1/64" = 1'-0"
140
0.015625
141
12.0
290
     0
  0
SCALE
  5
626
102
{ACAD_REACTORS
330
612
102
}
330
612
100
AcDbScale
 70
     0
300
1/32" = 1'-0"
140
0.03125
141
12.0
290
     0
  0
SCALE
  5
627
102
{ACAD_REACTORS
330
612
102
}
330
612
100
AcDbScale
 70
     0
300
1/16" = 1'-0"
140
0.0625
141
12.0
290
     0
  0
SCALE
  5
628
102
{ACAD_REACTORS
330
612
102
}
330
612
100
AcDbScale
 70
     0
300
3/32" = 1'-0"
140
0.09375
141
12.0
290
     0
  0
SCALE
  5
629
102
{ACAD_REACTORS
330
612
102
}
330
612
100
AcDbScale
 70
     0
300
1/8" = 1'-0"
140
0.125
141
12.0
290
     0
  0
SCALE
  5
62A
102
{ACAD_REACTORS
330
612
102
}
330
612
100
AcDbScale
 70
     0
300
3/16" = 1'-0"
140
0.1875
141
12.0
290
     0
  0
SCALE
  5
62B
102
{ACAD_REACTORS
330
612
102
}
330
612
100
AcDbScale
 70
     0
300
1/4" = 1'-0"
140
0.25
141
12.0
290
     0
  0
SCALE
  5
62C
102
{ACAD_REACTORS
330
612
102
}
330
612
100
AcDbScale
 70
     0
300
3/8" = 1'-0"
140
0.375
141
12.0
290
     0
  0
SCALE
  5
62D
102
{ACAD_REACTORS
330
612
102
}
330
612
100
AcDbScale
 70
     0
300
1/2" = 1'-0"
140
0.5
141
12.0
290
     0
  0
SCALE
  5
62E
102
{ACAD_REACTORS
330
612
102
}
330
612
100
AcDbScale
 70
     0
300
3/4" = 1'-0"
140
0.75
141
12.0
290
     0
  0
SCALE
  5
62F
102
{ACAD_REACTORS
330
612
102
}
330
612
100
AcDbScale
 70
     0
300
1" = 1'-0"
140
1.0
141
12.0
290
     0
  0
SCALE
  5
630
102
{ACAD_REACTORS
330
612
102
}
330
612
100
AcDbScale
 70
     0
300
1-1/2" = 1'-0"
140
1.5
141
12.0
290
     0
  0
SCALE
  5
631
102
{ACAD_REACTORS
330
612
102
}
330
612
100
AcDbScale
 70
     0
300
3" = 1'-0"
140
3.0
141
12.0
290
     0
  0
SCALE
  5
632
102
{ACAD_REACTORS
330
612
102
}
330
612
100
AcDbScale
 70
     0
300
6" = 1'-0"
140
6.0
141
12.0
290
     0
  0
SCALE
  5
633
102
{ACAD_REACTORS
330
612
102
}
330
612
100
AcDbScale
 70
     0
300
1'-0" = 1'-0"
140
12.0
141
12.0
290
     0
  0
TABLESTYLE
  5
663
102
{ACAD_REACTORS
330
63A
102
}
330
63A
100
AcDbTableStyle
  3
Standard
 70
     0
 71
     0
 40
0.06
 41
0.06
280
     0
281
     0
  7
STANDARD
140
0.18
170
     2
 62
     0
 63
   257
283
     0
274
    -2
284
     1
 64
     0
275
    -2
285
     1
 65
     0
276
    -2
286
     1
 66
     0
277
    -2
287
     1
 67
     0
278
    -2
288
     1
 68
     0
279
    -2
289
     1
 69
     0
  7
STANDARD
140
0.25
170
     5
 62
     0
 63
   257
283
     0
274
    -2
284
     1
 64
     0
275
    -2
285
     1
 65
     0
276
    -2
286
     1
 66
     0
277
    -2
287
     1
 67
     0
278
    -2
288
     1
 68
     0
279
    -2
289
     1
 69
     0
  7
STANDARD
140
0.18
170
     5
 62
     0
 63
   257
283
     0
274
    -2
284
     1
 64
     0
275
    -2
285
     1
 65
     0
276
    -2
286
     1
 66
     0
277
    -2
287
     1
 67
     0
278
    -2
288
     1
 68
     0
279
    -2
289
     1
 69
     0
  0
VISUALSTYLE
  5
5FE
102
{ACAD_REACTORS
330
5F9
102
}
102
{ACAD_XDICTIONARY
360
1F78
102
}
330
5F9
100
AcDbVisualStyle
  2
2dWireframe
 70
     4
 71
     0
 72
     2
 73
     0
 90
        0
 40
0.6
 41
30.0
 62
     5
 63
     7
 74
     1
 91
        4
 64
     7
 65
   257
 75
     1
175
     1
 42
1.0
 92
        0
 66
   257
 43
1.0
 76
     1
 77
     6
 78
     2
 67
     7
 79
     5
170
     0
171
     0
290
     0
174
     0
 93
        1
 44
0.0
173
     0
291
     0
 45
0.0
1001
ACAD
1000
AcDbSavedByObjectVersion
1070
     0
  0
VISUALSTYLE
  5
601
102
{ACAD_REACTORS
330
5F9
102
}
102
{ACAD_XDICTIONARY
360
1F7E
102
}
330
5F9
100
AcDbVisualStyle
  2
Basic
 70
     7
 71
     1
 72
     0
 73
     1
 90
        0
 40
0.6
 41
30.0
 62
     5
 63
     7
 74
     0
 91
        4
 64
     7
 65
   257
 75
     1
175
     1
 42
1.0
 92
        8
 66
     7
 43
1.0
 76
     1
 77
     6
 78
     2
 67
     7
 79
     5
170
     0
171
     0
290
     0
174
     0
 93
        1
 44
0.0
173
     0
291
     1
 45
0.0
1001
ACAD
1000
AcDbSavedByObjectVersion
1070
     0
  0
VISUALSTYLE
  5
605
102
{ACAD_REACTORS
330
5F9
102
}
102
{ACAD_XDICTIONARY
360
1F86
102
}
330
5F9
100
AcDbVisualStyle
  2
Brighten
 70
    12
 71
     2
 72
     2
 73
     0
 90
        0
 40
0.6
 41
30.0
 62
     5
 63
     7
 74
     1
 91
        4
 64
     7
 65
   257
 75
     1
175
     1
 42
1.0
 92
        8
 66
     7
 43
1.0
 76
     1
 77
     6
 78
     2
 67
     7
 79
     5
170
     0
171
     0
290
     0
174
     0
 93
        1
 44
50.0
173
     0
291
     1
 45
0.0
1001
ACAD
1000
AcDbSavedByObjectVersion
1070
     0
  0
VISUALSTYLE
  5
609
102
{ACAD_REACTORS
330
5F9
102
}
102
{ACAD_XDICTIONARY
360
1F8E
102
}
330
5F9
100
AcDbVisualStyle
  2
ColorChange
 70
    16
 71
     2
 72
     2
 73
     3
 90
        0
 40
0.6
 41
30.0
 62
     5
 63
     8
 74
     1
 91
        4
 64
     7
 65
   257
 75
     1
175
     1
 42
1.0
 92
        8
 66
     8
 43
1.0
 76
     1
 77
     6
 78
     2
 67
     7
 79
     5
170
     0
171
     0
290
     0
174
     0
 93
        1
 44
0.0
173
     0
291
     1
 45
0.0
1001
ACAD
1000
AcDbSavedByObjectVersion
1070
     0
  0
VISUALSTYLE
  5
603
102
{ACAD_REACTORS
330
5F9
102
}
102
{ACAD_XDICTIONARY
360
1F82
102
}
330
5F9
100
AcDbVisualStyle
  2
Conceptual
 70
     9
 71
     3
 72
     2
 73
     0
 90
        0
 40
0.6
 41
30.0
 62
     5
 63
     7
 74
     2
 91
        2
 64
     7
 65
   257
 75
     1
175
     1
 42
40.0
 92
        8
 66
     7
 43
1.0
 76
     1
 77
     6
 78
     2
 67
     7
 79
     3
170
     0
171
     0
290
     0
174
     0
 93
        1
 44
0.0
173
     0
291
     0
 45
0.0
1001
ACAD
1000
AcDbSavedByObjectVersion
1070
     0
  0
VISUALSTYLE
  5
604
102
{ACAD_REACTORS
330
5F9
102
}
102
{ACAD_XDICTIONARY
360
1F84
102
}
330
5F9
100
AcDbVisualStyle
  2
Dim
 70
    11
 71
     2
 72
     2
 73
     0
 90
        0
 40
0.6
 41
30.0
 62
     5
 63
     7
 74
     1
 91
        4
 64
     7
 65
   257
 75
     1
175
     1
 42
1.0
 92
        8
 66
     7
 43
1.0
 76
     1
 77
     6
 78
     2
 67
     7
 79
     5
170
     0
171
     0
290
     0
174
     0
 93
        1
 44
-50.0
173
     0
291
     1
 45
0.0
1001
ACAD
1000
AcDbSavedByObjectVersion
1070
     0
  0
VISUALSTYLE
  5
60C
102
{ACAD_REACTORS
330
5F9
102
}
102
{ACAD_XDICTIONARY
360
1F94
102
}
330
5F9
100
AcDbVisualStyle
  2
EdgeColorOff
 70
    22
 71
     2
 72
     2
 73
     0
 90
        0
 40
0.6
 41
30.0
 62
     5
 63
     7
 74
     1
 91
        4
 64
     7
 65
   257
 75
     1
175
     1
 42
1.0
 92
        8
 66
     7
 43
1.0
 76
     1
 77
     6
 78
     2
 67
     7
 79
     5
170
     0
171
     0
290
     0
174
     0
 93
        1
 44
0.0
173
     0
291
     1
 45
0.0
1001
ACAD
1000
AcDbSavedByObjectVersion
1070
     0
  0
VISUALSTYLE
  5
608
102
{ACAD_REACTORS
330
5F9
102
}
102
{ACAD_XDICTIONARY
360
1F8C
102
}
330
5F9
100
AcDbVisualStyle
  2
Facepattern
 70
    15
 71
     2
 72
     2
 73
     0
 90
        0
 40
0.6
 41
30.0
 62
     5
 63
     7
 74
     1
 91
        4
 64
     7
 65
   257
 75
     1
175
     1
 42
1.0
 92
        8
 66
     7
 43
1.0
 76
     1
 77
     6
 78
     2
 67
     7
 79
     5
170
     0
171
     0
290
     0
174
     0
 93
        1
 44
0.0
173
     0
291
     1
 45
0.0
1001
ACAD
1000
AcDbSavedByObjectVersion
1070
     0
  0
VISUALSTYLE
  5
5FA
102
{ACAD_REACTORS
330
5F9
102
}
102
{ACAD_XDICTIONARY
360
1F70
102
}
330
5F9
100
AcDbVisualStyle
  2
Flat
 70
     0
 71
     2
 72
     1
 73
     1
 90
        2
 40
0.6
 41
30.0
 62
     5
 63
     7
 74
     0
 91
        4
 64
     7
 65
   257
 75
     1
175
     1
 42
1.0
 92
        8
 66
     7
 43
1.0
 76
     1
 77
     6
 78
     2
 67
     7
 79
     5
170
     0
171
     0
290
     0
174
     0
 93
       13
 44
0.0
173
     0
291
     1
 45
0.0
1001
ACAD
1000
AcDbSavedByObjectVersion
1070
     0
  0
VISUALSTYLE
  5
5FB
102
{ACAD_REACTORS
330
5F9
102
}
102
{ACAD_XDICTIONARY
360
1F72
102
}
330
5F9
100
AcDbVisualStyle
  2
FlatWithEdges
 70
     1
 71
     2
 72
     1
 73
     1
 90
        2
 40
0.6
 41
30.0
 62
     5
 63
     7
 74
     1
 91
        4
 64
     7
 65
   257
 75
     1
175
     1
 42
1.0
 92
        0
 66
   257
 43
1.0
 76
     1
 77
     6
 78
     2
 67
     7
 79
     5
170
     0
171
     0
290
     0
174
     0
 93
       13
 44
0.0
173
     0
291
     1
 45
0.0
1001
ACAD
1000
AcDbSavedByObjectVersion
1070
     0
  0
VISUALSTYLE
  5
5FC
102
{ACAD_REACTORS
330
5F9
102
}
102
{ACAD_XDICTIONARY
360
1F74
102
}
330
5F9
100
AcDbVisualStyle
  2
Gouraud
 70
     2
 71
     2
 72
     2
 73
     1
 90
        2
 40
0.6
 41
30.0
 62
     5
 63
     7
 74
     0
 91
        4
 64
     7
 65
   257
 75
     1
175
     1
 42
1.0
 92
        0
 66
     7
 43
1.0
 76
     1
 77
     6
 78
     2
 67
     7
 79
     5
170
     0
171
     0
290
     0
174
     0
 93
       13
 44
0.0
173
     0
291
     1
 45
0.0
1001
ACAD
1000
AcDbSavedByObjectVersion
1070
     0
  0
VISUALSTYLE
  5
5FD
102
{ACAD_REACTORS
330
5F9
102
}
102
{ACAD_XDICTIONARY
360
1F76
102
}
330
5F9
100
AcDbVisualStyle
  2
GouraudWithEdges
 70
     3
 71
     2
 72
     2
 73
     1
 90
        2
 40
0.6
 41
30.0
 62
     5
 63
     7
 74
     1
 91
        4
 64
     7
 65
   257
 75
     1
175
     1
 42
1.0
 92
        0
 66
   257
 43
1.0
 76
     1
 77
     6
 78
     2
 67
     7
 79
     5
170
     0
171
     0
290
     0
174
     0
 93
       13
 44
0.0
173
     0
291
     1
 45
0.0
1001
ACAD
1000
AcDbSavedByObjectVersion
1070
     0
  0
VISUALSTYLE
  5
600
102
{ACAD_REACTORS
330
5F9
102
}
102
{ACAD_XDICTIONARY
360
1F7C
102
}
330
5F9
100
AcDbVisualStyle
  2
Hidden
 70
     6
 71
     1
 72
     2
 73
     2
 90
        0
 40
0.6
 41
30.0
 62
     5
 63
     7
 74
     2
 91
        2
 64
     7
 65
   257
 75
     2
175
     1
 42
40.0
 92
        0
 66
   257
 43
1.0
 76
     1
 77
     6
 78
     2
 67
     7
 79
     3
170
     0
171
     0
290
     0
174
     0
 93
        1
 44
0.0
173
     0
291
     0
 45
0.0
1001
ACAD
1000
AcDbSavedByObjectVersion
1070
     0
  0
VISUALSTYLE
  5
60A
102
{ACAD_REACTORS
330
5F9
102
}
102
{ACAD_XDICTIONARY
360
1F90
102
}
330
5F9
100
AcDbVisualStyle
  2
JitterOff
 70
    20
 71
     2
 72
     2
 73
     0
 90
        0
 40
0.6
 41
30.0
 62
     5
 63
     7
 74
     1
 91
        4
 64
     7
 65
   257
 75
     1
175
     1
 42
1.0
 92
       10
 66
     7
 43
1.0
 76
     1
 77
     6
 78
     2
 67
     7
 79
     5
170
     0
171
     0
290
     0
174
     0
 93
        1
 44
0.0
173
     0
291
     1
 45
0.0
1001
ACAD
1000
AcDbSavedByObjectVersion
1070
     0
  0
VISUALSTYLE
  5
607
102
{ACAD_REACTORS
330
5F9
102
}
102
{ACAD_XDICTIONARY
360
1F8A
102
}
330
5F9
100
AcDbVisualStyle
  2
Linepattern
 70
    14
 71
     2
 72
     2
 73
     0
 90
        0
 40
0.6
 41
30.0
 62
     5
 63
     7
 74
     1
 91
        4
 64
     7
 65
   257
 75
     7
175
     7
 42
1.0
 92
        8
 66
     7
 43
1.0
 76
     1
 77
     6
 78
     2
 67
     7
 79
     5
170
     0
171
     0
290
     0
174
     0
 93
        1
 44
0.0
173
     0
291
     1
 45
0.0
1001
ACAD
1000
AcDbSavedByObjectVersion
1070
     0
  0
VISUALSTYLE
  5
60B
102
{ACAD_REACTORS
330
5F9
102
}
102
{ACAD_XDICTIONARY
360
1F92
102
}
330
5F9
100
AcDbVisualStyle
  2
OverhangOff
 70
    21
 71
     2
 72
     2
 73
     0
 90
        0
 40
0.6
 41
30.0
 62
     5
 63
     7
 74
     1
 91
        4
 64
     7
 65
   257
 75
     1
175
     1
 42
1.0
 92
        9
 66
     7
 43
1.0
 76
     1
 77
     6
 78
     2
 67
     7
 79
     5
170
     0
171
     0
290
     0
174
     0
 93
        1
 44
0.0
173
     0
291
     1
 45
0.0
1001
ACAD
1000
AcDbSavedByObjectVersion
1070
     0
  0
VISUALSTYLE
  5
602
102
{ACAD_REACTORS
330
5F9
102
}
102
{ACAD_XDICTIONARY
360
1F80
102
}
330
5F9
100
AcDbVisualStyle
  2
Realistic
 70
     8
 71
     2
 72
     3
 73
     0
 90
        2
 40
0.6
 41
30.0
 62
     5
 63
     7
 74
     0
 91
        0
 64
     7
 65
   257
 75
     1
175
     1
 42
1.0
 92
        8
 66
   257
 43
1.0
 76
     1
 77
     6
 78
     2
 67
     7
 79
     3
170
     0
171
     0
290
     0
174
     0
 93
       13
 44
0.0
173
     0
291
     0
 45
0.0
1001
ACAD
1000
AcDbSavedByObjectVersion
1070
     0
  0
VISUALSTYLE
  5
611
102
{ACAD_REACTORS
330
5F9
102
}
102
{ACAD_XDICTIONARY
360
1F9E
102
}
330
5F9
100
AcDbVisualStyle
  2
Shaded
 70
    27
 71
     2
 72
     2
 73
     1
 90
        2
 40
0.6
 41
30.0
 62
     5
 63
     7
 74
     0
 91
        4
 64
     7
 65
   257
 75
     1
175
     1
 42
1.0
 92
        8
 66
   257
 43
1.0
 76
     1
 77
     6
 78
     2
 67
   251
 79
     3
170
     0
171
     0
290
     0
174
     0
 93
        5
 44
0.0
173
     0
291
     0
 45
0.0
1001
ACAD
1000
AcDbSavedByObjectVersion
1070
     0
  0
VISUALSTYLE
  5
610
102
{ACAD_REACTORS
330
5F9
102
}
102
{ACAD_XDICTIONARY
360
1F9C
102
}
330
5F9
100
AcDbVisualStyle
  2
Shaded with edges
 70
    26
 71
     2
 72
     2
 73
     1
 90
        2
 40
0.6
 41
30.0
 62
     5
 63
     7
 74
     1
 91
       10
 64
     7
 65
   257
 75
     2
175
     1
 42
1.0
 92
        8
 66
   257
 43
1.0
 76
     1
 77
     6
 78
     2
 67
     7
 79
     3
170
     0
171
     0
290
     0
174
     0
 93
        5
 44
0.0
173
     0
291
     0
 45
0.0
1001
ACAD
1000
AcDbSavedByObjectVersion
1070
     0
  0
VISUALSTYLE
  5
60D
102
{ACAD_REACTORS
330
5F9
102
}
102
{ACAD_XDICTIONARY
360
1F96
102
}
330
5F9
100
AcDbVisualStyle
  2
Shades of Gray
 70
    23
 71
     2
 72
     2
 73
     3
 90
        0
 40
0.6
 41
30.0
 62
     5
 63
     7
 74
     2
 91
        2
 64
     7
 65
     7
 75
     1
175
     1
 42
40.0
 92
        8
 66
     7
 43
1.0
 76
     1
 77
     6
 78
     2
 67
     7
 79
     3
170
     0
171
     0
290
     0
174
     0
 93
        1
 44
0.0
173
     0
291
     0
 45
0.0
1001
ACAD
1000
AcDbSavedByObjectVersion
1070
     0
  0
VISUALSTYLE
  5
60E
102
{ACAD_REACTORS
330
5F9
102
}
102
{ACAD_XDICTIONARY
360
1F98
102
}
330
5F9
100
AcDbVisualStyle
  2
Sketchy
 70
    24
 71
     1
 72
     2
 73
     2
 90
        0
 40
0.6
 41
30.0
 62
     5
 63
     7
 74
     2
 91
        2
 64
     7
 65
     7
 75
     1
175
     1
 42
40.0
 92
       11
 66
     7
 43
1.0
 76
     1
 77
     6
 78
     2
 67
     7
 79
     6
170
     0
171
     0
290
     0
174
     0
 93
        1
 44
0.0
173
     0
291
     0
 45
0.0
1001
ACAD
1000
AcDbSavedByObjectVersion
1070
     0
  0
VISUALSTYLE
  5
606
102
{ACAD_REACTORS
330
5F9
102
}
102
{ACAD_XDICTIONARY
360
1F88
102
}
330
5F9
100
AcDbVisualStyle
  2
Thicken
 70
    13
 71
     2
 72
     2
 73
     0
 90
        0
 40
0.6
 41
30.0
 62
     5
 63
     7
 74
     1
 91
        4
 64
     7
 65
   257
 75
     1
175
     1
 42
1.0
 92
       12
 66
     7
 43
1.0
 76
     1
 77
     6
 78
     2
 67
     7
 79
     5
170
     0
171
     0
290
     0
174
     0
 93
        1
 44
0.0
173
     0
291
     1
 45
0.0
1001
ACAD
1000
AcDbSavedByObjectVersion
1070
     0
  0
VISUALSTYLE
  5
5FF
102
{ACAD_REACTORS
330
5F9
102
}
102
{ACAD_XDICTIONARY
360
1F7A
102
}
330
5F9
100
AcDbVisualStyle
  2
Wireframe
 70
     5
 71
     0
 72
     2
 73
     0
 90
        0
 40
0.6
 41
30.0
 62
     5
 63
     7
 74
     1
 91
        4
 64
     7
 65
   257
 75
     1
175
     1
 42
1.0
 92
        0
 66
   257
 43
1.0
 76
     1
 77
     6
 78
     2
 67
     7
 79
     5
170
     0
171
     0
290
     0
174
     0
 93
        1
 44
0.0
173
     0
291
     0
 45
0.0
1001
ACAD
1000
AcDbSavedByObjectVersion
1070
     0
  0
VISUALSTYLE
  5
60F
102
{ACAD_REACTORS
330
5F9
102
}
102
{ACAD_XDICTIONARY
360
1F9A
102
}
330
5F9
100
AcDbVisualStyle
  2
X-Ray
 70
    25
 71
     2
 72
     2
 73
     1
 90
        1
 40
0.5
 41
30.0
 62
     5
 63
     7
 74
     1
 91
        0
 64
     7
 65
   257
 75
     1
175
     1
 42
1.0
 92
        8
 66
     7
 43
1.0
 76
     1
 77
     6
 78
     2
 67
     7
 79
     3
170
     0
171
     0
290
     0
174
     0
 93
       13
 44
0.0
173
     0
291
     0
 45
0.0
1001
ACAD
1000
AcDbSavedByObjectVersion
1070
     0
  0
XRECORD
  5
1F6B
102
{ACAD_REACTORS
330
1F6A
102
}
330
1F6A
100
AcDbXrecord
280
     1
340
642
  0
XRECORD
  5
1F6C
102
{ACAD_REACTORS
330
1F6A
102
}
330
1F6A
100
AcDbXrecord
280
     1
340
634
  0
DICTIONARYVAR
  5
639
102
{ACAD_REACTORS
330
549
102
}
330
549
100
DictionaryVariables
280
     0
  1
1:1
  0
DICTIONARYVAR
  5
1F0B
102
{ACAD_REACTORS
330
549
102
}
330
549
100
DictionaryVariables
280
     0
  1
Standard
  0
DICTIONARYVAR
  5
54B
102
{ACAD_REACTORS
330
549
102
}
330
549
100
DictionaryVariables
280
     0
  1
0
  0
DICTIONARYVAR
  5
54A
102
{ACAD_REACTORS
330
549
102
}
330
549
100
DictionaryVariables
280
     0
  1
1
  0
DICTIONARYVAR
  5
63B
102
{ACAD_REACTORS
330
549
102
}
330
549
100
DictionaryVariables
280
     0
  1
0
  0
DICTIONARYVAR
  5
63F
102
{ACAD_REACTORS
330
549
102
}
330
549
100
DictionaryVariables
280
     0
  1
0
  0
DICTIONARY
  5
1FA2
330
636
100
AcDbDictionary
280
     1
281
     1
  3
ACAD_XREC_ROUNDTRIP
360
1FA3
  0
DICTIONARY
  5
1FA0
330
635
100
AcDbDictionary
280
     1
281
     1
  3
ACAD_XREC_ROUNDTRIP
360
1FA1
  0
DICTIONARY
  5
1FA4
330
637
100
AcDbDictionary
280
     1
281
     1
  3
ACAD_XREC_ROUNDTRIP
360
1FA5
  0
DICTIONARY
  5
1FA6
330
664
100
AcDbDictionary
280
     1
281
     1
  3
ACAD_XREC_ROUNDTRIP
360
1FA7
  0
DICTIONARY
  5
1F78
330
5FE
100
AcDbDictionary
280
     1
281
     1
  3
ACAD_XREC_ROUNDTRIP
360
1F79
  0
DICTIONARY
  5
1F7E
330
601
100
AcDbDictionary
280
     1
281
     1
  3
ACAD_XREC_ROUNDTRIP
360
1F7F
  0
DICTIONARY
  5
1F86
330
605
100
AcDbDictionary
280
     1
281
     1
  3
ACAD_XREC_ROUNDTRIP
360
1F87
  0
DICTIONARY
  5
1F8E
330
609
100
AcDbDictionary
280
     1
281
     1
  3
ACAD_XREC_ROUNDTRIP
360
1F8F
  0
DICTIONARY
  5
1F82
330
603
100
AcDbDictionary
280
     1
281
     1
  3
ACAD_XREC_ROUNDTRIP
360
1F83
  0
DICTIONARY
  5
1F84
330
604
100
AcDbDictionary
280
     1
281
     1
  3
ACAD_XREC_ROUNDTRIP
360
1F85
  0
DICTIONARY
  5
1F94
330
60C
100
AcDbDictionary
280
     1
281
     1
  3
ACAD_XREC_ROUNDTRIP
360
1F95
  0
DICTIONARY
  5
1F8C
330
608
100
AcDbDictionary
280
     1
281
     1
  3
ACAD_XREC_ROUNDTRIP
360
1F8D
  0
DICTIONARY
  5
1F70
330
5FA
100
AcDbDictionary
280
     1
281
     1
  3
ACAD_XREC_ROUNDTRIP
360
1F71
  0
DICTIONARY
  5
1F72
330
5FB
100
AcDbDictionary
280
     1
281
     1
  3
ACAD_XREC_ROUNDTRIP
360
1F73
  0
DICTIONARY
  5
1F74
330
5FC
100
AcDbDictionary
280
     1
281
     1
  3
ACAD_XREC_ROUNDTRIP
360
1F75
  0
DICTIONARY
  5
1F76
330
5FD
100
AcDbDictionary
280
     1
281
     1
  3
ACAD_XREC_ROUNDTRIP
360
1F77
  0
DICTIONARY
  5
1F7C
330
600
100
AcDbDictionary
280
     1
281
     1
  3
ACAD_XREC_ROUNDTRIP
360
1F7D
  0
DICTIONARY
  5
1F90
330
60A
100
AcDbDictionary
280
     1
281
     1
  3
ACAD_XREC_ROUNDTRIP
360
1F91
  0
DICTIONARY
  5
1F8A
330
607
100
AcDbDictionary
280
     1
281
     1
  3
ACAD_XREC_ROUNDTRIP
360
1F8B
  0
DICTIONARY
  5
1F92
330
60B
100
AcDbDictionary
280
     1
281
     1
  3
ACAD_XREC_ROUNDTRIP
360
1F93
  0
DICTIONARY
  5
1F80
330
602
100
AcDbDictionary
280
     1
281
     1
  3
ACAD_XREC_ROUNDTRIP
360
1F81
  0
DICTIONARY
  5
1F9E
330
611
100
AcDbDictionary
280
     1
281
     1
  3
ACAD_XREC_ROUNDTRIP
360
1F9F
  0
DICTIONARY
  5
1F9C
330
610
100
AcDbDictionary
280
     1
281
     1
  3
ACAD_XREC_ROUNDTRIP
360
1F9D
  0
DICTIONARY
  5
1F96
330
60D
100
AcDbDictionary
280
     1
281
     1
  3
ACAD_XREC_ROUNDTRIP
360
1F97
  0
DICTIONARY
  5
1F98
330
60E
100
AcDbDictionary
280
     1
281
     1
  3
ACAD_XREC_ROUNDTRIP
360
1F99
  0
DICTIONARY
  5
1F88
330
606
100
AcDbDictionary
280
     1
281
     1
  3
ACAD_XREC_ROUNDTRIP
360
1F89
  0
DICTIONARY
  5
1F7A
330
5FF
100
AcDbDictionary
280
     1
281
     1
  3
ACAD_XREC_ROUNDTRIP
360
1F7B
  0
DICTIONARY
  5
1F9A
330
60F
100
AcDbDictionary
280
     1
281
     1
  3
ACAD_XREC_ROUNDTRIP
360
1F9B
  0
XRECORD
  5
1FA3
102
{ACAD_REACTORS
330
1FA2
102
}
330
1FA2
100
AcDbXrecord
280
     1
102
MATERIAL
148
0.0
149
0.0
149
0.0
 93
        0
 94
      127
282
     0
 72
     1
 77
     1
171
     1
175
     1
179
     1
273
     0
  0
XRECORD
  5
1FA1
102
{ACAD_REACTORS
330
1FA0
102
}
330
1FA0
100
AcDbXrecord
280
     1
102
MATERIAL
148
0.0
149
0.0
149
0.0
 93
        0
 94
      127
282
     0
 72
     1
 77
     1
171
     1
175
     1
179
     1
273
     0
  0
XRECORD
  5
1FA5
102
{ACAD_REACTORS
330
1FA4
102
}
330
1FA4
100
AcDbXrecord
280
     1
102
MATERIAL
148
0.0
149
0.0
149
0.0
 93
        0
 94
      127
282
     0
 72
     1
 77
     1
171
     1
175
     1
179
     1
273
     0
  0
XRECORD
  5
1FA7
102
{ACAD_REACTORS
330
1FA6
102
}
330
1FA6
100
AcDbXrecord
280
     1
102
ACAD_ROUNDTRIP_2012_MLEADER_STYLE
298
     1
  0
XRECORD
  5
1F79
102
{ACAD_REACTORS
330
1F78
102
}
330
1F78
100
AcDbXrecord
280
     1
102
RTVSPropertyOp0
 70
     1
102
RTVSPropertyOp1
 70
     1
102
RTVSPropertyOp2
 70
     1
102
RTVSPropertyOp3
 70
     1
102
RTVSPropertyOp4
 70
     1
102
RTVSPropertyOp5
 70
     1
102
RTVSPropertyOp6
 70
     1
102
RTVSPropertyOp7
 70
     1
102
RTVSPropertyOp8
 70
     1
102
RTVSPropertyOp9
 70
     1
102
RTVSPropertyOp10
 70
     1
102
RTVSPropertyOp11
 70
     1
102
RTVSPropertyOp12
 70
     1
102
RTVSPropertyOp13
 70
     1
102
RTVSPropertyOp14
 70
     1
102
RTVSPropertyOp15
 70
     1
102
RTVSPropertyOp16
 70
     1
102
RTVSPropertyOp17
 70
     1
102
RTVSPropertyOp18
 70
     1
102
RTVSPropertyOp19
 70
     1
102
RTVSPropertyOp20
 70
     1
102
RTVSPropertyOp21
 70
     1
102
RTVSPropertyOp22
 70
     1
102
RTVSPropertyOp23
 70
     1
102
RTVSPropertyOp24
 70
     1
102
RTVSPropertyOp25
 70
     1
102
RTVSPropertyOp26
 70
     1
102
RTVSPropertyOp27
 70
     1
102
RTVSPropertyOp28
 70
     1
102
RTVSPropertyOp29
 70
     1
102
RTVSPropertyOp30
 70
     1
102
RTVSPropertyOp31
 70
     1
102
RTVSPropertyOp32
 70
     1
102
RTVSPropertyOp33
 70
     1
102
RTVSPropertyOp34
 70
     1
102
RTVSPropertyOp35
 70
     1
102
RTVSPropertyOp36
 70
     1
102
RTVSPropertyOp37
 70
     1
102
RTVSPropertyOp38
 70
     1
102
RTVSPropertyOp39
 70
     1
102
RTVSPropertyOp40
 70
     1
102
RTVSPropertyOp41
 70
     1
102
RTVSPropertyOp42
 70
     1
102
RTVSPropertyOp43
 70
     1
102
RTVSPropertyOp44
 70
     1
102
RTVSPropertyOp45
 70
     1
102
RTVSPropertyOp46
 70
     1
102
RTVSPropertyOp47
 70
     1
102
RTVSPropertyOp48
 70
     1
102
RTVSPropertyOp49
 70
     1
102
RTVSPropertyOp50
 70
     1
102
RTVSPropertyOp51
 70
     0
102
RTVSPropertyOp52
 70
     0
102
RTVSPropertyOp53
 70
     1
102
RTVSPropertyOp54
 70
     1
102
RTVSPropertyOp55
 70
     1
102
RTVSPropertyOp56
 70
     1
102
RTVSPropertyOp57
 70
     1
102
RTVSPost2010Prop28
280
     1
102
RTVSPost2010PropOp28
 70
     1
102
RTVSPost2010Prop29
280
     1
102
RTVSPost2010PropOp29
 70
     1
102
RTVSPost2010Prop30
280
     0
102
RTVSPost2010PropOp30
 70
     1
102
RTVSPost2010Prop31
280
     0
102
RTVSPost2010PropOp31
 70
     1
102
RTVSPost2010Prop32
280
     0
102
RTVSPost2010PropOp32
 70
     1
102
RTVSPost2010Prop33
280
     0
102
RTVSPost2010PropOp33
 70
     1
102
RTVSPost2010Prop34
280
     0
102
RTVSPost2010PropOp34
 70
     1
102
RTVSPost2010Prop35
280
     0
102
RTVSPost2010PropOp35
 70
     1
102
RTVSPost2010Prop36
280
     0
102
RTVSPost2010PropOp36
 70
     1
102
RTVSPost2010Prop37
 90
       50
102
RTVSPost2010PropOp37
 70
     1
102
RTVSPost2010Prop38
140
0.0
102
RTVSPost2010PropOp38
 70
     1
102
RTVSPost2010Prop39
140
1.0
102
RTVSPost2010PropOp39
 70
     1
102
RTVSPost2010Prop40
 90
        0
102
RTVSPost2010PropOp40
 70
     1
102
RTVSPost2010Prop41ColorIndex
 90
       18
102
RTVSPost2010Prop41ColorRGB
 90
        0
102
RTVSPost2010PropOp41
 70
     1
102
RTVSPost2010Prop42
 90
       50
102
RTVSPost2010PropOp42
 70
     1
102
RTVSPost2010Prop43
 90
        3
102
RTVSPost2010PropOp43
 70
     1
102
RTVSPost2010Prop44ColorIndex
 90
        5
102
RTVSPost2010Prop44ColorRGB
 90
      255
102
RTVSPost2010PropOp44
 70
     1
102
RTVSPost2010Prop45
280
     0
102
RTVSPost2010PropOp45
 70
     1
102
RTVSPost2010Prop46
 90
       50
102
RTVSPost2010PropOp46
 70
     1
102
RTVSPost2010Prop47
 90
       50
102
RTVSPost2010PropOp47
 70
     1
102
RTVSPost2010Prop48
 90
       50
102
RTVSPost2010PropOp48
 70
     1
102
RTVSPost2010Prop49
280
     0
102
RTVSPost2010PropOp49
 70
     1
102
RTVSPost2010Prop50
 90
       50
102
RTVSPost2010PropOp50
 70
     1
102
RTVSPost2010Prop51ColorIndex
 90
      256
102
RTVSPost2010Prop51ColorRGB
 90
-16777216
102
RTVSPost2010PropOp51
 70
     0
102
RTVSPost2010Prop52
140
1.0
102
RTVSPost2010PropOp52
 70
     0
102
RTVSPost2010Prop53
 90
        2
102
RTVSPost2010PropOp53
 70
     1
102
RTVSPost2010Prop54
  1
strokes_ogs.tif
102
RTVSPost2010PropOp54
 70
     1
102
RTVSPost2010Prop55
280
     0
102
RTVSPost2010PropOp55
 70
     1
102
RTVSPost2010Prop56
140
1.0
102
RTVSPost2010PropOp56
 70
     1
102
RTVSPost2010Prop57
140
1.0
102
RTVSPost2010PropOp57
 70
     1
  0
XRECORD
  5
1F7F
102
{ACAD_REACTORS
330
1F7E
102
}
330
1F7E
100
AcDbXrecord
280
     1
102
RTVSPropertyOp0
 70
     1
102
RTVSPropertyOp1
 70
     1
102
RTVSPropertyOp2
 70
     1
102
RTVSPropertyOp3
 70
     1
102
RTVSPropertyOp4
 70
     1
102
RTVSPropertyOp5
 70
     1
102
RTVSPropertyOp6
 70
     1
102
RTVSPropertyOp7
 70
     1
102
RTVSPropertyOp8
 70
     1
102
RTVSPropertyOp9
 70
     1
102
RTVSPropertyOp10
 70
     1
102
RTVSPropertyOp11
 70
     1
102
RTVSPropertyOp12
 70
     1
102
RTVSPropertyOp13
 70
     1
102
RTVSPropertyOp14
 70
     1
102
RTVSPropertyOp15
 70
     1
102
RTVSPropertyOp16
 70
     1
102
RTVSPropertyOp17
 70
     1
102
RTVSPropertyOp18
 70
     1
102
RTVSPropertyOp19
 70
     1
102
RTVSPropertyOp20
 70
     1
102
RTVSPropertyOp21
 70
     1
102
RTVSPropertyOp22
 70
     1
102
RTVSPropertyOp23
 70
     1
102
RTVSPropertyOp24
 70
     1
102
RTVSPropertyOp25
 70
     1
102
RTVSPropertyOp26
 70
     1
102
RTVSPropertyOp27
 70
     1
102
RTVSPropertyOp28
 70
     1
102
RTVSPropertyOp29
 70
     1
102
RTVSPropertyOp30
 70
     1
102
RTVSPropertyOp31
 70
     1
102
RTVSPropertyOp32
 70
     1
102
RTVSPropertyOp33
 70
     1
102
RTVSPropertyOp34
 70
     1
102
RTVSPropertyOp35
 70
     1
102
RTVSPropertyOp36
 70
     1
102
RTVSPropertyOp37
 70
     1
102
RTVSPropertyOp38
 70
     1
102
RTVSPropertyOp39
 70
     1
102
RTVSPropertyOp40
 70
     1
102
RTVSPropertyOp41
 70
     1
102
RTVSPropertyOp42
 70
     1
102
RTVSPropertyOp43
 70
     1
102
RTVSPropertyOp44
 70
     1
102
RTVSPropertyOp45
 70
     1
102
RTVSPropertyOp46
 70
     1
102
RTVSPropertyOp47
 70
     1
102
RTVSPropertyOp48
 70
     1
102
RTVSPropertyOp49
 70
     1
102
RTVSPropertyOp50
 70
     1
102
RTVSPropertyOp51
 70
     0
102
RTVSPropertyOp52
 70
     0
102
RTVSPropertyOp53
 70
     1
102
RTVSPropertyOp54
 70
     1
102
RTVSPropertyOp55
 70
     1
102
RTVSPropertyOp56
 70
     1
102
RTVSPropertyOp57
 70
     1
102
RTVSPost2010Prop28
280
     0
102
RTVSPost2010PropOp28
 70
     1
102
RTVSPost2010Prop29
280
     1
102
RTVSPost2010PropOp29
 70
     1
102
RTVSPost2010Prop30
280
     1
102
RTVSPost2010PropOp30
 70
     1
102
RTVSPost2010Prop31
280
     0
102
RTVSPost2010PropOp31
 70
     1
102
RTVSPost2010Prop32
280
     0
102
RTVSPost2010PropOp32
 70
     1
102
RTVSPost2010Prop33
280
     0
102
RTVSPost2010PropOp33
 70
     1
102
RTVSPost2010Prop34
280
     0
102
RTVSPost2010PropOp34
 70
     1
102
RTVSPost2010Prop35
280
     0
102
RTVSPost2010PropOp35
 70
     1
102
RTVSPost2010Prop36
280
     0
102
RTVSPost2010PropOp36
 70
     1
102
RTVSPost2010Prop37
 90
       50
102
RTVSPost2010PropOp37
 70
     1
102
RTVSPost2010Prop38
140
0.0
102
RTVSPost2010PropOp38
 70
     1
102
RTVSPost2010Prop39
140
1.0
102
RTVSPost2010PropOp39
 70
     1
102
RTVSPost2010Prop40
 90
        0
102
RTVSPost2010PropOp40
 70
     1
102
RTVSPost2010Prop41ColorIndex
 90
       18
102
RTVSPost2010Prop41ColorRGB
 90
        0
102
RTVSPost2010PropOp41
 70
     1
102
RTVSPost2010Prop42
 90
       50
102
RTVSPost2010PropOp42
 70
     1
102
RTVSPost2010Prop43
 90
        3
102
RTVSPost2010PropOp43
 70
     1
102
RTVSPost2010Prop44ColorIndex
 90
        5
102
RTVSPost2010Prop44ColorRGB
 90
      255
102
RTVSPost2010PropOp44
 70
     1
102
RTVSPost2010Prop45
280
     0
102
RTVSPost2010PropOp45
 70
     1
102
RTVSPost2010Prop46
 90
       50
102
RTVSPost2010PropOp46
 70
     1
102
RTVSPost2010Prop47
 90
       50
102
RTVSPost2010PropOp47
 70
     1
102
RTVSPost2010Prop48
 90
       50
102
RTVSPost2010PropOp48
 70
     1
102
RTVSPost2010Prop49
280
     0
102
RTVSPost2010PropOp49
 70
     1
102
RTVSPost2010Prop50
 90
       50
102
RTVSPost2010PropOp50
 70
     1
102
RTVSPost2010Prop51ColorIndex
 90
      256
102
RTVSPost2010Prop51ColorRGB
 90
-16777216
102
RTVSPost2010PropOp51
 70
     0
102
RTVSPost2010Prop52
140
1.0
102
RTVSPost2010PropOp52
 70
     0
102
RTVSPost2010Prop53
 90
        2
102
RTVSPost2010PropOp53
 70
     1
102
RTVSPost2010Prop54
  1
strokes_ogs.tif
102
RTVSPost2010PropOp54
 70
     1
102
RTVSPost2010Prop55
280
     0
102
RTVSPost2010PropOp55
 70
     1
102
RTVSPost2010Prop56
140
1.0
102
RTVSPost2010PropOp56
 70
     1
102
RTVSPost2010Prop57
140
1.0
102
RTVSPost2010PropOp57
 70
     1
  0
XRECORD
  5
1F87
102
{ACAD_REACTORS
330
1F86
102
}
330
1F86
100
AcDbXrecord
280
     1
102
RTVSPropertyOp0
 70
     1
102
RTVSPropertyOp1
 70
     1
102
RTVSPropertyOp2
 70
     1
102
RTVSPropertyOp3
 70
     1
102
RTVSPropertyOp4
 70
     1
102
RTVSPropertyOp5
 70
     1
102
RTVSPropertyOp6
 70
     1
102
RTVSPropertyOp7
 70
     1
102
RTVSPropertyOp8
 70
     1
102
RTVSPropertyOp9
 70
     1
102
RTVSPropertyOp10
 70
     1
102
RTVSPropertyOp11
 70
     1
102
RTVSPropertyOp12
 70
     1
102
RTVSPropertyOp13
 70
     1
102
RTVSPropertyOp14
 70
     1
102
RTVSPropertyOp15
 70
     1
102
RTVSPropertyOp16
 70
     1
102
RTVSPropertyOp17
 70
     1
102
RTVSPropertyOp18
 70
     1
102
RTVSPropertyOp19
 70
     1
102
RTVSPropertyOp20
 70
     1
102
RTVSPropertyOp21
 70
     1
102
RTVSPropertyOp22
 70
     1
102
RTVSPropertyOp23
 70
     1
102
RTVSPropertyOp24
 70
     1
102
RTVSPropertyOp25
 70
     1
102
RTVSPropertyOp26
 70
     1
102
RTVSPropertyOp27
 70
     1
102
RTVSPropertyOp28
 70
     1
102
RTVSPropertyOp29
 70
     1
102
RTVSPropertyOp30
 70
     1
102
RTVSPropertyOp31
 70
     1
102
RTVSPropertyOp32
 70
     1
102
RTVSPropertyOp33
 70
     1
102
RTVSPropertyOp34
 70
     1
102
RTVSPropertyOp35
 70
     1
102
RTVSPropertyOp36
 70
     1
102
RTVSPropertyOp37
 70
     1
102
RTVSPropertyOp38
 70
     1
102
RTVSPropertyOp39
 70
     1
102
RTVSPropertyOp40
 70
     1
102
RTVSPropertyOp41
 70
     1
102
RTVSPropertyOp42
 70
     1
102
RTVSPropertyOp43
 70
     1
102
RTVSPropertyOp44
 70
     1
102
RTVSPropertyOp45
 70
     1
102
RTVSPropertyOp46
 70
     1
102
RTVSPropertyOp47
 70
     1
102
RTVSPropertyOp48
 70
     1
102
RTVSPropertyOp49
 70
     1
102
RTVSPropertyOp50
 70
     1
102
RTVSPropertyOp51
 70
     0
102
RTVSPropertyOp52
 70
     0
102
RTVSPropertyOp53
 70
     1
102
RTVSPropertyOp54
 70
     1
102
RTVSPropertyOp55
 70
     1
102
RTVSPropertyOp56
 70
     1
102
RTVSPropertyOp57
 70
     1
102
RTVSPost2010Prop28
280
     0
102
RTVSPost2010PropOp28
 70
     1
102
RTVSPost2010Prop29
280
     1
102
RTVSPost2010PropOp29
 70
     1
102
RTVSPost2010Prop30
280
     1
102
RTVSPost2010PropOp30
 70
     1
102
RTVSPost2010Prop31
280
     0
102
RTVSPost2010PropOp31
 70
     1
102
RTVSPost2010Prop32
280
     0
102
RTVSPost2010PropOp32
 70
     1
102
RTVSPost2010Prop33
280
     0
102
RTVSPost2010PropOp33
 70
     1
102
RTVSPost2010Prop34
280
     0
102
RTVSPost2010PropOp34
 70
     1
102
RTVSPost2010Prop35
280
     0
102
RTVSPost2010PropOp35
 70
     1
102
RTVSPost2010Prop36
280
     0
102
RTVSPost2010PropOp36
 70
     1
102
RTVSPost2010Prop37
 90
       50
102
RTVSPost2010PropOp37
 70
     1
102
RTVSPost2010Prop38
140
0.0
102
RTVSPost2010PropOp38
 70
     1
102
RTVSPost2010Prop39
140
1.0
102
RTVSPost2010PropOp39
 70
     1
102
RTVSPost2010Prop40
 90
        0
102
RTVSPost2010PropOp40
 70
     1
102
RTVSPost2010Prop41ColorIndex
 90
       18
102
RTVSPost2010Prop41ColorRGB
 90
        0
102
RTVSPost2010PropOp41
 70
     1
102
RTVSPost2010Prop42
 90
       50
102
RTVSPost2010PropOp42
 70
     1
102
RTVSPost2010Prop43
 90
        3
102
RTVSPost2010PropOp43
 70
     1
102
RTVSPost2010Prop44ColorIndex
 90
        5
102
RTVSPost2010Prop44ColorRGB
 90
      255
102
RTVSPost2010PropOp44
 70
     1
102
RTVSPost2010Prop45
280
     0
102
RTVSPost2010PropOp45
 70
     1
102
RTVSPost2010Prop46
 90
       50
102
RTVSPost2010PropOp46
 70
     1
102
RTVSPost2010Prop47
 90
       50
102
RTVSPost2010PropOp47
 70
     1
102
RTVSPost2010Prop48
 90
       50
102
RTVSPost2010PropOp48
 70
     1
102
RTVSPost2010Prop49
280
     0
102
RTVSPost2010PropOp49
 70
     1
102
RTVSPost2010Prop50
 90
       50
102
RTVSPost2010PropOp50
 70
     1
102
RTVSPost2010Prop51ColorIndex
 90
      256
102
RTVSPost2010Prop51ColorRGB
 90
-16777216
102
RTVSPost2010PropOp51
 70
     0
102
RTVSPost2010Prop52
140
1.0
102
RTVSPost2010PropOp52
 70
     0
102
RTVSPost2010Prop53
 90
        2
102
RTVSPost2010PropOp53
 70
     1
102
RTVSPost2010Prop54
  1
strokes_ogs.tif
102
RTVSPost2010PropOp54
 70
     1
102
RTVSPost2010Prop55
280
     0
102
RTVSPost2010PropOp55
 70
     1
102
RTVSPost2010Prop56
140
1.0
102
RTVSPost2010PropOp56
 70
     1
102
RTVSPost2010Prop57
140
1.0
102
RTVSPost2010PropOp57
 70
     1
  0
XRECORD
  5
1F8F
102
{ACAD_REACTORS
330
1F8E
102
}
330
1F8E
100
AcDbXrecord
280
     1
102
RTVSPropertyOp0
 70
     1
102
RTVSPropertyOp1
 70
     1
102
RTVSPropertyOp2
 70
     1
102
RTVSPropertyOp3
 70
     1
102
RTVSPropertyOp4
 70
     1
102
RTVSPropertyOp5
 70
     1
102
RTVSPropertyOp6
 70
     1
102
RTVSPropertyOp7
 70
     1
102
RTVSPropertyOp8
 70
     1
102
RTVSPropertyOp9
 70
     1
102
RTVSPropertyOp10
 70
     1
102
RTVSPropertyOp11
 70
     1
102
RTVSPropertyOp12
 70
     1
102
RTVSPropertyOp13
 70
     1
102
RTVSPropertyOp14
 70
     1
102
RTVSPropertyOp15
 70
     1
102
RTVSPropertyOp16
 70
     1
102
RTVSPropertyOp17
 70
     1
102
RTVSPropertyOp18
 70
     1
102
RTVSPropertyOp19
 70
     1
102
RTVSPropertyOp20
 70
     1
102
RTVSPropertyOp21
 70
     1
102
RTVSPropertyOp22
 70
     1
102
RTVSPropertyOp23
 70
     1
102
RTVSPropertyOp24
 70
     1
102
RTVSPropertyOp25
 70
     1
102
RTVSPropertyOp26
 70
     1
102
RTVSPropertyOp27
 70
     1
102
RTVSPropertyOp28
 70
     1
102
RTVSPropertyOp29
 70
     1
102
RTVSPropertyOp30
 70
     1
102
RTVSPropertyOp31
 70
     1
102
RTVSPropertyOp32
 70
     1
102
RTVSPropertyOp33
 70
     1
102
RTVSPropertyOp34
 70
     1
102
RTVSPropertyOp35
 70
     1
102
RTVSPropertyOp36
 70
     1
102
RTVSPropertyOp37
 70
     1
102
RTVSPropertyOp38
 70
     1
102
RTVSPropertyOp39
 70
     1
102
RTVSPropertyOp40
 70
     1
102
RTVSPropertyOp41
 70
     1
102
RTVSPropertyOp42
 70
     1
102
RTVSPropertyOp43
 70
     1
102
RTVSPropertyOp44
 70
     1
102
RTVSPropertyOp45
 70
     1
102
RTVSPropertyOp46
 70
     1
102
RTVSPropertyOp47
 70
     1
102
RTVSPropertyOp48
 70
     1
102
RTVSPropertyOp49
 70
     1
102
RTVSPropertyOp50
 70
     1
102
RTVSPropertyOp51
 70
     0
102
RTVSPropertyOp52
 70
     0
102
RTVSPropertyOp53
 70
     1
102
RTVSPropertyOp54
 70
     1
102
RTVSPropertyOp55
 70
     1
102
RTVSPropertyOp56
 70
     1
102
RTVSPropertyOp57
 70
     1
102
RTVSPost2010Prop28
280
     0
102
RTVSPost2010PropOp28
 70
     1
102
RTVSPost2010Prop29
280
     1
102
RTVSPost2010PropOp29
 70
     1
102
RTVSPost2010Prop30
280
     1
102
RTVSPost2010PropOp30
 70
     1
102
RTVSPost2010Prop31
280
     0
102
RTVSPost2010PropOp31
 70
     1
102
RTVSPost2010Prop32
280
     0
102
RTVSPost2010PropOp32
 70
     1
102
RTVSPost2010Prop33
280
     0
102
RTVSPost2010PropOp33
 70
     1
102
RTVSPost2010Prop34
280
     0
102
RTVSPost2010PropOp34
 70
     1
102
RTVSPost2010Prop35
280
     0
102
RTVSPost2010PropOp35
 70
     1
102
RTVSPost2010Prop36
280
     0
102
RTVSPost2010PropOp36
 70
     1
102
RTVSPost2010Prop37
 90
       50
102
RTVSPost2010PropOp37
 70
     1
102
RTVSPost2010Prop38
140
0.0
102
RTVSPost2010PropOp38
 70
     1
102
RTVSPost2010Prop39
140
1.0
102
RTVSPost2010PropOp39
 70
     1
102
RTVSPost2010Prop40
 90
        0
102
RTVSPost2010PropOp40
 70
     1
102
RTVSPost2010Prop41ColorIndex
 90
       18
102
RTVSPost2010Prop41ColorRGB
 90
        0
102
RTVSPost2010PropOp41
 70
     1
102
RTVSPost2010Prop42
 90
       50
102
RTVSPost2010PropOp42
 70
     1
102
RTVSPost2010Prop43
 90
        3
102
RTVSPost2010PropOp43
 70
     1
102
RTVSPost2010Prop44ColorIndex
 90
        5
102
RTVSPost2010Prop44ColorRGB
 90
      255
102
RTVSPost2010PropOp44
 70
     1
102
RTVSPost2010Prop45
280
     0
102
RTVSPost2010PropOp45
 70
     1
102
RTVSPost2010Prop46
 90
       50
102
RTVSPost2010PropOp46
 70
     1
102
RTVSPost2010Prop47
 90
       50
102
RTVSPost2010PropOp47
 70
     1
102
RTVSPost2010Prop48
 90
       50
102
RTVSPost2010PropOp48
 70
     1
102
RTVSPost2010Prop49
280
     0
102
RTVSPost2010PropOp49
 70
     1
102
RTVSPost2010Prop50
 90
       50
102
RTVSPost2010PropOp50
 70
     1
102
RTVSPost2010Prop51ColorIndex
 90
      256
102
RTVSPost2010Prop51ColorRGB
 90
-16777216
102
RTVSPost2010PropOp51
 70
     0
102
RTVSPost2010Prop52
140
1.0
102
RTVSPost2010PropOp52
 70
     0
102
RTVSPost2010Prop53
 90
        2
102
RTVSPost2010PropOp53
 70
     1
102
RTVSPost2010Prop54
  1
strokes_ogs.tif
102
RTVSPost2010PropOp54
 70
     1
102
RTVSPost2010Prop55
280
     0
102
RTVSPost2010PropOp55
 70
     1
102
RTVSPost2010Prop56
140
1.0
102
RTVSPost2010PropOp56
 70
     1
102
RTVSPost2010Prop57
140
1.0
102
RTVSPost2010PropOp57
 70
     1
  0
XRECORD
  5
1F83
102
{ACAD_REACTORS
330
1F82
102
}
330
1F82
100
AcDbXrecord
280
     1
102
RTVSPropertyOp0
 70
     1
102
RTVSPropertyOp1
 70
     1
102
RTVSPropertyOp2
 70
     1
102
RTVSPropertyOp3
 70
     1
102
RTVSPropertyOp4
 70
     1
102
RTVSPropertyOp5
 70
     1
102
RTVSPropertyOp6
 70
     1
102
RTVSPropertyOp7
 70
     1
102
RTVSPropertyOp8
 70
     1
102
RTVSPropertyOp9
 70
     1
102
RTVSPropertyOp10
 70
     1
102
RTVSPropertyOp11
 70
     1
102
RTVSPropertyOp12
 70
     1
102
RTVSPropertyOp13
 70
     1
102
RTVSPropertyOp14
 70
     1
102
RTVSPropertyOp15
 70
     1
102
RTVSPropertyOp16
 70
     1
102
RTVSPropertyOp17
 70
     1
102
RTVSPropertyOp18
 70
     1
102
RTVSPropertyOp19
 70
     1
102
RTVSPropertyOp20
 70
     1
102
RTVSPropertyOp21
 70
     1
102
RTVSPropertyOp22
 70
     1
102
RTVSPropertyOp23
 70
     1
102
RTVSPropertyOp24
 70
     1
102
RTVSPropertyOp25
 70
     1
102
RTVSPropertyOp26
 70
     1
102
RTVSPropertyOp27
 70
     1
102
RTVSPropertyOp28
 70
     1
102
RTVSPropertyOp29
 70
     1
102
RTVSPropertyOp30
 70
     1
102
RTVSPropertyOp31
 70
     1
102
RTVSPropertyOp32
 70
     1
102
RTVSPropertyOp33
 70
     1
102
RTVSPropertyOp34
 70
     1
102
RTVSPropertyOp35
 70
     1
102
RTVSPropertyOp36
 70
     1
102
RTVSPropertyOp37
 70
     1
102
RTVSPropertyOp38
 70
     1
102
RTVSPropertyOp39
 70
     1
102
RTVSPropertyOp40
 70
     1
102
RTVSPropertyOp41
 70
     1
102
RTVSPropertyOp42
 70
     1
102
RTVSPropertyOp43
 70
     1
102
RTVSPropertyOp44
 70
     1
102
RTVSPropertyOp45
 70
     1
102
RTVSPropertyOp46
 70
     1
102
RTVSPropertyOp47
 70
     1
102
RTVSPropertyOp48
 70
     1
102
RTVSPropertyOp49
 70
     1
102
RTVSPropertyOp50
 70
     1
102
RTVSPropertyOp51
 70
     0
102
RTVSPropertyOp52
 70
     0
102
RTVSPropertyOp53
 70
     1
102
RTVSPropertyOp54
 70
     1
102
RTVSPropertyOp55
 70
     1
102
RTVSPropertyOp56
 70
     1
102
RTVSPropertyOp57
 70
     1
102
RTVSPost2010Prop28
280
     0
102
RTVSPost2010PropOp28
 70
     1
102
RTVSPost2010Prop29
280
     1
102
RTVSPost2010PropOp29
 70
     1
102
RTVSPost2010Prop30
280
     1
102
RTVSPost2010PropOp30
 70
     1
102
RTVSPost2010Prop31
280
     0
102
RTVSPost2010PropOp31
 70
     1
102
RTVSPost2010Prop32
280
     0
102
RTVSPost2010PropOp32
 70
     1
102
RTVSPost2010Prop33
280
     0
102
RTVSPost2010PropOp33
 70
     1
102
RTVSPost2010Prop34
280
     0
102
RTVSPost2010PropOp34
 70
     1
102
RTVSPost2010Prop35
280
     0
102
RTVSPost2010PropOp35
 70
     1
102
RTVSPost2010Prop36
280
     0
102
RTVSPost2010PropOp36
 70
     1
102
RTVSPost2010Prop37
 90
       50
102
RTVSPost2010PropOp37
 70
     1
102
RTVSPost2010Prop38
140
0.0
102
RTVSPost2010PropOp38
 70
     1
102
RTVSPost2010Prop39
140
1.0
102
RTVSPost2010PropOp39
 70
     1
102
RTVSPost2010Prop40
 90
        0
102
RTVSPost2010PropOp40
 70
     1
102
RTVSPost2010Prop41ColorIndex
 90
       18
102
RTVSPost2010Prop41ColorRGB
 90
        0
102
RTVSPost2010PropOp41
 70
     1
102
RTVSPost2010Prop42
 90
       50
102
RTVSPost2010PropOp42
 70
     1
102
RTVSPost2010Prop43
 90
        3
102
RTVSPost2010PropOp43
 70
     1
102
RTVSPost2010Prop44ColorIndex
 90
        5
102
RTVSPost2010Prop44ColorRGB
 90
      255
102
RTVSPost2010PropOp44
 70
     1
102
RTVSPost2010Prop45
280
     0
102
RTVSPost2010PropOp45
 70
     1
102
RTVSPost2010Prop46
 90
       50
102
RTVSPost2010PropOp46
 70
     1
102
RTVSPost2010Prop47
 90
       50
102
RTVSPost2010PropOp47
 70
     1
102
RTVSPost2010Prop48
 90
       50
102
RTVSPost2010PropOp48
 70
     1
102
RTVSPost2010Prop49
280
     0
102
RTVSPost2010PropOp49
 70
     1
102
RTVSPost2010Prop50
 90
       50
102
RTVSPost2010PropOp50
 70
     1
102
RTVSPost2010Prop51ColorIndex
 90
      256
102
RTVSPost2010Prop51ColorRGB
 90
-16777216
102
RTVSPost2010PropOp51
 70
     0
102
RTVSPost2010Prop52
140
1.0
102
RTVSPost2010PropOp52
 70
     0
102
RTVSPost2010Prop53
 90
        2
102
RTVSPost2010PropOp53
 70
     1
102
RTVSPost2010Prop54
  1
strokes_ogs.tif
102
RTVSPost2010PropOp54
 70
     1
102
RTVSPost2010Prop55
280
     0
102
RTVSPost2010PropOp55
 70
     1
102
RTVSPost2010Prop56
140
1.0
102
RTVSPost2010PropOp56
 70
     1
102
RTVSPost2010Prop57
140
1.0
102
RTVSPost2010PropOp57
 70
     1
  0
XRECORD
  5
1F85
102
{ACAD_REACTORS
330
1F84
102
}
330
1F84
100
AcDbXrecord
280
     1
102
RTVSPropertyOp0
 70
     1
102
RTVSPropertyOp1
 70
     1
102
RTVSPropertyOp2
 70
     1
102
RTVSPropertyOp3
 70
     1
102
RTVSPropertyOp4
 70
     1
102
RTVSPropertyOp5
 70
     1
102
RTVSPropertyOp6
 70
     1
102
RTVSPropertyOp7
 70
     1
102
RTVSPropertyOp8
 70
     1
102
RTVSPropertyOp9
 70
     1
102
RTVSPropertyOp10
 70
     1
102
RTVSPropertyOp11
 70
     1
102
RTVSPropertyOp12
 70
     1
102
RTVSPropertyOp13
 70
     1
102
RTVSPropertyOp14
 70
     1
102
RTVSPropertyOp15
 70
     1
102
RTVSPropertyOp16
 70
     1
102
RTVSPropertyOp17
 70
     1
102
RTVSPropertyOp18
 70
     1
102
RTVSPropertyOp19
 70
     1
102
RTVSPropertyOp20
 70
     1
102
RTVSPropertyOp21
 70
     1
102
RTVSPropertyOp22
 70
     1
102
RTVSPropertyOp23
 70
     1
102
RTVSPropertyOp24
 70
     1
102
RTVSPropertyOp25
 70
     1
102
RTVSPropertyOp26
 70
     1
102
RTVSPropertyOp27
 70
     1
102
RTVSPropertyOp28
 70
     1
102
RTVSPropertyOp29
 70
     1
102
RTVSPropertyOp30
 70
     1
102
RTVSPropertyOp31
 70
     1
102
RTVSPropertyOp32
 70
     1
102
RTVSPropertyOp33
 70
     1
102
RTVSPropertyOp34
 70
     1
102
RTVSPropertyOp35
 70
     1
102
RTVSPropertyOp36
 70
     1
102
RTVSPropertyOp37
 70
     1
102
RTVSPropertyOp38
 70
     1
102
RTVSPropertyOp39
 70
     1
102
RTVSPropertyOp40
 70
     1
102
RTVSPropertyOp41
 70
     1
102
RTVSPropertyOp42
 70
     1
102
RTVSPropertyOp43
 70
     1
102
RTVSPropertyOp44
 70
     1
102
RTVSPropertyOp45
 70
     1
102
RTVSPropertyOp46
 70
     1
102
RTVSPropertyOp47
 70
     1
102
RTVSPropertyOp48
 70
     1
102
RTVSPropertyOp49
 70
     1
102
RTVSPropertyOp50
 70
     1
102
RTVSPropertyOp51
 70
     0
102
RTVSPropertyOp52
 70
     0
102
RTVSPropertyOp53
 70
     1
102
RTVSPropertyOp54
 70
     1
102
RTVSPropertyOp55
 70
     1
102
RTVSPropertyOp56
 70
     1
102
RTVSPropertyOp57
 70
     1
102
RTVSPost2010Prop28
280
     0
102
RTVSPost2010PropOp28
 70
     1
102
RTVSPost2010Prop29
280
     1
102
RTVSPost2010PropOp29
 70
     1
102
RTVSPost2010Prop30
280
     1
102
RTVSPost2010PropOp30
 70
     1
102
RTVSPost2010Prop31
280
     0
102
RTVSPost2010PropOp31
 70
     1
102
RTVSPost2010Prop32
280
     0
102
RTVSPost2010PropOp32
 70
     1
102
RTVSPost2010Prop33
280
     0
102
RTVSPost2010PropOp33
 70
     1
102
RTVSPost2010Prop34
280
     0
102
RTVSPost2010PropOp34
 70
     1
102
RTVSPost2010Prop35
280
     0
102
RTVSPost2010PropOp35
 70
     1
102
RTVSPost2010Prop36
280
     0
102
RTVSPost2010PropOp36
 70
     1
102
RTVSPost2010Prop37
 90
       50
102
RTVSPost2010PropOp37
 70
     1
102
RTVSPost2010Prop38
140
0.0
102
RTVSPost2010PropOp38
 70
     1
102
RTVSPost2010Prop39
140
1.0
102
RTVSPost2010PropOp39
 70
     1
102
RTVSPost2010Prop40
 90
        0
102
RTVSPost2010PropOp40
 70
     1
102
RTVSPost2010Prop41ColorIndex
 90
       18
102
RTVSPost2010Prop41ColorRGB
 90
        0
102
RTVSPost2010PropOp41
 70
     1
102
RTVSPost2010Prop42
 90
       50
102
RTVSPost2010PropOp42
 70
     1
102
RTVSPost2010Prop43
 90
        3
102
RTVSPost2010PropOp43
 70
     1
102
RTVSPost2010Prop44ColorIndex
 90
        5
102
RTVSPost2010Prop44ColorRGB
 90
      255
102
RTVSPost2010PropOp44
 70
     1
102
RTVSPost2010Prop45
280
     0
102
RTVSPost2010PropOp45
 70
     1
102
RTVSPost2010Prop46
 90
       50
102
RTVSPost2010PropOp46
 70
     1
102
RTVSPost2010Prop47
 90
       50
102
RTVSPost2010PropOp47
 70
     1
102
RTVSPost2010Prop48
 90
       50
102
RTVSPost2010PropOp48
 70
     1
102
RTVSPost2010Prop49
280
     0
102
RTVSPost2010PropOp49
 70
     1
102
RTVSPost2010Prop50
 90
       50
102
RTVSPost2010PropOp50
 70
     1
102
RTVSPost2010Prop51ColorIndex
 90
      256
102
RTVSPost2010Prop51ColorRGB
 90
-16777216
102
RTVSPost2010PropOp51
 70
     0
102
RTVSPost2010Prop52
140
1.0
102
RTVSPost2010PropOp52
 70
     0
102
RTVSPost2010Prop53
 90
        2
102
RTVSPost2010PropOp53
 70
     1
102
RTVSPost2010Prop54
  1
strokes_ogs.tif
102
RTVSPost2010PropOp54
 70
     1
102
RTVSPost2010Prop55
280
     0
102
RTVSPost2010PropOp55
 70
     1
102
RTVSPost2010Prop56
140
1.0
102
RTVSPost2010PropOp56
 70
     1
102
RTVSPost2010Prop57
140
1.0
102
RTVSPost2010PropOp57
 70
     1
  0
XRECORD
  5
1F95
102
{ACAD_REACTORS
330
1F94
102
}
330
1F94
100
AcDbXrecord
280
     1
102
RTVSPropertyOp0
 70
     0
102
RTVSPropertyOp1
 70
     0
102
RTVSPropertyOp2
 70
     0
102
RTVSPropertyOp3
 70
     0
102
RTVSPropertyOp4
 70
     0
102
RTVSPropertyOp5
 70
     0
102
RTVSPropertyOp6
 70
     0
102
RTVSPropertyOp7
 70
     0
102
RTVSPropertyOp8
 70
     0
102
RTVSPropertyOp9
 70
     0
102
RTVSPropertyOp10
 70
     0
102
RTVSPropertyOp11
 70
     0
102
RTVSPropertyOp12
 70
     0
102
RTVSPropertyOp13
 70
     0
102
RTVSPropertyOp14
 70
     0
102
RTVSPropertyOp15
 70
     0
102
RTVSPropertyOp16
 70
     0
102
RTVSPropertyOp17
 70
     0
102
RTVSPropertyOp18
 70
     0
102
RTVSPropertyOp19
 70
     0
102
RTVSPropertyOp20
 70
     0
102
RTVSPropertyOp21
 70
     0
102
RTVSPropertyOp22
 70
     0
102
RTVSPropertyOp23
 70
     0
102
RTVSPropertyOp24
 70
     0
102
RTVSPropertyOp25
 70
     0
102
RTVSPropertyOp26
 70
     0
102
RTVSPropertyOp27
 70
     0
102
RTVSPropertyOp28
 70
     1
102
RTVSPropertyOp29
 70
     1
102
RTVSPropertyOp30
 70
     1
102
RTVSPropertyOp31
 70
     1
102
RTVSPropertyOp32
 70
     1
102
RTVSPropertyOp33
 70
     1
102
RTVSPropertyOp34
 70
     1
102
RTVSPropertyOp35
 70
     1
102
RTVSPropertyOp36
 70
     1
102
RTVSPropertyOp37
 70
     1
102
RTVSPropertyOp38
 70
     1
102
RTVSPropertyOp39
 70
     1
102
RTVSPropertyOp40
 70
     1
102
RTVSPropertyOp41
 70
     1
102
RTVSPropertyOp42
 70
     1
102
RTVSPropertyOp43
 70
     1
102
RTVSPropertyOp44
 70
     1
102
RTVSPropertyOp45
 70
     1
102
RTVSPropertyOp46
 70
     1
102
RTVSPropertyOp47
 70
     1
102
RTVSPropertyOp48
 70
     1
102
RTVSPropertyOp49
 70
     1
102
RTVSPropertyOp50
 70
     1
102
RTVSPropertyOp51
 70
     0
102
RTVSPropertyOp52
 70
     0
102
RTVSPropertyOp53
 70
     1
102
RTVSPropertyOp54
 70
     1
102
RTVSPropertyOp55
 70
     1
102
RTVSPropertyOp56
 70
     1
102
RTVSPropertyOp57
 70
     1
102
RTVSPost2010Prop28
280
     0
102
RTVSPost2010PropOp28
 70
     1
102
RTVSPost2010Prop29
280
     1
102
RTVSPost2010PropOp29
 70
     1
102
RTVSPost2010Prop30
280
     1
102
RTVSPost2010PropOp30
 70
     1
102
RTVSPost2010Prop31
280
     0
102
RTVSPost2010PropOp31
 70
     1
102
RTVSPost2010Prop32
280
     0
102
RTVSPost2010PropOp32
 70
     1
102
RTVSPost2010Prop33
280
     0
102
RTVSPost2010PropOp33
 70
     1
102
RTVSPost2010Prop34
280
     0
102
RTVSPost2010PropOp34
 70
     1
102
RTVSPost2010Prop35
280
     0
102
RTVSPost2010PropOp35
 70
     1
102
RTVSPost2010Prop36
280
     0
102
RTVSPost2010PropOp36
 70
     1
102
RTVSPost2010Prop37
 90
       50
102
RTVSPost2010PropOp37
 70
     1
102
RTVSPost2010Prop38
140
0.0
102
RTVSPost2010PropOp38
 70
     1
102
RTVSPost2010Prop39
140
1.0
102
RTVSPost2010PropOp39
 70
     1
102
RTVSPost2010Prop40
 90
        0
102
RTVSPost2010PropOp40
 70
     1
102
RTVSPost2010Prop41ColorIndex
 90
       18
102
RTVSPost2010Prop41ColorRGB
 90
        0
102
RTVSPost2010PropOp41
 70
     1
102
RTVSPost2010Prop42
 90
       50
102
RTVSPost2010PropOp42
 70
     1
102
RTVSPost2010Prop43
 90
        3
102
RTVSPost2010PropOp43
 70
     1
102
RTVSPost2010Prop44ColorIndex
 90
        5
102
RTVSPost2010Prop44ColorRGB
 90
      255
102
RTVSPost2010PropOp44
 70
     1
102
RTVSPost2010Prop45
280
     0
102
RTVSPost2010PropOp45
 70
     1
102
RTVSPost2010Prop46
 90
       50
102
RTVSPost2010PropOp46
 70
     1
102
RTVSPost2010Prop47
 90
       50
102
RTVSPost2010PropOp47
 70
     1
102
RTVSPost2010Prop48
 90
       50
102
RTVSPost2010PropOp48
 70
     1
102
RTVSPost2010Prop49
280
     0
102
RTVSPost2010PropOp49
 70
     1
102
RTVSPost2010Prop50
 90
       50
102
RTVSPost2010PropOp50
 70
     1
102
RTVSPost2010Prop51ColorIndex
 90
      256
102
RTVSPost2010Prop51ColorRGB
 90
-16777216
102
RTVSPost2010PropOp51
 70
     0
102
RTVSPost2010Prop52
140
1.0
102
RTVSPost2010PropOp52
 70
     0
102
RTVSPost2010Prop53
 90
        2
102
RTVSPost2010PropOp53
 70
     1
102
RTVSPost2010Prop54
  1
strokes_ogs.tif
102
RTVSPost2010PropOp54
 70
     1
102
RTVSPost2010Prop55
280
     0
102
RTVSPost2010PropOp55
 70
     1
102
RTVSPost2010Prop56
140
1.0
102
RTVSPost2010PropOp56
 70
     1
102
RTVSPost2010Prop57
140
1.0
102
RTVSPost2010PropOp57
 70
     1
  0
XRECORD
  5
1F8D
102
{ACAD_REACTORS
330
1F8C
102
}
330
1F8C
100
AcDbXrecord
280
     1
102
RTVSPropertyOp0
 70
     1
102
RTVSPropertyOp1
 70
     1
102
RTVSPropertyOp2
 70
     1
102
RTVSPropertyOp3
 70
     1
102
RTVSPropertyOp4
 70
     1
102
RTVSPropertyOp5
 70
     1
102
RTVSPropertyOp6
 70
     1
102
RTVSPropertyOp7
 70
     1
102
RTVSPropertyOp8
 70
     1
102
RTVSPropertyOp9
 70
     1
102
RTVSPropertyOp10
 70
     1
102
RTVSPropertyOp11
 70
     1
102
RTVSPropertyOp12
 70
     1
102
RTVSPropertyOp13
 70
     1
102
RTVSPropertyOp14
 70
     1
102
RTVSPropertyOp15
 70
     1
102
RTVSPropertyOp16
 70
     1
102
RTVSPropertyOp17
 70
     1
102
RTVSPropertyOp18
 70
     1
102
RTVSPropertyOp19
 70
     1
102
RTVSPropertyOp20
 70
     1
102
RTVSPropertyOp21
 70
     1
102
RTVSPropertyOp22
 70
     1
102
RTVSPropertyOp23
 70
     1
102
RTVSPropertyOp24
 70
     1
102
RTVSPropertyOp25
 70
     1
102
RTVSPropertyOp26
 70
     1
102
RTVSPropertyOp27
 70
     1
102
RTVSPropertyOp28
 70
     1
102
RTVSPropertyOp29
 70
     1
102
RTVSPropertyOp30
 70
     1
102
RTVSPropertyOp31
 70
     1
102
RTVSPropertyOp32
 70
     1
102
RTVSPropertyOp33
 70
     1
102
RTVSPropertyOp34
 70
     1
102
RTVSPropertyOp35
 70
     1
102
RTVSPropertyOp36
 70
     1
102
RTVSPropertyOp37
 70
     1
102
RTVSPropertyOp38
 70
     1
102
RTVSPropertyOp39
 70
     1
102
RTVSPropertyOp40
 70
     1
102
RTVSPropertyOp41
 70
     1
102
RTVSPropertyOp42
 70
     1
102
RTVSPropertyOp43
 70
     1
102
RTVSPropertyOp44
 70
     1
102
RTVSPropertyOp45
 70
     1
102
RTVSPropertyOp46
 70
     1
102
RTVSPropertyOp47
 70
     1
102
RTVSPropertyOp48
 70
     1
102
RTVSPropertyOp49
 70
     1
102
RTVSPropertyOp50
 70
     1
102
RTVSPropertyOp51
 70
     0
102
RTVSPropertyOp52
 70
     0
102
RTVSPropertyOp53
 70
     1
102
RTVSPropertyOp54
 70
     1
102
RTVSPropertyOp55
 70
     1
102
RTVSPropertyOp56
 70
     1
102
RTVSPropertyOp57
 70
     1
102
RTVSPost2010Prop28
280
     0
102
RTVSPost2010PropOp28
 70
     1
102
RTVSPost2010Prop29
280
     1
102
RTVSPost2010PropOp29
 70
     1
102
RTVSPost2010Prop30
280
     1
102
RTVSPost2010PropOp30
 70
     1
102
RTVSPost2010Prop31
280
     0
102
RTVSPost2010PropOp31
 70
     1
102
RTVSPost2010Prop32
280
     0
102
RTVSPost2010PropOp32
 70
     1
102
RTVSPost2010Prop33
280
     0
102
RTVSPost2010PropOp33
 70
     1
102
RTVSPost2010Prop34
280
     0
102
RTVSPost2010PropOp34
 70
     1
102
RTVSPost2010Prop35
280
     0
102
RTVSPost2010PropOp35
 70
     1
102
RTVSPost2010Prop36
280
     0
102
RTVSPost2010PropOp36
 70
     1
102
RTVSPost2010Prop37
 90
       50
102
RTVSPost2010PropOp37
 70
     1
102
RTVSPost2010Prop38
140
0.0
102
RTVSPost2010PropOp38
 70
     1
102
RTVSPost2010Prop39
140
1.0
102
RTVSPost2010PropOp39
 70
     1
102
RTVSPost2010Prop40
 90
        0
102
RTVSPost2010PropOp40
 70
     1
102
RTVSPost2010Prop41ColorIndex
 90
       18
102
RTVSPost2010Prop41ColorRGB
 90
        0
102
RTVSPost2010PropOp41
 70
     1
102
RTVSPost2010Prop42
 90
       50
102
RTVSPost2010PropOp42
 70
     1
102
RTVSPost2010Prop43
 90
        3
102
RTVSPost2010PropOp43
 70
     1
102
RTVSPost2010Prop44ColorIndex
 90
        5
102
RTVSPost2010Prop44ColorRGB
 90
      255
102
RTVSPost2010PropOp44
 70
     1
102
RTVSPost2010Prop45
280
     0
102
RTVSPost2010PropOp45
 70
     1
102
RTVSPost2010Prop46
 90
       50
102
RTVSPost2010PropOp46
 70
     1
102
RTVSPost2010Prop47
 90
       50
102
RTVSPost2010PropOp47
 70
     1
102
RTVSPost2010Prop48
 90
       50
102
RTVSPost2010PropOp48
 70
     1
102
RTVSPost2010Prop49
280
     0
102
RTVSPost2010PropOp49
 70
     1
102
RTVSPost2010Prop50
 90
       50
102
RTVSPost2010PropOp50
 70
     1
102
RTVSPost2010Prop51ColorIndex
 90
      256
102
RTVSPost2010Prop51ColorRGB
 90
-16777216
102
RTVSPost2010PropOp51
 70
     0
102
RTVSPost2010Prop52
140
1.0
102
RTVSPost2010PropOp52
 70
     0
102
RTVSPost2010Prop53
 90
        2
102
RTVSPost2010PropOp53
 70
     1
102
RTVSPost2010Prop54
  1
strokes_ogs.tif
102
RTVSPost2010PropOp54
 70
     1
102
RTVSPost2010Prop55
280
     0
102
RTVSPost2010PropOp55
 70
     1
102
RTVSPost2010Prop56
140
1.0
102
RTVSPost2010PropOp56
 70
     1
102
RTVSPost2010Prop57
140
1.0
102
RTVSPost2010PropOp57
 70
     1
  0
XRECORD
  5
1F71
102
{ACAD_REACTORS
330
1F70
102
}
330
1F70
100
AcDbXrecord
280
     1
102
RTVSPropertyOp0
 70
     1
102
RTVSPropertyOp1
 70
     1
102
RTVSPropertyOp2
 70
     1
102
RTVSPropertyOp3
 70
     1
102
RTVSPropertyOp4
 70
     1
102
RTVSPropertyOp5
 70
     1
102
RTVSPropertyOp6
 70
     1
102
RTVSPropertyOp7
 70
     1
102
RTVSPropertyOp8
 70
     1
102
RTVSPropertyOp9
 70
     1
102
RTVSPropertyOp10
 70
     1
102
RTVSPropertyOp11
 70
     1
102
RTVSPropertyOp12
 70
     1
102
RTVSPropertyOp13
 70
     1
102
RTVSPropertyOp14
 70
     1
102
RTVSPropertyOp15
 70
     1
102
RTVSPropertyOp16
 70
     1
102
RTVSPropertyOp17
 70
     1
102
RTVSPropertyOp18
 70
     1
102
RTVSPropertyOp19
 70
     1
102
RTVSPropertyOp20
 70
     1
102
RTVSPropertyOp21
 70
     1
102
RTVSPropertyOp22
 70
     1
102
RTVSPropertyOp23
 70
     1
102
RTVSPropertyOp24
 70
     1
102
RTVSPropertyOp25
 70
     1
102
RTVSPropertyOp26
 70
     1
102
RTVSPropertyOp27
 70
     1
102
RTVSPropertyOp28
 70
     1
102
RTVSPropertyOp29
 70
     1
102
RTVSPropertyOp30
 70
     1
102
RTVSPropertyOp31
 70
     1
102
RTVSPropertyOp32
 70
     1
102
RTVSPropertyOp33
 70
     1
102
RTVSPropertyOp34
 70
     1
102
RTVSPropertyOp35
 70
     1
102
RTVSPropertyOp36
 70
     1
102
RTVSPropertyOp37
 70
     1
102
RTVSPropertyOp38
 70
     1
102
RTVSPropertyOp39
 70
     1
102
RTVSPropertyOp40
 70
     1
102
RTVSPropertyOp41
 70
     1
102
RTVSPropertyOp42
 70
     1
102
RTVSPropertyOp43
 70
     1
102
RTVSPropertyOp44
 70
     1
102
RTVSPropertyOp45
 70
     1
102
RTVSPropertyOp46
 70
     1
102
RTVSPropertyOp47
 70
     1
102
RTVSPropertyOp48
 70
     1
102
RTVSPropertyOp49
 70
     1
102
RTVSPropertyOp50
 70
     1
102
RTVSPropertyOp51
 70
     0
102
RTVSPropertyOp52
 70
     0
102
RTVSPropertyOp53
 70
     1
102
RTVSPropertyOp54
 70
     1
102
RTVSPropertyOp55
 70
     1
102
RTVSPropertyOp56
 70
     1
102
RTVSPropertyOp57
 70
     1
102
RTVSPost2010Prop28
280
     0
102
RTVSPost2010PropOp28
 70
     1
102
RTVSPost2010Prop29
280
     1
102
RTVSPost2010PropOp29
 70
     1
102
RTVSPost2010Prop30
280
     1
102
RTVSPost2010PropOp30
 70
     1
102
RTVSPost2010Prop31
280
     0
102
RTVSPost2010PropOp31
 70
     1
102
RTVSPost2010Prop32
280
     0
102
RTVSPost2010PropOp32
 70
     1
102
RTVSPost2010Prop33
280
     0
102
RTVSPost2010PropOp33
 70
     1
102
RTVSPost2010Prop34
280
     0
102
RTVSPost2010PropOp34
 70
     1
102
RTVSPost2010Prop35
280
     0
102
RTVSPost2010PropOp35
 70
     1
102
RTVSPost2010Prop36
280
     0
102
RTVSPost2010PropOp36
 70
     1
102
RTVSPost2010Prop37
 90
       50
102
RTVSPost2010PropOp37
 70
     1
102
RTVSPost2010Prop38
140
0.0
102
RTVSPost2010PropOp38
 70
     1
102
RTVSPost2010Prop39
140
1.0
102
RTVSPost2010PropOp39
 70
     1
102
RTVSPost2010Prop40
 90
        0
102
RTVSPost2010PropOp40
 70
     1
102
RTVSPost2010Prop41ColorIndex
 90
       18
102
RTVSPost2010Prop41ColorRGB
 90
        0
102
RTVSPost2010PropOp41
 70
     1
102
RTVSPost2010Prop42
 90
       50
102
RTVSPost2010PropOp42
 70
     1
102
RTVSPost2010Prop43
 90
        3
102
RTVSPost2010PropOp43
 70
     1
102
RTVSPost2010Prop44ColorIndex
 90
        5
102
RTVSPost2010Prop44ColorRGB
 90
      255
102
RTVSPost2010PropOp44
 70
     1
102
RTVSPost2010Prop45
280
     0
102
RTVSPost2010PropOp45
 70
     1
102
RTVSPost2010Prop46
 90
       50
102
RTVSPost2010PropOp46
 70
     1
102
RTVSPost2010Prop47
 90
       50
102
RTVSPost2010PropOp47
 70
     1
102
RTVSPost2010Prop48
 90
       50
102
RTVSPost2010PropOp48
 70
     1
102
RTVSPost2010Prop49
280
     0
102
RTVSPost2010PropOp49
 70
     1
102
RTVSPost2010Prop50
 90
       50
102
RTVSPost2010PropOp50
 70
     1
102
RTVSPost2010Prop51ColorIndex
 90
      256
102
RTVSPost2010Prop51ColorRGB
 90
-16777216
102
RTVSPost2010PropOp51
 70
     0
102
RTVSPost2010Prop52
140
1.0
102
RTVSPost2010PropOp52
 70
     0
102
RTVSPost2010Prop53
 90
        2
102
RTVSPost2010PropOp53
 70
     1
102
RTVSPost2010Prop54
  1
strokes_ogs.tif
102
RTVSPost2010PropOp54
 70
     1
102
RTVSPost2010Prop55
280
     0
102
RTVSPost2010PropOp55
 70
     1
102
RTVSPost2010Prop56
140
1.0
102
RTVSPost2010PropOp56
 70
     1
102
RTVSPost2010Prop57
140
1.0
102
RTVSPost2010PropOp57
 70
     1
  0
XRECORD
  5
1F73
102
{ACAD_REACTORS
330
1F72
102
}
330
1F72
100
AcDbXrecord
280
     1
102
RTVSPropertyOp0
 70
     1
102
RTVSPropertyOp1
 70
     1
102
RTVSPropertyOp2
 70
     1
102
RTVSPropertyOp3
 70
     1
102
RTVSPropertyOp4
 70
     1
102
RTVSPropertyOp5
 70
     1
102
RTVSPropertyOp6
 70
     1
102
RTVSPropertyOp7
 70
     1
102
RTVSPropertyOp8
 70
     1
102
RTVSPropertyOp9
 70
     1
102
RTVSPropertyOp10
 70
     1
102
RTVSPropertyOp11
 70
     1
102
RTVSPropertyOp12
 70
     1
102
RTVSPropertyOp13
 70
     1
102
RTVSPropertyOp14
 70
     1
102
RTVSPropertyOp15
 70
     1
102
RTVSPropertyOp16
 70
     1
102
RTVSPropertyOp17
 70
     1
102
RTVSPropertyOp18
 70
     1
102
RTVSPropertyOp19
 70
     1
102
RTVSPropertyOp20
 70
     1
102
RTVSPropertyOp21
 70
     1
102
RTVSPropertyOp22
 70
     1
102
RTVSPropertyOp23
 70
     1
102
RTVSPropertyOp24
 70
     1
102
RTVSPropertyOp25
 70
     1
102
RTVSPropertyOp26
 70
     1
102
RTVSPropertyOp27
 70
     1
102
RTVSPropertyOp28
 70
     1
102
RTVSPropertyOp29
 70
     1
102
RTVSPropertyOp30
 70
     1
102
RTVSPropertyOp31
 70
     1
102
RTVSPropertyOp32
 70
     1
102
RTVSPropertyOp33
 70
     1
102
RTVSPropertyOp34
 70
     1
102
RTVSPropertyOp35
 70
     1
102
RTVSPropertyOp36
 70
     1
102
RTVSPropertyOp37
 70
     1
102
RTVSPropertyOp38
 70
     1
102
RTVSPropertyOp39
 70
     1
102
RTVSPropertyOp40
 70
     1
102
RTVSPropertyOp41
 70
     1
102
RTVSPropertyOp42
 70
     1
102
RTVSPropertyOp43
 70
     1
102
RTVSPropertyOp44
 70
     1
102
RTVSPropertyOp45
 70
     1
102
RTVSPropertyOp46
 70
     1
102
RTVSPropertyOp47
 70
     1
102
RTVSPropertyOp48
 70
     1
102
RTVSPropertyOp49
 70
     1
102
RTVSPropertyOp50
 70
     1
102
RTVSPropertyOp51
 70
     0
102
RTVSPropertyOp52
 70
     0
102
RTVSPropertyOp53
 70
     1
102
RTVSPropertyOp54
 70
     1
102
RTVSPropertyOp55
 70
     1
102
RTVSPropertyOp56
 70
     1
102
RTVSPropertyOp57
 70
     1
102
RTVSPost2010Prop28
280
     0
102
RTVSPost2010PropOp28
 70
     1
102
RTVSPost2010Prop29
280
     1
102
RTVSPost2010PropOp29
 70
     1
102
RTVSPost2010Prop30
280
     1
102
RTVSPost2010PropOp30
 70
     1
102
RTVSPost2010Prop31
280
     0
102
RTVSPost2010PropOp31
 70
     1
102
RTVSPost2010Prop32
280
     0
102
RTVSPost2010PropOp32
 70
     1
102
RTVSPost2010Prop33
280
     0
102
RTVSPost2010PropOp33
 70
     1
102
RTVSPost2010Prop34
280
     0
102
RTVSPost2010PropOp34
 70
     1
102
RTVSPost2010Prop35
280
     0
102
RTVSPost2010PropOp35
 70
     1
102
RTVSPost2010Prop36
280
     0
102
RTVSPost2010PropOp36
 70
     1
102
RTVSPost2010Prop37
 90
       50
102
RTVSPost2010PropOp37
 70
     1
102
RTVSPost2010Prop38
140
0.0
102
RTVSPost2010PropOp38
 70
     1
102
RTVSPost2010Prop39
140
1.0
102
RTVSPost2010PropOp39
 70
     1
102
RTVSPost2010Prop40
 90
        0
102
RTVSPost2010PropOp40
 70
     1
102
RTVSPost2010Prop41ColorIndex
 90
       18
102
RTVSPost2010Prop41ColorRGB
 90
        0
102
RTVSPost2010PropOp41
 70
     1
102
RTVSPost2010Prop42
 90
       50
102
RTVSPost2010PropOp42
 70
     1
102
RTVSPost2010Prop43
 90
        3
102
RTVSPost2010PropOp43
 70
     1
102
RTVSPost2010Prop44ColorIndex
 90
        5
102
RTVSPost2010Prop44ColorRGB
 90
      255
102
RTVSPost2010PropOp44
 70
     1
102
RTVSPost2010Prop45
280
     0
102
RTVSPost2010PropOp45
 70
     1
102
RTVSPost2010Prop46
 90
       50
102
RTVSPost2010PropOp46
 70
     1
102
RTVSPost2010Prop47
 90
       50
102
RTVSPost2010PropOp47
 70
     1
102
RTVSPost2010Prop48
 90
       50
102
RTVSPost2010PropOp48
 70
     1
102
RTVSPost2010Prop49
280
     0
102
RTVSPost2010PropOp49
 70
     1
102
RTVSPost2010Prop50
 90
       50
102
RTVSPost2010PropOp50
 70
     1
102
RTVSPost2010Prop51ColorIndex
 90
      256
102
RTVSPost2010Prop51ColorRGB
 90
-16777216
102
RTVSPost2010PropOp51
 70
     0
102
RTVSPost2010Prop52
140
1.0
102
RTVSPost2010PropOp52
 70
     0
102
RTVSPost2010Prop53
 90
        2
102
RTVSPost2010PropOp53
 70
     1
102
RTVSPost2010Prop54
  1
strokes_ogs.tif
102
RTVSPost2010PropOp54
 70
     1
102
RTVSPost2010Prop55
280
     0
102
RTVSPost2010PropOp55
 70
     1
102
RTVSPost2010Prop56
140
1.0
102
RTVSPost2010PropOp56
 70
     1
102
RTVSPost2010Prop57
140
1.0
102
RTVSPost2010PropOp57
 70
     1
  0
XRECORD
  5
1F75
102
{ACAD_REACTORS
330
1F74
102
}
330
1F74
100
AcDbXrecord
280
     1
102
RTVSPropertyOp0
 70
     1
102
RTVSPropertyOp1
 70
     1
102
RTVSPropertyOp2
 70
     1
102
RTVSPropertyOp3
 70
     1
102
RTVSPropertyOp4
 70
     1
102
RTVSPropertyOp5
 70
     1
102
RTVSPropertyOp6
 70
     1
102
RTVSPropertyOp7
 70
     1
102
RTVSPropertyOp8
 70
     1
102
RTVSPropertyOp9
 70
     1
102
RTVSPropertyOp10
 70
     1
102
RTVSPropertyOp11
 70
     1
102
RTVSPropertyOp12
 70
     1
102
RTVSPropertyOp13
 70
     1
102
RTVSPropertyOp14
 70
     1
102
RTVSPropertyOp15
 70
     1
102
RTVSPropertyOp16
 70
     1
102
RTVSPropertyOp17
 70
     1
102
RTVSPropertyOp18
 70
     1
102
RTVSPropertyOp19
 70
     1
102
RTVSPropertyOp20
 70
     1
102
RTVSPropertyOp21
 70
     1
102
RTVSPropertyOp22
 70
     1
102
RTVSPropertyOp23
 70
     1
102
RTVSPropertyOp24
 70
     1
102
RTVSPropertyOp25
 70
     1
102
RTVSPropertyOp26
 70
     1
102
RTVSPropertyOp27
 70
     1
102
RTVSPropertyOp28
 70
     1
102
RTVSPropertyOp29
 70
     1
102
RTVSPropertyOp30
 70
     1
102
RTVSPropertyOp31
 70
     1
102
RTVSPropertyOp32
 70
     1
102
RTVSPropertyOp33
 70
     1
102
RTVSPropertyOp34
 70
     1
102
RTVSPropertyOp35
 70
     1
102
RTVSPropertyOp36
 70
     1
102
RTVSPropertyOp37
 70
     1
102
RTVSPropertyOp38
 70
     1
102
RTVSPropertyOp39
 70
     1
102
RTVSPropertyOp40
 70
     1
102
RTVSPropertyOp41
 70
     1
102
RTVSPropertyOp42
 70
     1
102
RTVSPropertyOp43
 70
     1
102
RTVSPropertyOp44
 70
     1
102
RTVSPropertyOp45
 70
     1
102
RTVSPropertyOp46
 70
     1
102
RTVSPropertyOp47
 70
     1
102
RTVSPropertyOp48
 70
     1
102
RTVSPropertyOp49
 70
     1
102
RTVSPropertyOp50
 70
     1
102
RTVSPropertyOp51
 70
     0
102
RTVSPropertyOp52
 70
     0
102
RTVSPropertyOp53
 70
     1
102
RTVSPropertyOp54
 70
     1
102
RTVSPropertyOp55
 70
     1
102
RTVSPropertyOp56
 70
     1
102
RTVSPropertyOp57
 70
     1
102
RTVSPost2010Prop28
280
     0
102
RTVSPost2010PropOp28
 70
     1
102
RTVSPost2010Prop29
280
     1
102
RTVSPost2010PropOp29
 70
     1
102
RTVSPost2010Prop30
280
     1
102
RTVSPost2010PropOp30
 70
     1
102
RTVSPost2010Prop31
280
     0
102
RTVSPost2010PropOp31
 70
     1
102
RTVSPost2010Prop32
280
     0
102
RTVSPost2010PropOp32
 70
     1
102
RTVSPost2010Prop33
280
     0
102
RTVSPost2010PropOp33
 70
     1
102
RTVSPost2010Prop34
280
     0
102
RTVSPost2010PropOp34
 70
     1
102
RTVSPost2010Prop35
280
     0
102
RTVSPost2010PropOp35
 70
     1
102
RTVSPost2010Prop36
280
     0
102
RTVSPost2010PropOp36
 70
     1
102
RTVSPost2010Prop37
 90
       50
102
RTVSPost2010PropOp37
 70
     1
102
RTVSPost2010Prop38
140
0.0
102
RTVSPost2010PropOp38
 70
     1
102
RTVSPost2010Prop39
140
1.0
102
RTVSPost2010PropOp39
 70
     1
102
RTVSPost2010Prop40
 90
        0
102
RTVSPost2010PropOp40
 70
     1
102
RTVSPost2010Prop41ColorIndex
 90
       18
102
RTVSPost2010Prop41ColorRGB
 90
        0
102
RTVSPost2010PropOp41
 70
     1
102
RTVSPost2010Prop42
 90
       50
102
RTVSPost2010PropOp42
 70
     1
102
RTVSPost2010Prop43
 90
        3
102
RTVSPost2010PropOp43
 70
     1
102
RTVSPost2010Prop44ColorIndex
 90
        5
102
RTVSPost2010Prop44ColorRGB
 90
      255
102
RTVSPost2010PropOp44
 70
     1
102
RTVSPost2010Prop45
280
     0
102
RTVSPost2010PropOp45
 70
     1
102
RTVSPost2010Prop46
 90
       50
102
RTVSPost2010PropOp46
 70
     1
102
RTVSPost2010Prop47
 90
       50
102
RTVSPost2010PropOp47
 70
     1
102
RTVSPost2010Prop48
 90
       50
102
RTVSPost2010PropOp48
 70
     1
102
RTVSPost2010Prop49
280
     0
102
RTVSPost2010PropOp49
 70
     1
102
RTVSPost2010Prop50
 90
       50
102
RTVSPost2010PropOp50
 70
     1
102
RTVSPost2010Prop51ColorIndex
 90
      256
102
RTVSPost2010Prop51ColorRGB
 90
-16777216
102
RTVSPost2010PropOp51
 70
     0
102
RTVSPost2010Prop52
140
1.0
102
RTVSPost2010PropOp52
 70
     0
102
RTVSPost2010Prop53
 90
        2
102
RTVSPost2010PropOp53
 70
     1
102
RTVSPost2010Prop54
  1
strokes_ogs.tif
102
RTVSPost2010PropOp54
 70
     1
102
RTVSPost2010Prop55
280
     0
102
RTVSPost2010PropOp55
 70
     1
102
RTVSPost2010Prop56
140
1.0
102
RTVSPost2010PropOp56
 70
     1
102
RTVSPost2010Prop57
140
1.0
102
RTVSPost2010PropOp57
 70
     1
  0
XRECORD
  5
1F77
102
{ACAD_REACTORS
330
1F76
102
}
330
1F76
100
AcDbXrecord
280
     1
102
RTVSPropertyOp0
 70
     1
102
RTVSPropertyOp1
 70
     1
102
RTVSPropertyOp2
 70
     1
102
RTVSPropertyOp3
 70
     1
102
RTVSPropertyOp4
 70
     1
102
RTVSPropertyOp5
 70
     1
102
RTVSPropertyOp6
 70
     1
102
RTVSPropertyOp7
 70
     1
102
RTVSPropertyOp8
 70
     1
102
RTVSPropertyOp9
 70
     1
102
RTVSPropertyOp10
 70
     1
102
RTVSPropertyOp11
 70
     1
102
RTVSPropertyOp12
 70
     1
102
RTVSPropertyOp13
 70
     1
102
RTVSPropertyOp14
 70
     1
102
RTVSPropertyOp15
 70
     1
102
RTVSPropertyOp16
 70
     1
102
RTVSPropertyOp17
 70
     1
102
RTVSPropertyOp18
 70
     1
102
RTVSPropertyOp19
 70
     1
102
RTVSPropertyOp20
 70
     1
102
RTVSPropertyOp21
 70
     1
102
RTVSPropertyOp22
 70
     1
102
RTVSPropertyOp23
 70
     1
102
RTVSPropertyOp24
 70
     1
102
RTVSPropertyOp25
 70
     1
102
RTVSPropertyOp26
 70
     1
102
RTVSPropertyOp27
 70
     1
102
RTVSPropertyOp28
 70
     1
102
RTVSPropertyOp29
 70
     1
102
RTVSPropertyOp30
 70
     1
102
RTVSPropertyOp31
 70
     1
102
RTVSPropertyOp32
 70
     1
102
RTVSPropertyOp33
 70
     1
102
RTVSPropertyOp34
 70
     1
102
RTVSPropertyOp35
 70
     1
102
RTVSPropertyOp36
 70
     1
102
RTVSPropertyOp37
 70
     1
102
RTVSPropertyOp38
 70
     1
102
RTVSPropertyOp39
 70
     1
102
RTVSPropertyOp40
 70
     1
102
RTVSPropertyOp41
 70
     1
102
RTVSPropertyOp42
 70
     1
102
RTVSPropertyOp43
 70
     1
102
RTVSPropertyOp44
 70
     1
102
RTVSPropertyOp45
 70
     1
102
RTVSPropertyOp46
 70
     1
102
RTVSPropertyOp47
 70
     1
102
RTVSPropertyOp48
 70
     1
102
RTVSPropertyOp49
 70
     1
102
RTVSPropertyOp50
 70
     1
102
RTVSPropertyOp51
 70
     0
102
RTVSPropertyOp52
 70
     0
102
RTVSPropertyOp53
 70
     1
102
RTVSPropertyOp54
 70
     1
102
RTVSPropertyOp55
 70
     1
102
RTVSPropertyOp56
 70
     1
102
RTVSPropertyOp57
 70
     1
102
RTVSPost2010Prop28
280
     0
102
RTVSPost2010PropOp28
 70
     1
102
RTVSPost2010Prop29
280
     1
102
RTVSPost2010PropOp29
 70
     1
102
RTVSPost2010Prop30
280
     1
102
RTVSPost2010PropOp30
 70
     1
102
RTVSPost2010Prop31
280
     0
102
RTVSPost2010PropOp31
 70
     1
102
RTVSPost2010Prop32
280
     0
102
RTVSPost2010PropOp32
 70
     1
102
RTVSPost2010Prop33
280
     0
102
RTVSPost2010PropOp33
 70
     1
102
RTVSPost2010Prop34
280
     0
102
RTVSPost2010PropOp34
 70
     1
102
RTVSPost2010Prop35
280
     0
102
RTVSPost2010PropOp35
 70
     1
102
RTVSPost2010Prop36
280
     0
102
RTVSPost2010PropOp36
 70
     1
102
RTVSPost2010Prop37
 90
       50
102
RTVSPost2010PropOp37
 70
     1
102
RTVSPost2010Prop38
140
0.0
102
RTVSPost2010PropOp38
 70
     1
102
RTVSPost2010Prop39
140
1.0
102
RTVSPost2010PropOp39
 70
     1
102
RTVSPost2010Prop40
 90
        0
102
RTVSPost2010PropOp40
 70
     1
102
RTVSPost2010Prop41ColorIndex
 90
       18
102
RTVSPost2010Prop41ColorRGB
 90
        0
102
RTVSPost2010PropOp41
 70
     1
102
RTVSPost2010Prop42
 90
       50
102
RTVSPost2010PropOp42
 70
     1
102
RTVSPost2010Prop43
 90
        3
102
RTVSPost2010PropOp43
 70
     1
102
RTVSPost2010Prop44ColorIndex
 90
        5
102
RTVSPost2010Prop44ColorRGB
 90
      255
102
RTVSPost2010PropOp44
 70
     1
102
RTVSPost2010Prop45
280
     0
102
RTVSPost2010PropOp45
 70
     1
102
RTVSPost2010Prop46
 90
       50
102
RTVSPost2010PropOp46
 70
     1
102
RTVSPost2010Prop47
 90
       50
102
RTVSPost2010PropOp47
 70
     1
102
RTVSPost2010Prop48
 90
       50
102
RTVSPost2010PropOp48
 70
     1
102
RTVSPost2010Prop49
280
     0
102
RTVSPost2010PropOp49
 70
     1
102
RTVSPost2010Prop50
 90
       50
102
RTVSPost2010PropOp50
 70
     1
102
RTVSPost2010Prop51ColorIndex
 90
      256
102
RTVSPost2010Prop51ColorRGB
 90
-16777216
102
RTVSPost2010PropOp51
 70
     0
102
RTVSPost2010Prop52
140
1.0
102
RTVSPost2010PropOp52
 70
     0
102
RTVSPost2010Prop53
 90
        2
102
RTVSPost2010PropOp53
 70
     1
102
RTVSPost2010Prop54
  1
strokes_ogs.tif
102
RTVSPost2010PropOp54
 70
     1
102
RTVSPost2010Prop55
280
     0
102
RTVSPost2010PropOp55
 70
     1
102
RTVSPost2010Prop56
140
1.0
102
RTVSPost2010PropOp56
 70
     1
102
RTVSPost2010Prop57
140
1.0
102
RTVSPost2010PropOp57
 70
     1
  0
XRECORD
  5
1F7D
102
{ACAD_REACTORS
330
1F7C
102
}
330
1F7C
100
AcDbXrecord
280
     1
102
RTVSPropertyOp0
 70
     1
102
RTVSPropertyOp1
 70
     1
102
RTVSPropertyOp2
 70
     1
102
RTVSPropertyOp3
 70
     1
102
RTVSPropertyOp4
 70
     1
102
RTVSPropertyOp5
 70
     1
102
RTVSPropertyOp6
 70
     1
102
RTVSPropertyOp7
 70
     1
102
RTVSPropertyOp8
 70
     1
102
RTVSPropertyOp9
 70
     1
102
RTVSPropertyOp10
 70
     1
102
RTVSPropertyOp11
 70
     1
102
RTVSPropertyOp12
 70
     1
102
RTVSPropertyOp13
 70
     1
102
RTVSPropertyOp14
 70
     1
102
RTVSPropertyOp15
 70
     1
102
RTVSPropertyOp16
 70
     1
102
RTVSPropertyOp17
 70
     1
102
RTVSPropertyOp18
 70
     1
102
RTVSPropertyOp19
 70
     1
102
RTVSPropertyOp20
 70
     1
102
RTVSPropertyOp21
 70
     1
102
RTVSPropertyOp22
 70
     1
102
RTVSPropertyOp23
 70
     1
102
RTVSPropertyOp24
 70
     1
102
RTVSPropertyOp25
 70
     1
102
RTVSPropertyOp26
 70
     1
102
RTVSPropertyOp27
 70
     1
102
RTVSPropertyOp28
 70
     1
102
RTVSPropertyOp29
 70
     1
102
RTVSPropertyOp30
 70
     1
102
RTVSPropertyOp31
 70
     1
102
RTVSPropertyOp32
 70
     1
102
RTVSPropertyOp33
 70
     1
102
RTVSPropertyOp34
 70
     1
102
RTVSPropertyOp35
 70
     1
102
RTVSPropertyOp36
 70
     1
102
RTVSPropertyOp37
 70
     1
102
RTVSPropertyOp38
 70
     1
102
RTVSPropertyOp39
 70
     1
102
RTVSPropertyOp40
 70
     1
102
RTVSPropertyOp41
 70
     1
102
RTVSPropertyOp42
 70
     1
102
RTVSPropertyOp43
 70
     1
102
RTVSPropertyOp44
 70
     1
102
RTVSPropertyOp45
 70
     1
102
RTVSPropertyOp46
 70
     1
102
RTVSPropertyOp47
 70
     1
102
RTVSPropertyOp48
 70
     1
102
RTVSPropertyOp49
 70
     1
102
RTVSPropertyOp50
 70
     1
102
RTVSPropertyOp51
 70
     0
102
RTVSPropertyOp52
 70
     0
102
RTVSPropertyOp53
 70
     1
102
RTVSPropertyOp54
 70
     1
102
RTVSPropertyOp55
 70
     1
102
RTVSPropertyOp56
 70
     1
102
RTVSPropertyOp57
 70
     1
102
RTVSPost2010Prop28
280
     0
102
RTVSPost2010PropOp28
 70
     1
102
RTVSPost2010Prop29
280
     1
102
RTVSPost2010PropOp29
 70
     1
102
RTVSPost2010Prop30
280
     1
102
RTVSPost2010PropOp30
 70
     1
102
RTVSPost2010Prop31
280
     0
102
RTVSPost2010PropOp31
 70
     1
102
RTVSPost2010Prop32
280
     0
102
RTVSPost2010PropOp32
 70
     1
102
RTVSPost2010Prop33
280
     0
102
RTVSPost2010PropOp33
 70
     1
102
RTVSPost2010Prop34
280
     0
102
RTVSPost2010PropOp34
 70
     1
102
RTVSPost2010Prop35
280
     0
102
RTVSPost2010PropOp35
 70
     1
102
RTVSPost2010Prop36
280
     0
102
RTVSPost2010PropOp36
 70
     1
102
RTVSPost2010Prop37
 90
       50
102
RTVSPost2010PropOp37
 70
     1
102
RTVSPost2010Prop38
140
0.0
102
RTVSPost2010PropOp38
 70
     1
102
RTVSPost2010Prop39
140
1.0
102
RTVSPost2010PropOp39
 70
     1
102
RTVSPost2010Prop40
 90
        0
102
RTVSPost2010PropOp40
 70
     1
102
RTVSPost2010Prop41ColorIndex
 90
       18
102
RTVSPost2010Prop41ColorRGB
 90
        0
102
RTVSPost2010PropOp41
 70
     1
102
RTVSPost2010Prop42
 90
       50
102
RTVSPost2010PropOp42
 70
     1
102
RTVSPost2010Prop43
 90
        3
102
RTVSPost2010PropOp43
 70
     1
102
RTVSPost2010Prop44ColorIndex
 90
        5
102
RTVSPost2010Prop44ColorRGB
 90
      255
102
RTVSPost2010PropOp44
 70
     1
102
RTVSPost2010Prop45
280
     0
102
RTVSPost2010PropOp45
 70
     1
102
RTVSPost2010Prop46
 90
       50
102
RTVSPost2010PropOp46
 70
     1
102
RTVSPost2010Prop47
 90
       50
102
RTVSPost2010PropOp47
 70
     1
102
RTVSPost2010Prop48
 90
       50
102
RTVSPost2010PropOp48
 70
     1
102
RTVSPost2010Prop49
280
     0
102
RTVSPost2010PropOp49
 70
     1
102
RTVSPost2010Prop50
 90
       50
102
RTVSPost2010PropOp50
 70
     1
102
RTVSPost2010Prop51ColorIndex
 90
      256
102
RTVSPost2010Prop51ColorRGB
 90
-16777216
102
RTVSPost2010PropOp51
 70
     0
102
RTVSPost2010Prop52
140
1.0
102
RTVSPost2010PropOp52
 70
     0
102
RTVSPost2010Prop53
 90
        2
102
RTVSPost2010PropOp53
 70
     1
102
RTVSPost2010Prop54
  1
strokes_ogs.tif
102
RTVSPost2010PropOp54
 70
     1
102
RTVSPost2010Prop55
280
     0
102
RTVSPost2010PropOp55
 70
     1
102
RTVSPost2010Prop56
140
1.0
102
RTVSPost2010PropOp56
 70
     1
102
RTVSPost2010Prop57
140
1.0
102
RTVSPost2010PropOp57
 70
     1
  0
XRECORD
  5
1F91
102
{ACAD_REACTORS
330
1F90
102
}
330
1F90
100
AcDbXrecord
280
     1
102
RTVSPropertyOp0
 70
     0
102
RTVSPropertyOp1
 70
     0
102
RTVSPropertyOp2
 70
     0
102
RTVSPropertyOp3
 70
     0
102
RTVSPropertyOp4
 70
     0
102
RTVSPropertyOp5
 70
     0
102
RTVSPropertyOp6
 70
     0
102
RTVSPropertyOp7
 70
     0
102
RTVSPropertyOp8
 70
     0
102
RTVSPropertyOp9
 70
     0
102
RTVSPropertyOp10
 70
     0
102
RTVSPropertyOp11
 70
     0
102
RTVSPropertyOp12
 70
     0
102
RTVSPropertyOp13
 70
     0
102
RTVSPropertyOp14
 70
     0
102
RTVSPropertyOp15
 70
     0
102
RTVSPropertyOp16
 70
     0
102
RTVSPropertyOp17
 70
     0
102
RTVSPropertyOp18
 70
     0
102
RTVSPropertyOp19
 70
     0
102
RTVSPropertyOp20
 70
     0
102
RTVSPropertyOp21
 70
     0
102
RTVSPropertyOp22
 70
     0
102
RTVSPropertyOp23
 70
     0
102
RTVSPropertyOp24
 70
     0
102
RTVSPropertyOp25
 70
     0
102
RTVSPropertyOp26
 70
     0
102
RTVSPropertyOp27
 70
     0
102
RTVSPropertyOp28
 70
     1
102
RTVSPropertyOp29
 70
     1
102
RTVSPropertyOp30
 70
     1
102
RTVSPropertyOp31
 70
     1
102
RTVSPropertyOp32
 70
     1
102
RTVSPropertyOp33
 70
     1
102
RTVSPropertyOp34
 70
     1
102
RTVSPropertyOp35
 70
     1
102
RTVSPropertyOp36
 70
     1
102
RTVSPropertyOp37
 70
     1
102
RTVSPropertyOp38
 70
     1
102
RTVSPropertyOp39
 70
     1
102
RTVSPropertyOp40
 70
     1
102
RTVSPropertyOp41
 70
     1
102
RTVSPropertyOp42
 70
     1
102
RTVSPropertyOp43
 70
     1
102
RTVSPropertyOp44
 70
     1
102
RTVSPropertyOp45
 70
     1
102
RTVSPropertyOp46
 70
     1
102
RTVSPropertyOp47
 70
     1
102
RTVSPropertyOp48
 70
     1
102
RTVSPropertyOp49
 70
     1
102
RTVSPropertyOp50
 70
     1
102
RTVSPropertyOp51
 70
     0
102
RTVSPropertyOp52
 70
     0
102
RTVSPropertyOp53
 70
     1
102
RTVSPropertyOp54
 70
     1
102
RTVSPropertyOp55
 70
     1
102
RTVSPropertyOp56
 70
     1
102
RTVSPropertyOp57
 70
     1
102
RTVSPost2010Prop28
280
     0
102
RTVSPost2010PropOp28
 70
     1
102
RTVSPost2010Prop29
280
     1
102
RTVSPost2010PropOp29
 70
     1
102
RTVSPost2010Prop30
280
     1
102
RTVSPost2010PropOp30
 70
     1
102
RTVSPost2010Prop31
280
     0
102
RTVSPost2010PropOp31
 70
     1
102
RTVSPost2010Prop32
280
     0
102
RTVSPost2010PropOp32
 70
     1
102
RTVSPost2010Prop33
280
     0
102
RTVSPost2010PropOp33
 70
     1
102
RTVSPost2010Prop34
280
     0
102
RTVSPost2010PropOp34
 70
     1
102
RTVSPost2010Prop35
280
     0
102
RTVSPost2010PropOp35
 70
     1
102
RTVSPost2010Prop36
280
     0
102
RTVSPost2010PropOp36
 70
     1
102
RTVSPost2010Prop37
 90
       50
102
RTVSPost2010PropOp37
 70
     1
102
RTVSPost2010Prop38
140
0.0
102
RTVSPost2010PropOp38
 70
     1
102
RTVSPost2010Prop39
140
1.0
102
RTVSPost2010PropOp39
 70
     1
102
RTVSPost2010Prop40
 90
        0
102
RTVSPost2010PropOp40
 70
     1
102
RTVSPost2010Prop41ColorIndex
 90
       18
102
RTVSPost2010Prop41ColorRGB
 90
        0
102
RTVSPost2010PropOp41
 70
     1
102
RTVSPost2010Prop42
 90
       50
102
RTVSPost2010PropOp42
 70
     1
102
RTVSPost2010Prop43
 90
        3
102
RTVSPost2010PropOp43
 70
     1
102
RTVSPost2010Prop44ColorIndex
 90
        5
102
RTVSPost2010Prop44ColorRGB
 90
      255
102
RTVSPost2010PropOp44
 70
     1
102
RTVSPost2010Prop45
280
     0
102
RTVSPost2010PropOp45
 70
     1
102
RTVSPost2010Prop46
 90
       50
102
RTVSPost2010PropOp46
 70
     1
102
RTVSPost2010Prop47
 90
       50
102
RTVSPost2010PropOp47
 70
     1
102
RTVSPost2010Prop48
 90
       50
102
RTVSPost2010PropOp48
 70
     1
102
RTVSPost2010Prop49
280
     0
102
RTVSPost2010PropOp49
 70
     1
102
RTVSPost2010Prop50
 90
       50
102
RTVSPost2010PropOp50
 70
     1
102
RTVSPost2010Prop51ColorIndex
 90
      256
102
RTVSPost2010Prop51ColorRGB
 90
-16777216
102
RTVSPost2010PropOp51
 70
     0
102
RTVSPost2010Prop52
140
1.0
102
RTVSPost2010PropOp52
 70
     0
102
RTVSPost2010Prop53
 90
        2
102
RTVSPost2010PropOp53
 70
     1
102
RTVSPost2010Prop54
  1
strokes_ogs.tif
102
RTVSPost2010PropOp54
 70
     1
102
RTVSPost2010Prop55
280
     0
102
RTVSPost2010PropOp55
 70
     1
102
RTVSPost2010Prop56
140
1.0
102
RTVSPost2010PropOp56
 70
     1
102
RTVSPost2010Prop57
140
1.0
102
RTVSPost2010PropOp57
 70
     1
  0
XRECORD
  5
1F8B
102
{ACAD_REACTORS
330
1F8A
102
}
330
1F8A
100
AcDbXrecord
280
     1
102
RTVSPropertyOp0
 70
     1
102
RTVSPropertyOp1
 70
     1
102
RTVSPropertyOp2
 70
     1
102
RTVSPropertyOp3
 70
     1
102
RTVSPropertyOp4
 70
     1
102
RTVSPropertyOp5
 70
     1
102
RTVSPropertyOp6
 70
     1
102
RTVSPropertyOp7
 70
     1
102
RTVSPropertyOp8
 70
     1
102
RTVSPropertyOp9
 70
     1
102
RTVSPropertyOp10
 70
     1
102
RTVSPropertyOp11
 70
     1
102
RTVSPropertyOp12
 70
     1
102
RTVSPropertyOp13
 70
     1
102
RTVSPropertyOp14
 70
     1
102
RTVSPropertyOp15
 70
     1
102
RTVSPropertyOp16
 70
     1
102
RTVSPropertyOp17
 70
     1
102
RTVSPropertyOp18
 70
     1
102
RTVSPropertyOp19
 70
     1
102
RTVSPropertyOp20
 70
     1
102
RTVSPropertyOp21
 70
     1
102
RTVSPropertyOp22
 70
     1
102
RTVSPropertyOp23
 70
     1
102
RTVSPropertyOp24
 70
     1
102
RTVSPropertyOp25
 70
     1
102
RTVSPropertyOp26
 70
     1
102
RTVSPropertyOp27
 70
     1
102
RTVSPropertyOp28
 70
     1
102
RTVSPropertyOp29
 70
     1
102
RTVSPropertyOp30
 70
     1
102
RTVSPropertyOp31
 70
     1
102
RTVSPropertyOp32
 70
     1
102
RTVSPropertyOp33
 70
     1
102
RTVSPropertyOp34
 70
     1
102
RTVSPropertyOp35
 70
     1
102
RTVSPropertyOp36
 70
     1
102
RTVSPropertyOp37
 70
     1
102
RTVSPropertyOp38
 70
     1
102
RTVSPropertyOp39
 70
     1
102
RTVSPropertyOp40
 70
     1
102
RTVSPropertyOp41
 70
     1
102
RTVSPropertyOp42
 70
     1
102
RTVSPropertyOp43
 70
     1
102
RTVSPropertyOp44
 70
     1
102
RTVSPropertyOp45
 70
     1
102
RTVSPropertyOp46
 70
     1
102
RTVSPropertyOp47
 70
     1
102
RTVSPropertyOp48
 70
     1
102
RTVSPropertyOp49
 70
     1
102
RTVSPropertyOp50
 70
     1
102
RTVSPropertyOp51
 70
     0
102
RTVSPropertyOp52
 70
     0
102
RTVSPropertyOp53
 70
     1
102
RTVSPropertyOp54
 70
     1
102
RTVSPropertyOp55
 70
     1
102
RTVSPropertyOp56
 70
     1
102
RTVSPropertyOp57
 70
     1
102
RTVSPost2010Prop28
280
     0
102
RTVSPost2010PropOp28
 70
     1
102
RTVSPost2010Prop29
280
     1
102
RTVSPost2010PropOp29
 70
     1
102
RTVSPost2010Prop30
280
     1
102
RTVSPost2010PropOp30
 70
     1
102
RTVSPost2010Prop31
280
     0
102
RTVSPost2010PropOp31
 70
     1
102
RTVSPost2010Prop32
280
     0
102
RTVSPost2010PropOp32
 70
     1
102
RTVSPost2010Prop33
280
     0
102
RTVSPost2010PropOp33
 70
     1
102
RTVSPost2010Prop34
280
     0
102
RTVSPost2010PropOp34
 70
     1
102
RTVSPost2010Prop35
280
     0
102
RTVSPost2010PropOp35
 70
     1
102
RTVSPost2010Prop36
280
     0
102
RTVSPost2010PropOp36
 70
     1
102
RTVSPost2010Prop37
 90
       50
102
RTVSPost2010PropOp37
 70
     1
102
RTVSPost2010Prop38
140
0.0
102
RTVSPost2010PropOp38
 70
     1
102
RTVSPost2010Prop39
140
1.0
102
RTVSPost2010PropOp39
 70
     1
102
RTVSPost2010Prop40
 90
        0
102
RTVSPost2010PropOp40
 70
     1
102
RTVSPost2010Prop41ColorIndex
 90
       18
102
RTVSPost2010Prop41ColorRGB
 90
        0
102
RTVSPost2010PropOp41
 70
     1
102
RTVSPost2010Prop42
 90
       50
102
RTVSPost2010PropOp42
 70
     1
102
RTVSPost2010Prop43
 90
        3
102
RTVSPost2010PropOp43
 70
     1
102
RTVSPost2010Prop44ColorIndex
 90
        5
102
RTVSPost2010Prop44ColorRGB
 90
      255
102
RTVSPost2010PropOp44
 70
     1
102
RTVSPost2010Prop45
280
     0
102
RTVSPost2010PropOp45
 70
     1
102
RTVSPost2010Prop46
 90
       50
102
RTVSPost2010PropOp46
 70
     1
102
RTVSPost2010Prop47
 90
       50
102
RTVSPost2010PropOp47
 70
     1
102
RTVSPost2010Prop48
 90
       50
102
RTVSPost2010PropOp48
 70
     1
102
RTVSPost2010Prop49
280
     0
102
RTVSPost2010PropOp49
 70
     1
102
RTVSPost2010Prop50
 90
       50
102
RTVSPost2010PropOp50
 70
     1
102
RTVSPost2010Prop51ColorIndex
 90
      256
102
RTVSPost2010Prop51ColorRGB
 90
-16777216
102
RTVSPost2010PropOp51
 70
     0
102
RTVSPost2010Prop52
140
1.0
102
RTVSPost2010PropOp52
 70
     0
102
RTVSPost2010Prop53
 90
        2
102
RTVSPost2010PropOp53
 70
     1
102
RTVSPost2010Prop54
  1
strokes_ogs.tif
102
RTVSPost2010PropOp54
 70
     1
102
RTVSPost2010Prop55
280
     0
102
RTVSPost2010PropOp55
 70
     1
102
RTVSPost2010Prop56
140
1.0
102
RTVSPost2010PropOp56
 70
     1
102
RTVSPost2010Prop57
140
1.0
102
RTVSPost2010PropOp57
 70
     1
  0
XRECORD
  5
1F93
102
{ACAD_REACTORS
330
1F92
102
}
330
1F92
100
AcDbXrecord
280
     1
102
RTVSPropertyOp0
 70
     0
102
RTVSPropertyOp1
 70
     0
102
RTVSPropertyOp2
 70
     0
102
RTVSPropertyOp3
 70
     0
102
RTVSPropertyOp4
 70
     0
102
RTVSPropertyOp5
 70
     0
102
RTVSPropertyOp6
 70
     0
102
RTVSPropertyOp7
 70
     0
102
RTVSPropertyOp8
 70
     0
102
RTVSPropertyOp9
 70
     0
102
RTVSPropertyOp10
 70
     0
102
RTVSPropertyOp11
 70
     0
102
RTVSPropertyOp12
 70
     0
102
RTVSPropertyOp13
 70
     0
102
RTVSPropertyOp14
 70
     0
102
RTVSPropertyOp15
 70
     0
102
RTVSPropertyOp16
 70
     0
102
RTVSPropertyOp17
 70
     0
102
RTVSPropertyOp18
 70
     0
102
RTVSPropertyOp19
 70
     0
102
RTVSPropertyOp20
 70
     0
102
RTVSPropertyOp21
 70
     0
102
RTVSPropertyOp22
 70
     0
102
RTVSPropertyOp23
 70
     0
102
RTVSPropertyOp24
 70
     0
102
RTVSPropertyOp25
 70
     0
102
RTVSPropertyOp26
 70
     0
102
RTVSPropertyOp27
 70
     0
102
RTVSPropertyOp28
 70
     1
102
RTVSPropertyOp29
 70
     1
102
RTVSPropertyOp30
 70
     1
102
RTVSPropertyOp31
 70
     1
102
RTVSPropertyOp32
 70
     1
102
RTVSPropertyOp33
 70
     1
102
RTVSPropertyOp34
 70
     1
102
RTVSPropertyOp35
 70
     1
102
RTVSPropertyOp36
 70
     1
102
RTVSPropertyOp37
 70
     1
102
RTVSPropertyOp38
 70
     1
102
RTVSPropertyOp39
 70
     1
102
RTVSPropertyOp40
 70
     1
102
RTVSPropertyOp41
 70
     1
102
RTVSPropertyOp42
 70
     1
102
RTVSPropertyOp43
 70
     1
102
RTVSPropertyOp44
 70
     1
102
RTVSPropertyOp45
 70
     1
102
RTVSPropertyOp46
 70
     1
102
RTVSPropertyOp47
 70
     1
102
RTVSPropertyOp48
 70
     1
102
RTVSPropertyOp49
 70
     1
102
RTVSPropertyOp50
 70
     1
102
RTVSPropertyOp51
 70
     0
102
RTVSPropertyOp52
 70
     0
102
RTVSPropertyOp53
 70
     1
102
RTVSPropertyOp54
 70
     1
102
RTVSPropertyOp55
 70
     1
102
RTVSPropertyOp56
 70
     1
102
RTVSPropertyOp57
 70
     1
102
RTVSPost2010Prop28
280
     0
102
RTVSPost2010PropOp28
 70
     1
102
RTVSPost2010Prop29
280
     1
102
RTVSPost2010PropOp29
 70
     1
102
RTVSPost2010Prop30
280
     1
102
RTVSPost2010PropOp30
 70
     1
102
RTVSPost2010Prop31
280
     0
102
RTVSPost2010PropOp31
 70
     1
102
RTVSPost2010Prop32
280
     0
102
RTVSPost2010PropOp32
 70
     1
102
RTVSPost2010Prop33
280
     0
102
RTVSPost2010PropOp33
 70
     1
102
RTVSPost2010Prop34
280
     0
102
RTVSPost2010PropOp34
 70
     1
102
RTVSPost2010Prop35
280
     0
102
RTVSPost2010PropOp35
 70
     1
102
RTVSPost2010Prop36
280
     0
102
RTVSPost2010PropOp36
 70
     1
102
RTVSPost2010Prop37
 90
       50
102
RTVSPost2010PropOp37
 70
     1
102
RTVSPost2010Prop38
140
0.0
102
RTVSPost2010PropOp38
 70
     1
102
RTVSPost2010Prop39
140
1.0
102
RTVSPost2010PropOp39
 70
     1
102
RTVSPost2010Prop40
 90
        0
102
RTVSPost2010PropOp40
 70
     1
102
RTVSPost2010Prop41ColorIndex
 90
       18
102
RTVSPost2010Prop41ColorRGB
 90
        0
102
RTVSPost2010PropOp41
 70
     1
102
RTVSPost2010Prop42
 90
       50
102
RTVSPost2010PropOp42
 70
     1
102
RTVSPost2010Prop43
 90
        3
102
RTVSPost2010PropOp43
 70
     1
102
RTVSPost2010Prop44ColorIndex
 90
        5
102
RTVSPost2010Prop44ColorRGB
 90
      255
102
RTVSPost2010PropOp44
 70
     1
102
RTVSPost2010Prop45
280
     0
102
RTVSPost2010PropOp45
 70
     1
102
RTVSPost2010Prop46
 90
       50
102
RTVSPost2010PropOp46
 70
     1
102
RTVSPost2010Prop47
 90
       50
102
RTVSPost2010PropOp47
 70
     1
102
RTVSPost2010Prop48
 90
       50
102
RTVSPost2010PropOp48
 70
     1
102
RTVSPost2010Prop49
280
     0
102
RTVSPost2010PropOp49
 70
     1
102
RTVSPost2010Prop50
 90
       50
102
RTVSPost2010PropOp50
 70
     1
102
RTVSPost2010Prop51ColorIndex
 90
      256
102
RTVSPost2010Prop51ColorRGB
 90
-16777216
102
RTVSPost2010PropOp51
 70
     0
102
RTVSPost2010Prop52
140
1.0
102
RTVSPost2010PropOp52
 70
     0
102
RTVSPost2010Prop53
 90
        2
102
RTVSPost2010PropOp53
 70
     1
102
RTVSPost2010Prop54
  1
strokes_ogs.tif
102
RTVSPost2010PropOp54
 70
     1
102
RTVSPost2010Prop55
280
     0
102
RTVSPost2010PropOp55
 70
     1
102
RTVSPost2010Prop56
140
1.0
102
RTVSPost2010PropOp56
 70
     1
102
RTVSPost2010Prop57
140
1.0
102
RTVSPost2010PropOp57
 70
     1
  0
XRECORD
  5
1F81
102
{ACAD_REACTORS
330
1F80
102
}
330
1F80
100
AcDbXrecord
280
     1
102
RTVSPropertyOp0
 70
     1
102
RTVSPropertyOp1
 70
     1
102
RTVSPropertyOp2
 70
     1
102
RTVSPropertyOp3
 70
     1
102
RTVSPropertyOp4
 70
     1
102
RTVSPropertyOp5
 70
     1
102
RTVSPropertyOp6
 70
     1
102
RTVSPropertyOp7
 70
     1
102
RTVSPropertyOp8
 70
     1
102
RTVSPropertyOp9
 70
     1
102
RTVSPropertyOp10
 70
     1
102
RTVSPropertyOp11
 70
     1
102
RTVSPropertyOp12
 70
     1
102
RTVSPropertyOp13
 70
     1
102
RTVSPropertyOp14
 70
     1
102
RTVSPropertyOp15
 70
     1
102
RTVSPropertyOp16
 70
     1
102
RTVSPropertyOp17
 70
     1
102
RTVSPropertyOp18
 70
     1
102
RTVSPropertyOp19
 70
     1
102
RTVSPropertyOp20
 70
     1
102
RTVSPropertyOp21
 70
     1
102
RTVSPropertyOp22
 70
     1
102
RTVSPropertyOp23
 70
     1
102
RTVSPropertyOp24
 70
     1
102
RTVSPropertyOp25
 70
     1
102
RTVSPropertyOp26
 70
     1
102
RTVSPropertyOp27
 70
     1
102
RTVSPropertyOp28
 70
     1
102
RTVSPropertyOp29
 70
     1
102
RTVSPropertyOp30
 70
     1
102
RTVSPropertyOp31
 70
     1
102
RTVSPropertyOp32
 70
     1
102
RTVSPropertyOp33
 70
     1
102
RTVSPropertyOp34
 70
     1
102
RTVSPropertyOp35
 70
     1
102
RTVSPropertyOp36
 70
     1
102
RTVSPropertyOp37
 70
     1
102
RTVSPropertyOp38
 70
     1
102
RTVSPropertyOp39
 70
     1
102
RTVSPropertyOp40
 70
     1
102
RTVSPropertyOp41
 70
     1
102
RTVSPropertyOp42
 70
     1
102
RTVSPropertyOp43
 70
     1
102
RTVSPropertyOp44
 70
     1
102
RTVSPropertyOp45
 70
     1
102
RTVSPropertyOp46
 70
     1
102
RTVSPropertyOp47
 70
     1
102
RTVSPropertyOp48
 70
     1
102
RTVSPropertyOp49
 70
     1
102
RTVSPropertyOp50
 70
     1
102
RTVSPropertyOp51
 70
     0
102
RTVSPropertyOp52
 70
     0
102
RTVSPropertyOp53
 70
     1
102
RTVSPropertyOp54
 70
     1
102
RTVSPropertyOp55
 70
     1
102
RTVSPropertyOp56
 70
     1
102
RTVSPropertyOp57
 70
     1
102
RTVSPost2010Prop28
280
     0
102
RTVSPost2010PropOp28
 70
     1
102
RTVSPost2010Prop29
280
     1
102
RTVSPost2010PropOp29
 70
     1
102
RTVSPost2010Prop30
280
     1
102
RTVSPost2010PropOp30
 70
     1
102
RTVSPost2010Prop31
280
     0
102
RTVSPost2010PropOp31
 70
     1
102
RTVSPost2010Prop32
280
     0
102
RTVSPost2010PropOp32
 70
     1
102
RTVSPost2010Prop33
280
     0
102
RTVSPost2010PropOp33
 70
     1
102
RTVSPost2010Prop34
280
     0
102
RTVSPost2010PropOp34
 70
     1
102
RTVSPost2010Prop35
280
     0
102
RTVSPost2010PropOp35
 70
     1
102
RTVSPost2010Prop36
280
     0
102
RTVSPost2010PropOp36
 70
     1
102
RTVSPost2010Prop37
 90
       50
102
RTVSPost2010PropOp37
 70
     1
102
RTVSPost2010Prop38
140
0.0
102
RTVSPost2010PropOp38
 70
     1
102
RTVSPost2010Prop39
140
1.0
102
RTVSPost2010PropOp39
 70
     1
102
RTVSPost2010Prop40
 90
        0
102
RTVSPost2010PropOp40
 70
     1
102
RTVSPost2010Prop41ColorIndex
 90
       18
102
RTVSPost2010Prop41ColorRGB
 90
        0
102
RTVSPost2010PropOp41
 70
     1
102
RTVSPost2010Prop42
 90
       50
102
RTVSPost2010PropOp42
 70
     1
102
RTVSPost2010Prop43
 90
        3
102
RTVSPost2010PropOp43
 70
     1
102
RTVSPost2010Prop44ColorIndex
 90
        5
102
RTVSPost2010Prop44ColorRGB
 90
      255
102
RTVSPost2010PropOp44
 70
     1
102
RTVSPost2010Prop45
280
     0
102
RTVSPost2010PropOp45
 70
     1
102
RTVSPost2010Prop46
 90
       50
102
RTVSPost2010PropOp46
 70
     1
102
RTVSPost2010Prop47
 90
       50
102
RTVSPost2010PropOp47
 70
     1
102
RTVSPost2010Prop48
 90
       50
102
RTVSPost2010PropOp48
 70
     1
102
RTVSPost2010Prop49
280
     0
102
RTVSPost2010PropOp49
 70
     1
102
RTVSPost2010Prop50
 90
       50
102
RTVSPost2010PropOp50
 70
     1
102
RTVSPost2010Prop51ColorIndex
 90
      256
102
RTVSPost2010Prop51ColorRGB
 90
-16777216
102
RTVSPost2010PropOp51
 70
     0
102
RTVSPost2010Prop52
140
1.0
102
RTVSPost2010PropOp52
 70
     0
102
RTVSPost2010Prop53
 90
        2
102
RTVSPost2010PropOp53
 70
     1
102
RTVSPost2010Prop54
  1
strokes_ogs.tif
102
RTVSPost2010PropOp54
 70
     1
102
RTVSPost2010Prop55
280
     0
102
RTVSPost2010PropOp55
 70
     1
102
RTVSPost2010Prop56
140
1.0
102
RTVSPost2010PropOp56
 70
     1
102
RTVSPost2010Prop57
140
1.0
102
RTVSPost2010PropOp57
 70
     1
  0
XRECORD
  5
1F9F
102
{ACAD_REACTORS
330
1F9E
102
}
330
1F9E
100
AcDbXrecord
280
     1
102
RTVSPropertyOp0
 70
     1
102
RTVSPropertyOp1
 70
     1
102
RTVSPropertyOp2
 70
     1
102
RTVSPropertyOp3
 70
     1
102
RTVSPropertyOp4
 70
     1
102
RTVSPropertyOp5
 70
     1
102
RTVSPropertyOp6
 70
     1
102
RTVSPropertyOp7
 70
     1
102
RTVSPropertyOp8
 70
     1
102
RTVSPropertyOp9
 70
     1
102
RTVSPropertyOp10
 70
     1
102
RTVSPropertyOp11
 70
     1
102
RTVSPropertyOp12
 70
     1
102
RTVSPropertyOp13
 70
     1
102
RTVSPropertyOp14
 70
     1
102
RTVSPropertyOp15
 70
     1
102
RTVSPropertyOp16
 70
     1
102
RTVSPropertyOp17
 70
     1
102
RTVSPropertyOp18
 70
     1
102
RTVSPropertyOp19
 70
     1
102
RTVSPropertyOp20
 70
     1
102
RTVSPropertyOp21
 70
     1
102
RTVSPropertyOp22
 70
     1
102
RTVSPropertyOp23
 70
     1
102
RTVSPropertyOp24
 70
     1
102
RTVSPropertyOp25
 70
     1
102
RTVSPropertyOp26
 70
     1
102
RTVSPropertyOp27
 70
     1
102
RTVSPropertyOp28
 70
     1
102
RTVSPropertyOp29
 70
     1
102
RTVSPropertyOp30
 70
     1
102
RTVSPropertyOp31
 70
     1
102
RTVSPropertyOp32
 70
     1
102
RTVSPropertyOp33
 70
     1
102
RTVSPropertyOp34
 70
     1
102
RTVSPropertyOp35
 70
     1
102
RTVSPropertyOp36
 70
     1
102
RTVSPropertyOp37
 70
     1
102
RTVSPropertyOp38
 70
     1
102
RTVSPropertyOp39
 70
     1
102
RTVSPropertyOp40
 70
     1
102
RTVSPropertyOp41
 70
     1
102
RTVSPropertyOp42
 70
     1
102
RTVSPropertyOp43
 70
     1
102
RTVSPropertyOp44
 70
     1
102
RTVSPropertyOp45
 70
     1
102
RTVSPropertyOp46
 70
     1
102
RTVSPropertyOp47
 70
     1
102
RTVSPropertyOp48
 70
     1
102
RTVSPropertyOp49
 70
     1
102
RTVSPropertyOp50
 70
     1
102
RTVSPropertyOp51
 70
     0
102
RTVSPropertyOp52
 70
     0
102
RTVSPropertyOp53
 70
     1
102
RTVSPropertyOp54
 70
     1
102
RTVSPropertyOp55
 70
     1
102
RTVSPropertyOp56
 70
     1
102
RTVSPropertyOp57
 70
     1
102
RTVSPost2010Prop28
280
     0
102
RTVSPost2010PropOp28
 70
     1
102
RTVSPost2010Prop29
280
     1
102
RTVSPost2010PropOp29
 70
     1
102
RTVSPost2010Prop30
280
     1
102
RTVSPost2010PropOp30
 70
     1
102
RTVSPost2010Prop31
280
     0
102
RTVSPost2010PropOp31
 70
     1
102
RTVSPost2010Prop32
280
     0
102
RTVSPost2010PropOp32
 70
     1
102
RTVSPost2010Prop33
280
     0
102
RTVSPost2010PropOp33
 70
     1
102
RTVSPost2010Prop34
280
     0
102
RTVSPost2010PropOp34
 70
     1
102
RTVSPost2010Prop35
280
     0
102
RTVSPost2010PropOp35
 70
     1
102
RTVSPost2010Prop36
280
     0
102
RTVSPost2010PropOp36
 70
     1
102
RTVSPost2010Prop37
 90
       50
102
RTVSPost2010PropOp37
 70
     1
102
RTVSPost2010Prop38
140
0.0
102
RTVSPost2010PropOp38
 70
     1
102
RTVSPost2010Prop39
140
1.0
102
RTVSPost2010PropOp39
 70
     1
102
RTVSPost2010Prop40
 90
        0
102
RTVSPost2010PropOp40
 70
     1
102
RTVSPost2010Prop41ColorIndex
 90
       18
102
RTVSPost2010Prop41ColorRGB
 90
        0
102
RTVSPost2010PropOp41
 70
     1
102
RTVSPost2010Prop42
 90
       50
102
RTVSPost2010PropOp42
 70
     1
102
RTVSPost2010Prop43
 90
        3
102
RTVSPost2010PropOp43
 70
     1
102
RTVSPost2010Prop44ColorIndex
 90
        5
102
RTVSPost2010Prop44ColorRGB
 90
      255
102
RTVSPost2010PropOp44
 70
     1
102
RTVSPost2010Prop45
280
     0
102
RTVSPost2010PropOp45
 70
     1
102
RTVSPost2010Prop46
 90
       50
102
RTVSPost2010PropOp46
 70
     1
102
RTVSPost2010Prop47
 90
       50
102
RTVSPost2010PropOp47
 70
     1
102
RTVSPost2010Prop48
 90
       50
102
RTVSPost2010PropOp48
 70
     1
102
RTVSPost2010Prop49
280
     0
102
RTVSPost2010PropOp49
 70
     1
102
RTVSPost2010Prop50
 90
       50
102
RTVSPost2010PropOp50
 70
     1
102
RTVSPost2010Prop51ColorIndex
 90
      256
102
RTVSPost2010Prop51ColorRGB
 90
-16777216
102
RTVSPost2010PropOp51
 70
     0
102
RTVSPost2010Prop52
140
1.0
102
RTVSPost2010PropOp52
 70
     0
102
RTVSPost2010Prop53
 90
        2
102
RTVSPost2010PropOp53
 70
     1
102
RTVSPost2010Prop54
  1
strokes_ogs.tif
102
RTVSPost2010PropOp54
 70
     1
102
RTVSPost2010Prop55
280
     0
102
RTVSPost2010PropOp55
 70
     1
102
RTVSPost2010Prop56
140
1.0
102
RTVSPost2010PropOp56
 70
     1
102
RTVSPost2010Prop57
140
1.0
102
RTVSPost2010PropOp57
 70
     1
  0
XRECORD
  5
1F9D
102
{ACAD_REACTORS
330
1F9C
102
}
330
1F9C
100
AcDbXrecord
280
     1
102
RTVSPropertyOp0
 70
     1
102
RTVSPropertyOp1
 70
     1
102
RTVSPropertyOp2
 70
     1
102
RTVSPropertyOp3
 70
     1
102
RTVSPropertyOp4
 70
     1
102
RTVSPropertyOp5
 70
     1
102
RTVSPropertyOp6
 70
     1
102
RTVSPropertyOp7
 70
     1
102
RTVSPropertyOp8
 70
     1
102
RTVSPropertyOp9
 70
     1
102
RTVSPropertyOp10
 70
     1
102
RTVSPropertyOp11
 70
     1
102
RTVSPropertyOp12
 70
     1
102
RTVSPropertyOp13
 70
     1
102
RTVSPropertyOp14
 70
     1
102
RTVSPropertyOp15
 70
     1
102
RTVSPropertyOp16
 70
     1
102
RTVSPropertyOp17
 70
     1
102
RTVSPropertyOp18
 70
     1
102
RTVSPropertyOp19
 70
     1
102
RTVSPropertyOp20
 70
     1
102
RTVSPropertyOp21
 70
     1
102
RTVSPropertyOp22
 70
     1
102
RTVSPropertyOp23
 70
     1
102
RTVSPropertyOp24
 70
     1
102
RTVSPropertyOp25
 70
     1
102
RTVSPropertyOp26
 70
     1
102
RTVSPropertyOp27
 70
     1
102
RTVSPropertyOp28
 70
     1
102
RTVSPropertyOp29
 70
     1
102
RTVSPropertyOp30
 70
     1
102
RTVSPropertyOp31
 70
     1
102
RTVSPropertyOp32
 70
     1
102
RTVSPropertyOp33
 70
     1
102
RTVSPropertyOp34
 70
     1
102
RTVSPropertyOp35
 70
     1
102
RTVSPropertyOp36
 70
     1
102
RTVSPropertyOp37
 70
     1
102
RTVSPropertyOp38
 70
     1
102
RTVSPropertyOp39
 70
     1
102
RTVSPropertyOp40
 70
     1
102
RTVSPropertyOp41
 70
     1
102
RTVSPropertyOp42
 70
     1
102
RTVSPropertyOp43
 70
     1
102
RTVSPropertyOp44
 70
     1
102
RTVSPropertyOp45
 70
     1
102
RTVSPropertyOp46
 70
     1
102
RTVSPropertyOp47
 70
     1
102
RTVSPropertyOp48
 70
     1
102
RTVSPropertyOp49
 70
     1
102
RTVSPropertyOp50
 70
     1
102
RTVSPropertyOp51
 70
     0
102
RTVSPropertyOp52
 70
     0
102
RTVSPropertyOp53
 70
     1
102
RTVSPropertyOp54
 70
     1
102
RTVSPropertyOp55
 70
     1
102
RTVSPropertyOp56
 70
     1
102
RTVSPropertyOp57
 70
     1
102
RTVSPost2010Prop28
280
     0
102
RTVSPost2010PropOp28
 70
     1
102
RTVSPost2010Prop29
280
     1
102
RTVSPost2010PropOp29
 70
     1
102
RTVSPost2010Prop30
280
     1
102
RTVSPost2010PropOp30
 70
     1
102
RTVSPost2010Prop31
280
     0
102
RTVSPost2010PropOp31
 70
     1
102
RTVSPost2010Prop32
280
     0
102
RTVSPost2010PropOp32
 70
     1
102
RTVSPost2010Prop33
280
     0
102
RTVSPost2010PropOp33
 70
     1
102
RTVSPost2010Prop34
280
     0
102
RTVSPost2010PropOp34
 70
     1
102
RTVSPost2010Prop35
280
     0
102
RTVSPost2010PropOp35
 70
     1
102
RTVSPost2010Prop36
280
     0
102
RTVSPost2010PropOp36
 70
     1
102
RTVSPost2010Prop37
 90
       50
102
RTVSPost2010PropOp37
 70
     1
102
RTVSPost2010Prop38
140
0.0
102
RTVSPost2010PropOp38
 70
     1
102
RTVSPost2010Prop39
140
1.0
102
RTVSPost2010PropOp39
 70
     1
102
RTVSPost2010Prop40
 90
        0
102
RTVSPost2010PropOp40
 70
     1
102
RTVSPost2010Prop41ColorIndex
 90
       18
102
RTVSPost2010Prop41ColorRGB
 90
        0
102
RTVSPost2010PropOp41
 70
     1
102
RTVSPost2010Prop42
 90
       50
102
RTVSPost2010PropOp42
 70
     1
102
RTVSPost2010Prop43
 90
        3
102
RTVSPost2010PropOp43
 70
     1
102
RTVSPost2010Prop44ColorIndex
 90
        5
102
RTVSPost2010Prop44ColorRGB
 90
      255
102
RTVSPost2010PropOp44
 70
     1
102
RTVSPost2010Prop45
280
     0
102
RTVSPost2010PropOp45
 70
     1
102
RTVSPost2010Prop46
 90
       50
102
RTVSPost2010PropOp46
 70
     1
102
RTVSPost2010Prop47
 90
       50
102
RTVSPost2010PropOp47
 70
     1
102
RTVSPost2010Prop48
 90
       50
102
RTVSPost2010PropOp48
 70
     1
102
RTVSPost2010Prop49
280
     0
102
RTVSPost2010PropOp49
 70
     1
102
RTVSPost2010Prop50
 90
       50
102
RTVSPost2010PropOp50
 70
     1
102
RTVSPost2010Prop51ColorIndex
 90
      256
102
RTVSPost2010Prop51ColorRGB
 90
-16777216
102
RTVSPost2010PropOp51
 70
     0
102
RTVSPost2010Prop52
140
1.0
102
RTVSPost2010PropOp52
 70
     0
102
RTVSPost2010Prop53
 90
        2
102
RTVSPost2010PropOp53
 70
     1
102
RTVSPost2010Prop54
  1
strokes_ogs.tif
102
RTVSPost2010PropOp54
 70
     1
102
RTVSPost2010Prop55
280
     0
102
RTVSPost2010PropOp55
 70
     1
102
RTVSPost2010Prop56
140
1.0
102
RTVSPost2010PropOp56
 70
     1
102
RTVSPost2010Prop57
140
1.0
102
RTVSPost2010PropOp57
 70
     1
  0
XRECORD
  5
1F97
102
{ACAD_REACTORS
330
1F96
102
}
330
1F96
100
AcDbXrecord
280
     1
102
RTVSPropertyOp0
 70
     1
102
RTVSPropertyOp1
 70
     1
102
RTVSPropertyOp2
 70
     1
102
RTVSPropertyOp3
 70
     1
102
RTVSPropertyOp4
 70
     1
102
RTVSPropertyOp5
 70
     1
102
RTVSPropertyOp6
 70
     1
102
RTVSPropertyOp7
 70
     1
102
RTVSPropertyOp8
 70
     1
102
RTVSPropertyOp9
 70
     1
102
RTVSPropertyOp10
 70
     1
102
RTVSPropertyOp11
 70
     1
102
RTVSPropertyOp12
 70
     1
102
RTVSPropertyOp13
 70
     1
102
RTVSPropertyOp14
 70
     1
102
RTVSPropertyOp15
 70
     1
102
RTVSPropertyOp16
 70
     1
102
RTVSPropertyOp17
 70
     1
102
RTVSPropertyOp18
 70
     1
102
RTVSPropertyOp19
 70
     1
102
RTVSPropertyOp20
 70
     1
102
RTVSPropertyOp21
 70
     1
102
RTVSPropertyOp22
 70
     1
102
RTVSPropertyOp23
 70
     1
102
RTVSPropertyOp24
 70
     1
102
RTVSPropertyOp25
 70
     1
102
RTVSPropertyOp26
 70
     1
102
RTVSPropertyOp27
 70
     1
102
RTVSPropertyOp28
 70
     1
102
RTVSPropertyOp29
 70
     1
102
RTVSPropertyOp30
 70
     1
102
RTVSPropertyOp31
 70
     1
102
RTVSPropertyOp32
 70
     1
102
RTVSPropertyOp33
 70
     1
102
RTVSPropertyOp34
 70
     1
102
RTVSPropertyOp35
 70
     1
102
RTVSPropertyOp36
 70
     1
102
RTVSPropertyOp37
 70
     1
102
RTVSPropertyOp38
 70
     1
102
RTVSPropertyOp39
 70
     1
102
RTVSPropertyOp40
 70
     1
102
RTVSPropertyOp41
 70
     1
102
RTVSPropertyOp42
 70
     1
102
RTVSPropertyOp43
 70
     1
102
RTVSPropertyOp44
 70
     1
102
RTVSPropertyOp45
 70
     1
102
RTVSPropertyOp46
 70
     1
102
RTVSPropertyOp47
 70
     1
102
RTVSPropertyOp48
 70
     1
102
RTVSPropertyOp49
 70
     1
102
RTVSPropertyOp50
 70
     1
102
RTVSPropertyOp51
 70
     0
102
RTVSPropertyOp52
 70
     0
102
RTVSPropertyOp53
 70
     1
102
RTVSPropertyOp54
 70
     1
102
RTVSPropertyOp55
 70
     1
102
RTVSPropertyOp56
 70
     1
102
RTVSPropertyOp57
 70
     1
102
RTVSPost2010Prop28
280
     0
102
RTVSPost2010PropOp28
 70
     1
102
RTVSPost2010Prop29
280
     1
102
RTVSPost2010PropOp29
 70
     1
102
RTVSPost2010Prop30
280
     1
102
RTVSPost2010PropOp30
 70
     1
102
RTVSPost2010Prop31
280
     0
102
RTVSPost2010PropOp31
 70
     1
102
RTVSPost2010Prop32
280
     0
102
RTVSPost2010PropOp32
 70
     1
102
RTVSPost2010Prop33
280
     0
102
RTVSPost2010PropOp33
 70
     1
102
RTVSPost2010Prop34
280
     0
102
RTVSPost2010PropOp34
 70
     1
102
RTVSPost2010Prop35
280
     0
102
RTVSPost2010PropOp35
 70
     1
102
RTVSPost2010Prop36
280
     0
102
RTVSPost2010PropOp36
 70
     1
102
RTVSPost2010Prop37
 90
       50
102
RTVSPost2010PropOp37
 70
     1
102
RTVSPost2010Prop38
140
0.0
102
RTVSPost2010PropOp38
 70
     1
102
RTVSPost2010Prop39
140
1.0
102
RTVSPost2010PropOp39
 70
     1
102
RTVSPost2010Prop40
 90
        0
102
RTVSPost2010PropOp40
 70
     1
102
RTVSPost2010Prop41ColorIndex
 90
       18
102
RTVSPost2010Prop41ColorRGB
 90
        0
102
RTVSPost2010PropOp41
 70
     1
102
RTVSPost2010Prop42
 90
       50
102
RTVSPost2010PropOp42
 70
     1
102
RTVSPost2010Prop43
 90
        3
102
RTVSPost2010PropOp43
 70
     1
102
RTVSPost2010Prop44ColorIndex
 90
        5
102
RTVSPost2010Prop44ColorRGB
 90
      255
102
RTVSPost2010PropOp44
 70
     1
102
RTVSPost2010Prop45
280
     0
102
RTVSPost2010PropOp45
 70
     1
102
RTVSPost2010Prop46
 90
       50
102
RTVSPost2010PropOp46
 70
     1
102
RTVSPost2010Prop47
 90
       50
102
RTVSPost2010PropOp47
 70
     1
102
RTVSPost2010Prop48
 90
       50
102
RTVSPost2010PropOp48
 70
     1
102
RTVSPost2010Prop49
280
     0
102
RTVSPost2010PropOp49
 70
     1
102
RTVSPost2010Prop50
 90
       50
102
RTVSPost2010PropOp50
 70
     1
102
RTVSPost2010Prop51ColorIndex
 90
      256
102
RTVSPost2010Prop51ColorRGB
 90
-16777216
102
RTVSPost2010PropOp51
 70
     0
102
RTVSPost2010Prop52
140
1.0
102
RTVSPost2010PropOp52
 70
     0
102
RTVSPost2010Prop53
 90
        2
102
RTVSPost2010PropOp53
 70
     1
102
RTVSPost2010Prop54
  1
strokes_ogs.tif
102
RTVSPost2010PropOp54
 70
     1
102
RTVSPost2010Prop55
280
     0
102
RTVSPost2010PropOp55
 70
     1
102
RTVSPost2010Prop56
140
1.0
102
RTVSPost2010PropOp56
 70
     1
102
RTVSPost2010Prop57
140
1.0
102
RTVSPost2010PropOp57
 70
     1
  0
XRECORD
  5
1F99
102
{ACAD_REACTORS
330
1F98
102
}
330
1F98
100
AcDbXrecord
280
     1
102
RTVSPropertyOp0
 70
     1
102
RTVSPropertyOp1
 70
     1
102
RTVSPropertyOp2
 70
     1
102
RTVSPropertyOp3
 70
     1
102
RTVSPropertyOp4
 70
     1
102
RTVSPropertyOp5
 70
     1
102
RTVSPropertyOp6
 70
     1
102
RTVSPropertyOp7
 70
     1
102
RTVSPropertyOp8
 70
     1
102
RTVSPropertyOp9
 70
     1
102
RTVSPropertyOp10
 70
     1
102
RTVSPropertyOp11
 70
     1
102
RTVSPropertyOp12
 70
     1
102
RTVSPropertyOp13
 70
     1
102
RTVSPropertyOp14
 70
     1
102
RTVSPropertyOp15
 70
     1
102
RTVSPropertyOp16
 70
     1
102
RTVSPropertyOp17
 70
     1
102
RTVSPropertyOp18
 70
     1
102
RTVSPropertyOp19
 70
     1
102
RTVSPropertyOp20
 70
     1
102
RTVSPropertyOp21
 70
     1
102
RTVSPropertyOp22
 70
     1
102
RTVSPropertyOp23
 70
     1
102
RTVSPropertyOp24
 70
     1
102
RTVSPropertyOp25
 70
     1
102
RTVSPropertyOp26
 70
     1
102
RTVSPropertyOp27
 70
     1
102
RTVSPropertyOp28
 70
     1
102
RTVSPropertyOp29
 70
     1
102
RTVSPropertyOp30
 70
     1
102
RTVSPropertyOp31
 70
     1
102
RTVSPropertyOp32
 70
     1
102
RTVSPropertyOp33
 70
     1
102
RTVSPropertyOp34
 70
     1
102
RTVSPropertyOp35
 70
     1
102
RTVSPropertyOp36
 70
     1
102
RTVSPropertyOp37
 70
     1
102
RTVSPropertyOp38
 70
     1
102
RTVSPropertyOp39
 70
     1
102
RTVSPropertyOp40
 70
     1
102
RTVSPropertyOp41
 70
     1
102
RTVSPropertyOp42
 70
     1
102
RTVSPropertyOp43
 70
     1
102
RTVSPropertyOp44
 70
     1
102
RTVSPropertyOp45
 70
     1
102
RTVSPropertyOp46
 70
     1
102
RTVSPropertyOp47
 70
     1
102
RTVSPropertyOp48
 70
     1
102
RTVSPropertyOp49
 70
     1
102
RTVSPropertyOp50
 70
     1
102
RTVSPropertyOp51
 70
     0
102
RTVSPropertyOp52
 70
     0
102
RTVSPropertyOp53
 70
     1
102
RTVSPropertyOp54
 70
     1
102
RTVSPropertyOp55
 70
     1
102
RTVSPropertyOp56
 70
     1
102
RTVSPropertyOp57
 70
     1
102
RTVSPost2010Prop28
280
     0
102
RTVSPost2010PropOp28
 70
     1
102
RTVSPost2010Prop29
280
     1
102
RTVSPost2010PropOp29
 70
     1
102
RTVSPost2010Prop30
280
     1
102
RTVSPost2010PropOp30
 70
     1
102
RTVSPost2010Prop31
280
     0
102
RTVSPost2010PropOp31
 70
     1
102
RTVSPost2010Prop32
280
     0
102
RTVSPost2010PropOp32
 70
     1
102
RTVSPost2010Prop33
280
     0
102
RTVSPost2010PropOp33
 70
     1
102
RTVSPost2010Prop34
280
     0
102
RTVSPost2010PropOp34
 70
     1
102
RTVSPost2010Prop35
280
     0
102
RTVSPost2010PropOp35
 70
     1
102
RTVSPost2010Prop36
280
     0
102
RTVSPost2010PropOp36
 70
     1
102
RTVSPost2010Prop37
 90
       50
102
RTVSPost2010PropOp37
 70
     1
102
RTVSPost2010Prop38
140
0.0
102
RTVSPost2010PropOp38
 70
     1
102
RTVSPost2010Prop39
140
1.0
102
RTVSPost2010PropOp39
 70
     1
102
RTVSPost2010Prop40
 90
        0
102
RTVSPost2010PropOp40
 70
     1
102
RTVSPost2010Prop41ColorIndex
 90
       18
102
RTVSPost2010Prop41ColorRGB
 90
        0
102
RTVSPost2010PropOp41
 70
     1
102
RTVSPost2010Prop42
 90
       50
102
RTVSPost2010PropOp42
 70
     1
102
RTVSPost2010Prop43
 90
        3
102
RTVSPost2010PropOp43
 70
     1
102
RTVSPost2010Prop44ColorIndex
 90
        5
102
RTVSPost2010Prop44ColorRGB
 90
      255
102
RTVSPost2010PropOp44
 70
     1
102
RTVSPost2010Prop45
280
     0
102
RTVSPost2010PropOp45
 70
     1
102
RTVSPost2010Prop46
 90
       50
102
RTVSPost2010PropOp46
 70
     1
102
RTVSPost2010Prop47
 90
       50
102
RTVSPost2010PropOp47
 70
     1
102
RTVSPost2010Prop48
 90
       50
102
RTVSPost2010PropOp48
 70
     1
102
RTVSPost2010Prop49
280
     0
102
RTVSPost2010PropOp49
 70
     1
102
RTVSPost2010Prop50
 90
       50
102
RTVSPost2010PropOp50
 70
     1
102
RTVSPost2010Prop51ColorIndex
 90
      256
102
RTVSPost2010Prop51ColorRGB
 90
-16777216
102
RTVSPost2010PropOp51
 70
     0
102
RTVSPost2010Prop52
140
1.0
102
RTVSPost2010PropOp52
 70
     0
102
RTVSPost2010Prop53
 90
        2
102
RTVSPost2010PropOp53
 70
     1
102
RTVSPost2010Prop54
  1
strokes_ogs.tif
102
RTVSPost2010PropOp54
 70
     1
102
RTVSPost2010Prop55
280
     0
102
RTVSPost2010PropOp55
 70
     1
102
RTVSPost2010Prop56
140
1.0
102
RTVSPost2010PropOp56
 70
     1
102
RTVSPost2010Prop57
140
1.0
102
RTVSPost2010PropOp57
 70
     1
  0
XRECORD
  5
1F89
102
{ACAD_REACTORS
330
1F88
102
}
330
1F88
100
AcDbXrecord
280
     1
102
RTVSPropertyOp0
 70
     1
102
RTVSPropertyOp1
 70
     1
102
RTVSPropertyOp2
 70
     1
102
RTVSPropertyOp3
 70
     1
102
RTVSPropertyOp4
 70
     1
102
RTVSPropertyOp5
 70
     1
102
RTVSPropertyOp6
 70
     1
102
RTVSPropertyOp7
 70
     1
102
RTVSPropertyOp8
 70
     1
102
RTVSPropertyOp9
 70
     1
102
RTVSPropertyOp10
 70
     1
102
RTVSPropertyOp11
 70
     1
102
RTVSPropertyOp12
 70
     1
102
RTVSPropertyOp13
 70
     1
102
RTVSPropertyOp14
 70
     1
102
RTVSPropertyOp15
 70
     1
102
RTVSPropertyOp16
 70
     1
102
RTVSPropertyOp17
 70
     1
102
RTVSPropertyOp18
 70
     1
102
RTVSPropertyOp19
 70
     1
102
RTVSPropertyOp20
 70
     1
102
RTVSPropertyOp21
 70
     1
102
RTVSPropertyOp22
 70
     1
102
RTVSPropertyOp23
 70
     1
102
RTVSPropertyOp24
 70
     1
102
RTVSPropertyOp25
 70
     1
102
RTVSPropertyOp26
 70
     1
102
RTVSPropertyOp27
 70
     1
102
RTVSPropertyOp28
 70
     1
102
RTVSPropertyOp29
 70
     1
102
RTVSPropertyOp30
 70
     1
102
RTVSPropertyOp31
 70
     1
102
RTVSPropertyOp32
 70
     1
102
RTVSPropertyOp33
 70
     1
102
RTVSPropertyOp34
 70
     1
102
RTVSPropertyOp35
 70
     1
102
RTVSPropertyOp36
 70
     1
102
RTVSPropertyOp37
 70
     1
102
RTVSPropertyOp38
 70
     1
102
RTVSPropertyOp39
 70
     1
102
RTVSPropertyOp40
 70
     1
102
RTVSPropertyOp41
 70
     1
102
RTVSPropertyOp42
 70
     1
102
RTVSPropertyOp43
 70
     1
102
RTVSPropertyOp44
 70
     1
102
RTVSPropertyOp45
 70
     1
102
RTVSPropertyOp46
 70
     1
102
RTVSPropertyOp47
 70
     1
102
RTVSPropertyOp48
 70
     1
102
RTVSPropertyOp49
 70
     1
102
RTVSPropertyOp50
 70
     1
102
RTVSPropertyOp51
 70
     0
102
RTVSPropertyOp52
 70
     0
102
RTVSPropertyOp53
 70
     1
102
RTVSPropertyOp54
 70
     1
102
RTVSPropertyOp55
 70
     1
102
RTVSPropertyOp56
 70
     1
102
RTVSPropertyOp57
 70
     1
102
RTVSPost2010Prop28
280
     0
102
RTVSPost2010PropOp28
 70
     1
102
RTVSPost2010Prop29
280
     1
102
RTVSPost2010PropOp29
 70
     1
102
RTVSPost2010Prop30
280
     1
102
RTVSPost2010PropOp30
 70
     1
102
RTVSPost2010Prop31
280
     0
102
RTVSPost2010PropOp31
 70
     1
102
RTVSPost2010Prop32
280
     0
102
RTVSPost2010PropOp32
 70
     1
102
RTVSPost2010Prop33
280
     0
102
RTVSPost2010PropOp33
 70
     1
102
RTVSPost2010Prop34
280
     0
102
RTVSPost2010PropOp34
 70
     1
102
RTVSPost2010Prop35
280
     0
102
RTVSPost2010PropOp35
 70
     1
102
RTVSPost2010Prop36
280
     0
102
RTVSPost2010PropOp36
 70
     1
102
RTVSPost2010Prop37
 90
       50
102
RTVSPost2010PropOp37
 70
     1
102
RTVSPost2010Prop38
140
0.0
102
RTVSPost2010PropOp38
 70
     1
102
RTVSPost2010Prop39
140
1.0
102
RTVSPost2010PropOp39
 70
     1
102
RTVSPost2010Prop40
 90
        0
102
RTVSPost2010PropOp40
 70
     1
102
RTVSPost2010Prop41ColorIndex
 90
       18
102
RTVSPost2010Prop41ColorRGB
 90
        0
102
RTVSPost2010PropOp41
 70
     1
102
RTVSPost2010Prop42
 90
       50
102
RTVSPost2010PropOp42
 70
     1
102
RTVSPost2010Prop43
 90
        3
102
RTVSPost2010PropOp43
 70
     1
102
RTVSPost2010Prop44ColorIndex
 90
        5
102
RTVSPost2010Prop44ColorRGB
 90
      255
102
RTVSPost2010PropOp44
 70
     1
102
RTVSPost2010Prop45
280
     0
102
RTVSPost2010PropOp45
 70
     1
102
RTVSPost2010Prop46
 90
       50
102
RTVSPost2010PropOp46
 70
     1
102
RTVSPost2010Prop47
 90
       50
102
RTVSPost2010PropOp47
 70
     1
102
RTVSPost2010Prop48
 90
       50
102
RTVSPost2010PropOp48
 70
     1
102
RTVSPost2010Prop49
280
     0
102
RTVSPost2010PropOp49
 70
     1
102
RTVSPost2010Prop50
 90
       50
102
RTVSPost2010PropOp50
 70
     1
102
RTVSPost2010Prop51ColorIndex
 90
      256
102
RTVSPost2010Prop51ColorRGB
 90
-16777216
102
RTVSPost2010PropOp51
 70
     0
102
RTVSPost2010Prop52
140
1.0
102
RTVSPost2010PropOp52
 70
     0
102
RTVSPost2010Prop53
 90
        2
102
RTVSPost2010PropOp53
 70
     1
102
RTVSPost2010Prop54
  1
strokes_ogs.tif
102
RTVSPost2010PropOp54
 70
     1
102
RTVSPost2010Prop55
280
     0
102
RTVSPost2010PropOp55
 70
     1
102
RTVSPost2010Prop56
140
1.0
102
RTVSPost2010PropOp56
 70
     1
102
RTVSPost2010Prop57
140
1.0
102
RTVSPost2010PropOp57
 70
     1
  0
XRECORD
  5
1F7B
102
{ACAD_REACTORS
330
1F7A
102
}
330
1F7A
100
AcDbXrecord
280
     1
102
RTVSPropertyOp0
 70
     1
102
RTVSPropertyOp1
 70
     1
102
RTVSPropertyOp2
 70
     1
102
RTVSPropertyOp3
 70
     1
102
RTVSPropertyOp4
 70
     1
102
RTVSPropertyOp5
 70
     1
102
RTVSPropertyOp6
 70
     1
102
RTVSPropertyOp7
 70
     1
102
RTVSPropertyOp8
 70
     1
102
RTVSPropertyOp9
 70
     1
102
RTVSPropertyOp10
 70
     1
102
RTVSPropertyOp11
 70
     1
102
RTVSPropertyOp12
 70
     1
102
RTVSPropertyOp13
 70
     1
102
RTVSPropertyOp14
 70
     1
102
RTVSPropertyOp15
 70
     1
102
RTVSPropertyOp16
 70
     1
102
RTVSPropertyOp17
 70
     1
102
RTVSPropertyOp18
 70
     1
102
RTVSPropertyOp19
 70
     1
102
RTVSPropertyOp20
 70
     1
102
RTVSPropertyOp21
 70
     1
102
RTVSPropertyOp22
 70
     1
102
RTVSPropertyOp23
 70
     1
102
RTVSPropertyOp24
 70
     1
102
RTVSPropertyOp25
 70
     1
102
RTVSPropertyOp26
 70
     1
102
RTVSPropertyOp27
 70
     1
102
RTVSPropertyOp28
 70
     1
102
RTVSPropertyOp29
 70
     1
102
RTVSPropertyOp30
 70
     1
102
RTVSPropertyOp31
 70
     1
102
RTVSPropertyOp32
 70
     1
102
RTVSPropertyOp33
 70
     1
102
RTVSPropertyOp34
 70
     1
102
RTVSPropertyOp35
 70
     1
102
RTVSPropertyOp36
 70
     1
102
RTVSPropertyOp37
 70
     1
102
RTVSPropertyOp38
 70
     1
102
RTVSPropertyOp39
 70
     1
102
RTVSPropertyOp40
 70
     1
102
RTVSPropertyOp41
 70
     1
102
RTVSPropertyOp42
 70
     1
102
RTVSPropertyOp43
 70
     1
102
RTVSPropertyOp44
 70
     1
102
RTVSPropertyOp45
 70
     1
102
RTVSPropertyOp46
 70
     1
102
RTVSPropertyOp47
 70
     1
102
RTVSPropertyOp48
 70
     1
102
RTVSPropertyOp49
 70
     1
102
RTVSPropertyOp50
 70
     1
102
RTVSPropertyOp51
 70
     0
102
RTVSPropertyOp52
 70
     0
102
RTVSPropertyOp53
 70
     1
102
RTVSPropertyOp54
 70
     1
102
RTVSPropertyOp55
 70
     1
102
RTVSPropertyOp56
 70
     1
102
RTVSPropertyOp57
 70
     1
102
RTVSPost2010Prop28
280
     0
102
RTVSPost2010PropOp28
 70
     1
102
RTVSPost2010Prop29
280
     1
102
RTVSPost2010PropOp29
 70
     1
102
RTVSPost2010Prop30
280
     1
102
RTVSPost2010PropOp30
 70
     1
102
RTVSPost2010Prop31
280
     0
102
RTVSPost2010PropOp31
 70
     1
102
RTVSPost2010Prop32
280
     0
102
RTVSPost2010PropOp32
 70
     1
102
RTVSPost2010Prop33
280
     0
102
RTVSPost2010PropOp33
 70
     1
102
RTVSPost2010Prop34
280
     0
102
RTVSPost2010PropOp34
 70
     1
102
RTVSPost2010Prop35
280
     0
102
RTVSPost2010PropOp35
 70
     1
102
RTVSPost2010Prop36
280
     0
102
RTVSPost2010PropOp36
 70
     1
102
RTVSPost2010Prop37
 90
       50
102
RTVSPost2010PropOp37
 70
     1
102
RTVSPost2010Prop38
140
0.0
102
RTVSPost2010PropOp38
 70
     1
102
RTVSPost2010Prop39
140
1.0
102
RTVSPost2010PropOp39
 70
     1
102
RTVSPost2010Prop40
 90
        0
102
RTVSPost2010PropOp40
 70
     1
102
RTVSPost2010Prop41ColorIndex
 90
       18
102
RTVSPost2010Prop41ColorRGB
 90
        0
102
RTVSPost2010PropOp41
 70
     1
102
RTVSPost2010Prop42
 90
       50
102
RTVSPost2010PropOp42
 70
     1
102
RTVSPost2010Prop43
 90
        3
102
RTVSPost2010PropOp43
 70
     1
102
RTVSPost2010Prop44ColorIndex
 90
        5
102
RTVSPost2010Prop44ColorRGB
 90
      255
102
RTVSPost2010PropOp44
 70
     1
102
RTVSPost2010Prop45
280
     0
102
RTVSPost2010PropOp45
 70
     1
102
RTVSPost2010Prop46
 90
       50
102
RTVSPost2010PropOp46
 70
     1
102
RTVSPost2010Prop47
 90
       50
102
RTVSPost2010PropOp47
 70
     1
102
RTVSPost2010Prop48
 90
       50
102
RTVSPost2010PropOp48
 70
     1
102
RTVSPost2010Prop49
280
     0
102
RTVSPost2010PropOp49
 70
     1
102
RTVSPost2010Prop50
 90
       50
102
RTVSPost2010PropOp50
 70
     1
102
RTVSPost2010Prop51ColorIndex
 90
      256
102
RTVSPost2010Prop51ColorRGB
 90
-16777216
102
RTVSPost2010PropOp51
 70
     0
102
RTVSPost2010Prop52
140
1.0
102
RTVSPost2010PropOp52
 70
     0
102
RTVSPost2010Prop53
 90
        2
102
RTVSPost2010PropOp53
 70
     1
102
RTVSPost2010Prop54
  1
strokes_ogs.tif
102
RTVSPost2010PropOp54
 70
     1
102
RTVSPost2010Prop55
280
     0
102
RTVSPost2010PropOp55
 70
     1
102
RTVSPost2010Prop56
140
1.0
102
RTVSPost2010PropOp56
 70
     1
102
RTVSPost2010Prop57
140
1.0
102
RTVSPost2010PropOp57
 70
     1
  0
XRECORD
  5
1F9B
102
{ACAD_REACTORS
330
1F9A
102
}
330
1F9A
100
AcDbXrecord
280
     1
102
RTVSPropertyOp0
 70
     1
102
RTVSPropertyOp1
 70
     1
102
RTVSPropertyOp2
 70
     1
102
RTVSPropertyOp3
 70
     1
102
RTVSPropertyOp4
 70
     1
102
RTVSPropertyOp5
 70
     1
102
RTVSPropertyOp6
 70
     1
102
RTVSPropertyOp7
 70
     1
102
RTVSPropertyOp8
 70
     1
102
RTVSPropertyOp9
 70
     1
102
RTVSPropertyOp10
 70
     1
102
RTVSPropertyOp11
 70
     1
102
RTVSPropertyOp12
 70
     1
102
RTVSPropertyOp13
 70
     1
102
RTVSPropertyOp14
 70
     1
102
RTVSPropertyOp15
 70
     1
102
RTVSPropertyOp16
 70
     1
102
RTVSPropertyOp17
 70
     1
102
RTVSPropertyOp18
 70
     1
102
RTVSPropertyOp19
 70
     1
102
RTVSPropertyOp20
 70
     1
102
RTVSPropertyOp21
 70
     1
102
RTVSPropertyOp22
 70
     1
102
RTVSPropertyOp23
 70
     1
102
RTVSPropertyOp24
 70
     1
102
RTVSPropertyOp25
 70
     1
102
RTVSPropertyOp26
 70
     1
102
RTVSPropertyOp27
 70
     1
102
RTVSPropertyOp28
 70
     1
102
RTVSPropertyOp29
 70
     1
102
RTVSPropertyOp30
 70
     1
102
RTVSPropertyOp31
 70
     1
102
RTVSPropertyOp32
 70
     1
102
RTVSPropertyOp33
 70
     1
102
RTVSPropertyOp34
 70
     1
102
RTVSPropertyOp35
 70
     1
102
RTVSPropertyOp36
 70
     1
102
RTVSPropertyOp37
 70
     1
102
RTVSPropertyOp38
 70
     1
102
RTVSPropertyOp39
 70
     1
102
RTVSPropertyOp40
 70
     1
102
RTVSPropertyOp41
 70
     1
102
RTVSPropertyOp42
 70
     1
102
RTVSPropertyOp43
 70
     1
102
RTVSPropertyOp44
 70
     1
102
RTVSPropertyOp45
 70
     1
102
RTVSPropertyOp46
 70
     1
102
RTVSPropertyOp47
 70
     1
102
RTVSPropertyOp48
 70
     1
102
RTVSPropertyOp49
 70
     1
102
RTVSPropertyOp50
 70
     1
102
RTVSPropertyOp51
 70
     0
102
RTVSPropertyOp52
 70
     0
102
RTVSPropertyOp53
 70
     1
102
RTVSPropertyOp54
 70
     1
102
RTVSPropertyOp55
 70
     1
102
RTVSPropertyOp56
 70
     1
102
RTVSPropertyOp57
 70
     1
102
RTVSPost2010Prop28
280
     0
102
RTVSPost2010PropOp28
 70
     1
102
RTVSPost2010Prop29
280
     1
102
RTVSPost2010PropOp29
 70
     1
102
RTVSPost2010Prop30
280
     1
102
RTVSPost2010PropOp30
 70
     1
102
RTVSPost2010Prop31
280
     0
102
RTVSPost2010PropOp31
 70
     1
102
RTVSPost2010Prop32
280
     0
102
RTVSPost2010PropOp32
 70
     1
102
RTVSPost2010Prop33
280
     0
102
RTVSPost2010PropOp33
 70
     1
102
RTVSPost2010Prop34
280
     0
102
RTVSPost2010PropOp34
 70
     1
102
RTVSPost2010Prop35
280
     0
102
RTVSPost2010PropOp35
 70
     1
102
RTVSPost2010Prop36
280
     0
102
RTVSPost2010PropOp36
 70
     1
102
RTVSPost2010Prop37
 90
       50
102
RTVSPost2010PropOp37
 70
     1
102
RTVSPost2010Prop38
140
0.0
102
RTVSPost2010PropOp38
 70
     1
102
RTVSPost2010Prop39
140
1.0
102
RTVSPost2010PropOp39
 70
     1
102
RTVSPost2010Prop40
 90
        0
102
RTVSPost2010PropOp40
 70
     1
102
RTVSPost2010Prop41ColorIndex
 90
       18
102
RTVSPost2010Prop41ColorRGB
 90
        0
102
RTVSPost2010PropOp41
 70
     1
102
RTVSPost2010Prop42
 90
       50
102
RTVSPost2010PropOp42
 70
     1
102
RTVSPost2010Prop43
 90
        3
102
RTVSPost2010PropOp43
 70
     1
102
RTVSPost2010Prop44ColorIndex
 90
        5
102
RTVSPost2010Prop44ColorRGB
 90
      255
102
RTVSPost2010PropOp44
 70
     1
102
RTVSPost2010Prop45
280
     0
102
RTVSPost2010PropOp45
 70
     1
102
RTVSPost2010Prop46
 90
       50
102
RTVSPost2010PropOp46
 70
     1
102
RTVSPost2010Prop47
 90
       50
102
RTVSPost2010PropOp47
 70
     1
102
RTVSPost2010Prop48
 90
       50
102
RTVSPost2010PropOp48
 70
     1
102
RTVSPost2010Prop49
280
     0
102
RTVSPost2010PropOp49
 70
     1
102
RTVSPost2010Prop50
 90
       50
102
RTVSPost2010PropOp50
 70
     1
102
RTVSPost2010Prop51ColorIndex
 90
      256
102
RTVSPost2010Prop51ColorRGB
 90
-16777216
102
RTVSPost2010PropOp51
 70
     0
102
RTVSPost2010Prop52
140
1.0
102
RTVSPost2010PropOp52
 70
     0
102
RTVSPost2010Prop53
 90
        2
102
RTVSPost2010PropOp53
 70
     1
102
RTVSPost2010Prop54
  1
strokes_ogs.tif
102
RTVSPost2010PropOp54
 70
     1
102
RTVSPost2010Prop55
280
     0
102
RTVSPost2010PropOp55
 70
     1
102
RTVSPost2010Prop56
140
1.0
102
RTVSPost2010PropOp56
 70
     1
102
RTVSPost2010Prop57
140
1.0
102
RTVSPost2010PropOp57
 70
     1
  0
ENDSEC
  0
SECTION
  2
THUMBNAILIMAGE
 90
    16364
310
28000000B4000000550000000100080000000000C43B000000000000000000000001000000010000FFFFFF000000FF0000FFFF0000FF0000FFFF0000FF000000FF00FF000000000080808000C0C0C0000000FF007F7FFF000000A5005252A50000007F003F3F7F0000004C0026264C000000260013132600003FFF007F9FFF
310
000029A5005267A500001F7F003F4F7F0000134C00262F4C000009260013172600007FFF007FBFFF000052A500527CA500003F7F003F5F7F0000264C0026394C0000132600131C260000BFFF007FDFFF00007CA5005291A500005F7F003F6F7F0000394C0026424C00001C26001321260000FFFF007FFFFF0000A5A50052A5
310
A500007F7F003F7F7F00004C4C00264C4C00002626001326260000FFBF007FFFDF0000A57C0052A59100007F5F003F7F6F00004C3900264C420000261C001326210000FF7F007FFFBF0000A5520052A57C00007F3F003F7F5F00004C2600264C39000026130013261C0000FF3F007FFF9F0000A5290052A56700007F1F003F
310
7F4F00004C1300264C2F00002609001326170000FF00007FFF7F0000A5000052A55200007F00003F7F3F00004C0000264C260000260000132613003FFF00009FFF7F0029A5000067A552001F7F00004F7F3F00134C00002F4C260009260000172613007FFF0000BFFF7F0052A500007CA552003F7F00005F7F3F00264C0000
310
394C2600132600001C261300BFFF0000DFFF7F007CA5000091A552005F7F00006F7F3F00394C0000424C26001C26000021261300FFFF0000FFFF7F00A5A50000A5A552007F7F00007F7F3F004C4C00004C4C26002626000026261300FFBF0000FFDF7F00A57C0000A59152007F5F00007F6F3F004C3900004C422600261C00
310
0026211300FF7F0000FFBF7F00A5520000A57C52007F3F00007F5F3F004C2600004C39260026130000261C1300FF3F0000FF9F7F00A5290000A56752007F1F00007F4F3F004C1300004C2F26002609000026171300FF000000FF7F7F00A5000000A55252007F0000007F3F3F004C0000004C2626002600000026131300FF00
310
3F00FF7F9F00A5002900A55267007F001F007F3F4F004C0013004C262F002600090026131700FF007F00FF7FBF00A5005200A5527C007F003F007F3F5F004C0026004C2639002600130026131C00FF00BF00FF7FDF00A5007C00A55291007F005F007F3F6F004C0039004C26420026001C0026132100FF00FF00FF7FFF00A5
310
00A500A552A5007F007F007F3F7F004C004C004C264C002600260026132600BF00FF00DF7FFF007C00A5009152A5005F007F006F3F7F0039004C0042264C001C002600211326007F00FF00BF7FFF005200A5007C52A5003F007F005F3F7F0026004C0039264C00130026001C1326003F00FF009F7FFF002900A5006752A500
310
1F007F004F3F7F0013004C002F264C000900260017132600000000002D2D2D005B5B5B0089898900B7B7B700B3B3B30000000000000000000000000000000000000000000000000000000000000000000000000000000000000000000000000000000000000000000000000000000000000000000000000000000000000000
310
00000000000000000000000000000000000000000000000000000000000000000000000000000000000000000000000000000000000000000000000000000000000000000000000000000000000000000000000000000000000000000000000000000000000000000000000000000000000000000000000000000000000000
310
00000000000000000000000000000000000000000000000000000000000000000000000000000000000000000000000000000000000000000000000000000000000000000000000000000000000000000000000000000000000000000000000000000000000000000000000000000000000000000000000000000000000000
310
00000000000000000000000000000000000000000000000000000000000000000000000000000000000000000000000000000000000000000000000000000000000000000000000000000000000000000000000000000000000000000000000000000000000000000000000000000000000000000000000000000000000000
310
00000000000000000000000000000000000000000000000000000000000000000000000000000000000000000000000000000000000000000000000000000000000000000000000000000000000000000000000000000000000000000000000000000000000000000000000000000000000000000000000000000000000000
310
00000000000000000000000000000000000000000000000000000000000000000000000000000000000000000000000000000000000000000000000000000000000000000000000000000000000000000000000000000000000000000000000000000000000000000000000000000000000000000000000000000000000000
310
00000000000000000000000000000000000000000000000000000000000000000000000000000000000000000000000000000000000000000000000000000000000000000000000000000000000000000000000000000000000000000000000000000000000000000000000000000000000000000000000000000000000000
310
00000000000000000000000000000000000000000000000000000000000000000000000000000000000000000000000000000000000000000000000000000000000000000000000000000000000000000000000000000000000000000000000000000000000000000000000000000000000000000000000000000000000000
310
00000000000000000000000000000000000000000000000000000000000000000000000000000000000000000000000000000000000000000000000000000000000000000000000000000000000000000000000000000000000000000000000000000000000000000000000000000000000000000000000000000000000000
310
00000000000000000000000000000000030103030303030303030303040103000000000002020202020000000000000303030003030303010303030000000001000303030301030303000000000000000000000000000000000000000000000000000000000000000000000000000000000000000000000000000000000000
310
00000000000000000000000000000000000000000000000000000000000000000000000000000000000000000000000000000000000000000000000000000000000000000003010001030301010103030104010300000000000000000000000000000003030003030300000001000003030303030403030000000100000300
310
00000000000000000000000000000000000000000000000000000000000000000000000000000000000000000000000000000000000000000000000000000000000000000000000000000000000000000000000000000000000000000000000000000000000000000000000000000000000000000000000000000303030303
310
03030303030303040103000000000000000000000000000000010101030003030303010303030000000104030303030301030303000000000000000000000000000000000000000000000000000000000000000000000000000000000000000000000000000000000000000000000000000000000000000000000000000000
310
00000000000000000000000000000000000000000000000000000000000000000000000000000000000000000000000000000301010300010003010103000000000000000000000000000000000000030003000000030000000303000000000100030300000000030000000000000000000000000000000000000000000000
310
00000000000000000000000000000000000000000000000000000000000000000000000000000000000000000000000000000000000000000000000000000000000000000000000000000000000000000000000000000000000000000000000000000000000003010300000001000000030103000000000000000000000000
310
00000000000300030000000300000003030000000001000303000000000303030000000000000000000000000000000000000000000000000000000000000000000000000000000000000000000000000000000000000000000000000000000000000000000000000000000000000000000000000000000000000000000000
310
00000000000000000000000000000000000000000000000000000003010300000000010000000003010300000000000000000000000000000003030003000000030000000000000000000100000000000000010101000000000000000000000000000000000000000000000000000000000000000000000000000000000000
310
00000000000000000000000000000000000000000000000000000000000000000000000000000000000000000000000000000000000000000000000000000000000000000000000000000000000000000301030000000003000000000301030000000000000000000000000000000303000300000003000000000000000000
310
01000000000000000303030000000000000000000000000000000000000000000000000000000000000000000000000000000000000000000000000000000000000000000000000000000000000000000000000000000000000000000000000000000000000000000000000000000000000000000000000000000000000000
310
00000000000103030301010103030301010103030301000000000000000000000000000003030103010101030101010101010101010101010101010101030303000000000000000000000000000000000000000000000000000000000000000000000000000000000000000000000000000000000000000000000000000000
310
00000000000000000000000000000000000000000000000000000000000000000000000000000000000000000000000000000000000000000000000303030000000303030000000303030000000000000000000000000000000303000300000003000303030303030303030303030303030303030300000000000000000000
310
00000000000000000000000000000000000000000000000000000000000000000000000000000000000000000000000000000000000000000000000000000000000000000000000000000000000000000000000000000000000000000000000000000000000000000000000000000000030103000000000100000000030103
310
00000000000000000000000000000003030003000000030003000000030003030103030003000000030303000000000000000000000000000000000000000000000000000000000000000000000000000000000000000000000000000000000000000000000000000000000000000000000000000000000000000000000000
310
00000000000000000000000000000000000000000000000000000000000000000000000000000003030300000001000000030303000000000000000000000000000000000303000300010003000300030303030000010000030303030001010100000000000000000000000000000000000000000000000000000000000000
310
00000000000000000000000000000000000000000000000000000000000000000000000000000000000000000000000000000000000000000000000000000000000000000000000000000000000000000000000000000000000000000301030000000100000003010300000000000000000000000000000000000303030301
310
03030003030003000300000100000300030003030303000000000000000000000000000000000000000000000000000000000000000000000000000000000000000000000000000000000000000000000000000000000000000000000000000000000000000000000000000000000000000000000000000000000000000000
310
00000000000000000000000000000000000003030103030001000303010303030000000000000000000000000000000303030303010303030303030303030303030303030303030300030000000000000000000000000000000000000000000000000000000000000000000000000000000000000000000000000000000000
310
00000000000000000000000000000000000000000000000000000000000000000000000000000000000000000000000000000000000000000000000000000000000000000000000303030301030303010303030303030303030000000000000000000000010101030303030303030003030300000001000000030303000303
310
00000000000000000000000000000000000000000000000000000000000000000000000000000000000000000000000000000000000000000000000000000000000000000000000000000000000000000000000000000000000000000000000000000000000000000000000000000000000000000000030303030303030101
310
03030303030303010103030303030303000000000000000000000003030303030303030303030003000003030300000300030303030000000000000000000000000000000000000000000000000000000000000000000000000000000000000000000000000000000000000000000000000000000000000000000000000000
310
00000000000000000000000000000000000000000000000000000000000000000000000000000000000000000300000000030100000000000100000000000303030303030300000000000000000000000003030303030303030300000300030301030300030000030303000000000000000000000000000000000000000000
310
00000000000000000000000000000000000000000000000000000000000000000000000000000000000000000000000000000000000000000000000000000000000000000000000000000000000000000000000000000000000000000000000001030101010103010303030303030303030303030301010101030100000000
310
00000000000000030303030303030101010101010301010103010101010101010000000000000000000000000000000000000000000000000000000000000000000000000000000000000000000000000000000000000000000000000000000000000000000000000000000000000000000000000000000000000000000000
310
00000000000000000000000000000000000000000000000300000000030103030000000100000003030303000000000300000000000000000000000000000303000003030300000300030301030300030000030303000000000000000000000000000000000000000000000000000000000000000000000000000000000000
310
00000000000000000000000000000000000000000000000000000000000000000000000000000000000000000000000000000000000000000000000000000000000000000000000000000000030303030303040403000000010000000303040303030303030000000000000000000000000000030300000303030000030003
310
03030303000300000303030000000000000000000000000000000000000000000000000000000000000000000000000000000000000000000000000000000000000000000000000000000000000000000000000000000000000000000000000000000000000000000000000000000000000000000000000000000000000000
310
00000000000000000303030000000100000003030300000000000000000000000000000000000000000000000003030003030300000003000000030303000303000000000000000000000000000000000000000000000000000000000000000000000000000000000000000000000000000000000000000000000000000000
310
00000000000000000000000000000000000000000000000000000000000000000000000000000000000000000000000000000000000000000000000000030303000000010000000303030000000000000000000000000000000000000000000000000003030300030303030303030303000303000300000000000000000000
310
00000000000000000000000000000000000000000000000000000000000000000000000000000000000000000000000000000000000000000000000000000000000000000000000000000000000000000000000000000000000000000000000000000000000000000000000000000000000000030300000001000000030300
310
00000000000000000000000000000000000000000000000000030300030003030303030303000300030003000000000000000000000000000000000000000000000000000000000000000000000000000000000000000000000000000000000000000000000000000000000000000000000000000000000000000000000000
310
00000000000000000000000000000000000000000000000000000000000000000000000000000000000303000000010000000303000000000000000000000000000000000000000000000000000003000303030303030303030303030300030000000000000000000000000000000000000000000000000000000000000000
310
00000000000000000000000000000000000000000000000000000000000000000000000000000000000000000000000000000000000000000000000000000000000000000000000000000000000000000000000000000000000000000003030100000001000000030300000000000000000000000000000000000000000000
310
00000000030000030303030303030303030300000300000000000000000000000000000000000000000000000000000000000000000000000000000000000000000000000000000000000000000000000000000000000000000000000000000000000000000000000000000000000000000000000000000000000000000000
310
00000000000000000000000000000000000000000303000000030000000303000000000000000000000000000000000000000000000000000003030001000303000100030300010003030000000000000000000000000000000000000000000000000000000000000000000000000000000000000000000000000000000000
310
00000000000000000000000000000000000000000000000000000000000000000000000000000000000000000000000000000000000000000000000000000000000000000000000000000303030303030303030300000000000000000000000000000000000000000000000000000000030303030303030303030303030000
310
00000000000000000000000000000000000000000000000000000000000000000000000000000000000000000000000000000000000000000000000000000000000000000000000000000000000000000000000000000000000000000000000000000000000000000000000000000000000000000000000000000000000000
310
00000003030300000000000000000000000000000000000000000000000000000000000000000301030300030303000101010101000000000000000000000000000000000000000000000000000000000000000000000000000000000000000000000000000000000000000000000000000000000000000000000000000000
310
00000000000000000000000000000000000000000000000000000000000000000000000000000000000000000000000000000000000000000003000000000000000000000000000000000000000000000000000000000000000000030103000000000000000303030000000000000000000000000000000000000000000000
310
00000000000000000000000000000000000000000000000000000000000000000000000000000000000000000000000000000000000000000000000000000000000000000000000000000000000000000000000000000000000000000000000000000000000000000000000000000100000000000000000000000000000000
310
00000000000000000000000000000000000001000000000000000000010000000000000000000000000000000000000000000000000000000000000000000000000000000000000000000000000000000000000000000000000000000000000000000000000000000000000000000000000000000000000000000000000000
310
00000000000000000000000000000000000000000000000000000000000000000000000000000000000000000000000000000000000000000000000000000000000000000000000000000000000000000000000000000000000000000000000000000000000000000000000000000000000000000000000000000000000000
310
00000000000000000000000000000000000000000000000000000000000000000000000000000000000000000000000000000000000000000000000000000000000000000000000000000000000000000000000000000000000000000000000000000000000000000000000000000000000000000000000000000000000000
310
00000000000000000000000000000000000000000000000000000000000000000000000000000000000000000000000000000000000000000000000000000000000000000000000000000000000000000000000000000000000000000000000000000000000000000000000000000000000000000000000000000000000000
310
00000000000000000000000000000000000000000000000000000000000000000000000000000000000000000000000000000000000000000000000000000000000000000000000000000000000000000000000000000000000000000000000000000000000000000000000000000000000000000000000000000000000000
310
00000000000000000000000000000000000000000000000000000000000000000000000000000000000000000000000000000000000000000000000000000000000000000000000000000000000000000000000000000000000000000000000000000000000000000000000000000000000000000000000000000000000000
310
00000000000000000000000000000000000000000000000000000000000000000000000000000000000000000000000000000000000000000000000000000000000000000000000000000000000000000000000000000000000000000000000000000000000000000000000000000000000000000000000000000000000000
310
00000000000000000000000000000000000000000000000000000000000000000000000000000000000000000000000000000000000000000000000000000000000000000000000000000000000000000000000000000000000000000000000000000000000000000000000000000000000000000000000000000000000000
310
00000000000000000000000000000000000000000000000000000000000000000000000000000000000000000000000000000000000000000000000000000000000000000000000000000000000000000000000000000000000000000000000000000000000000000000000000000000000000000000000000000000000000
310
00000000000000000000000000000000000000000000000000000000000000000000000000000000000000000000000000000000000000000000000000000000000000000000000000000000000000000000000000000000000000000000000000000000000000000000000000000000000000000000000000000000000000
310
00000000000000000000000000000000000000000000000000000000000000000000000000000000000000000000000000000000000000000000000000000000000000000000000000000000000000000000000000000000000000000000000000000000000000000000000000000000000000000000000000000000000000
310
00000000000000000000000000000000000000000000000000000000000000000000000000000000000000000000000000000000000000000000000000000000000000000000000000000000000000000000000000000000000000000000000000000000000000000000000000000000000000000000000000000000000000
310
00000000000000000000000000000000000000000000000000000000000000000000000000000000000000000000000000000000000000000000000000000000000000000000000000000000000000000000000000000000000000000000000000000000000000000000000000000000000000000000000000000000000000
310
00000000000000000000000000000000000000000000000000000000000000000000000000000000000000000000000000000000000000000000000000000000000000000000000000000000000000000000000000000000000000000000000000000000000000000000000000000000000000000000000000000000000000
310
00000000000000000000000000000000000000000000000000000000000000000000000000000000000000000000000000000000000000000000000000000000000000000000000000000000000000000000000000000000000000000000000000000000000000000000000000000000000000000000000000000000000000
310
00000000000000000000000000000000000000000000000000000000000000000000000000000000000000000000000000000000000000000000000000000000000000000000000000000000000000000000000000000000000000000000000000000000000000000000000000000000000000000000000000000000000000
310
00000000000000000000000000000000000000000000000000000000000000000000000000000000000000000000000000000000000000000000000000000000000000000000000000000000000000000000000000000000000000000000000000000000000000000000000000000000000000000000000000000000000000
310
00000000000000000000000000000000000000000000000000000000000000000000000000000000000000000000000000000000000000000000000000000000000000000000000000000000000000000000000000000000000000000000000000000000000000000000000000000000000000000000000000000000000000
310
00000000000000000000000000000000000000000000000000000000000003010003010003030300010300010300000000000000000000000000000000000000000000000000000000000000000000000000000000000000000000000000000000000000000000000000000000000000000000000000000000000000000000
310
00000000000000000000000000000000000000000000000000000000000000000000000000000000000000000000000000000000000000000000000000000000000000000000000000000000000000000000000301030301030303030301030301030000000000000000000000000000000000000000000000000000000000
310
00000000000000000000000000000000000000000000000000000000000000000000000000000000000000000000000000000000000000000000000000000000000000000000000000000000000000000000000000000000000000000000000000000000000000000000000000000000000000000000000000000000000000
310
00000000000000000003010303010303030303010303010300000000000000000000000000000000000000000000000000000000000000000000000000000000000000000000000000000000000000000000000000000000000000000000000000000000000000000000000000000000000000000000000000000000000000
310
00000000000000000000000000000000000000000000000000000000000000000000000000000000000000000000000000000000000000000000000000000301000001000001000001000001030000000000000000000000000000000000000000000000000000000000000000000000000000000000000000000000000000
310
00000000000000000000000000000000000000000000000000000000000000000000000000000000000000000000000000000000000000000000000000000000000000000000000000000000000000000000000000000000000000000000000000000000000000000000000000000000000000000103000000000100000000
310
00010303030303000000000000000000000000000000000000000000000000000000000000000000000000000000000000000000000000000000000000000000000000000000000000000000000000000000000000000000000000000000000000000000000000000000000000000000000000000000000000000000000000
310
00000000000000000000000000000000000000000000000000000000000000000000000000000000000101030101010101010101010101030303030300000000000000000000000000000000000000000000000000000000000000000000000000000000000000000000000000000000000000000000000000000000000000
310
00000000000000000000000000000000000000000000000000000000000000000000000000000000000000000000000000000000000000000000000000000000000000000000000000000000000000000000000000000000000000000000030103000000000100000000000103030303030000000000000000000000000000
310
00000000000000000000000000000000000000000000000000000000000000000000000000000000000000000000000000000000000000000000000000000000000000000000000000000000000000000000000000000000000000000000000000000000000000000000000000000000000000000000000000000000000000
310
00000000000000000000000000000000000000000303000300000001000000030003030000000000000000000000000000000000000000000000000000000000000000000000000000000000000000000000000000000000000000000000000000000000000000000000000000000000000000000000000000000000000000
310
00000000000000000000000000000000000000000000000000000000000000000000000000000000000000000000000000000000000000000000000000000000000000000000000000030303030000000100000003030303000000000000000000000000000000000000000000000000000000000000000000000000000000
310
00000000000000000000000000000000000000000000000000000000000000000000000000000000000000000000000000000000000000000000000000000000000000000000000000000000000000000000000000000000000000000000000000000000000000000000000000000000000000000000000000000000000001
310
03030303030303030303030303010000000000000000000000000000000000000000000000000000000000000000000000000000000000000000000000000000000000000000000000000000000000000000000000000000000000000000000000000000000000000000000000000000000000000000000000000000000000
310
00000000000000000000000000000000000000000000000000000000000000000000000000000000000000000000000000000000030101010000000100000003030103000000000000000000000000000000000000000000000000000000000000000000000000000000000000000000000000000000000000000000000000
310
00000000000000000000000000000000000000000000000000000000000000000000000000000000000000000000000000000000000000000000000000000000000000000000000000000000000000000000000000000000000000000000000000000000000000000003000303000000030000000303000300000000000000
310
00000000000000000000000000000000000000000000000000000000000000000000000000000000000000000000000000000000000000000000000000000000000000000000000000000000000000000000000000000000000000000000000000000000000000000000000000000000000000000000000000000000000000
310
00000000000000000000000000000000000000000000000000000000000000030303030000030303000003030303000000000000000000000000000000000000000000000000000000000000000000000000000000000000000000000000000000000000000000000000000000000000000000000000000000000000000000
310
00000000000000000000000000000000000000000000000000000000000000000000000000000000000000000000000000000000000000000000000000000000000000000000000000000000000000000000000000010101000003030301000303030000000000000000000000000000000000000000000000000000000000
310
00000000000000000000000000000000000000000000000000000000000000000000000000000000000000000000000000000000000000000000000000000000000000000000000000000000000000000000000000000000000000000000000000000000000000000000000000000000000000000000000000000000000000
310
00000000000000000000000303030000000300000003030300000000000000000000000000000000000000000000000000000000000000000000000000000000000000000000000000000000000000000000000000000000000000000000000000000000000000000000000000000000000000000000000000000000000000
310
00000000000000000000000000000000000000000000000000000000000000000000000000000000000000000000000000000000000000000000000000000000030303000000010000000303030000000000000000000000000000000000000000000000000000000000000000000000000000000000000000000000000000
310
00000000000000000000000000000000000000000000000000000000000000000000000000000000000000000000000000000000000000000000000000000000000000000000000000000000000000000000000000000000000000000000000000000000000000000000000000000003030303030303030300000303030000
310
03030303030303030300000000000000000000000000000000000000000000000000000000000000000000000000000000000000000000000000000000000000000000000000000000000000000000000000000000000000000000000000000000000000000000000000000000000000000000000000000000000000000000
310
00000000000000000000000000000000000000000000000000000000000000000000000001030303030303030303010103010301010303030303030303030100000000000000000000000000000000000000000000000000000000000000000000000000000000000000000000000000000000000000000000000000000000
310
00000000000000000000000000000000000000000000000000000000000000000000000000000000000000000000000000000000000000000000000000000000000000000000000000000000000000000000000000000000000003030303030303030300000303030000030303030303030303000000000000000000000000
310
00000000000000000000000000000000000000000000000000000000000000000000000000000000000000000000000000000000000000000000000000000000000000000000000000000000000000000000000000000000000000000000000000000000000000000000000000000000000000000000000000000000000000
310
00000000000000000000000000000000030303030303030303000000010000000303030303030303030000000000000000000000000000000000000000000000000000000000000000000000000000000000000000000000000000000000000000000000000000000000000000000000000000000000000000000000000000
310
00000000000000000000000000000000000000000000000000000000000000000000000000000000000000000000000000000000000000000000000000000000000000000000000000000303030300000001000000030303030000000000000000000000000000000000000000000000000000000000000000000000000000
310
00000000000000000000000000000000000000000000000000000000000000000000000000000000000000000000000000000000000000000000000000000000000000000000000000000000000000000000000000000000000000000000000000000000000000000000000000000000000000000000000000000000000000
310
03010101000000030300000303030300000000000000000000000000000000000000000000000000000000000000000000000000000000000000000000000000000000000000000000000000000000000000000000000000000000000000000000000000000000000000000000000000000000000000000000000000000000
310
00000000000000000000000000000000000000000000000000000000000000000000000000000000000000000000000000000000000303030300000303030100030300030000000000000000000000000000000000000000000000000000000000000000000000000000000000000000000000000000000000000000000000
310
00000000000000000000000000000000000000000000000000000000000000000000000000000000000000000000000000000000000000000000000000000000000000000000000000000000000000000000000000000000000000000000000000000000000000000000030103030000030303000003030103000000000000
310
00000000000000000000000000000000000000000000000000000000000000000000000000000000000000000000000000000000000000000000000000000000000000000000000000000000000000000000000000000000000000000000000000000000000000000000000000000000000000000000000000000000000000
310
00000000000000000000000000000000000000000000000000000000000000000103010300000001000000030103030000000000000000000000000000000000000000000000000000000000000000000000000000000000000000000000000000000000000000000000000000000000000000000000000000000000000000
310
00000000000000000000000000000000000000000000000000000000000000000000000000000000000000000000000000000000000000000000000000000000000000000000000000000000000000000000000000030101010100010100010103030103000000000000000000000000000000000000000000000000000000
310
00000000000000000000000000000000000000000000000000000000000000000000000000000000000000000000000000000000000000000000000000000000000000000000000000000000000000000000000000000000000000000000000000000000000000000000000000000000000000000000000000000000000000
310
00000000000000000000000303030301030103030101030303030000000000000000000000000000000000000000000000000000000000000000000000000000000000000000000000000000000000000000000000000000000000000000000000000000000000000000000000000000000000000000000000000000000000
310
00000000000000000000000000000000000000000000000000000000000000000000000000000000000000000000000000000000000000000000000000000000000000030103010303010103000000000000000000000000000000000000000000000000000000000000000000000000000000000000000000000000000000
310
00000000000000000000000000000000000000000000000000000000000000000000000000000000000000000000000000000000000000000000000000000000000000000000000000000000000000000000000000000000000000000000000000000000000000000000000000000000000000000000000000000000000000
310
00000000000000000000000000000000000000000000000000000000000000000000000000000000000000000000000000000000000000000000000000000000000000000000000000000000000000000000000000000000000000000000000000000000000000000000000000000000000000000000000000000000000000
310
00000000000000000000000000000000000000000000000000000000000000000000000000000000000000000000000000000000000000000000000000000000000000000000000000000000000000000000000000000000000000000000000000000000000000000000000000000000000000000000000000000000000000
310
00000000000000000000000000000000000000000000000000000000000000000000000000000000000000000000000000000000000000000000000000000000000000000000000000000000000000000000000000000000000000000000000000000000000000000000000000000000000000000000000000000000000000
310
00000000000000000000000000000000000000000000000000000000000000000000000000000000000000000000000000000000000000000000000000000000000000000000000000000000000000000000000000000000000000000000000000000000000000000000000000000000000000000000000000000000000000
310
00000000000000000000000000000000000000000000000000000000000000000000000000000000000000000000000000000000000000000000000000000000000000000000000000000000000000000000000000000000000000000000000000000000000000000000000000000000000000000000000000000000000000
310
00000000000000000000000000000000000000000000000000000000000000000000000000000000000000000000000000000000000000000000000000000000000000000000000000000000000000000000000000000000000000000000000000000000000000000000000000000000000000000000000000000000000000
310
00000000000000000000000000000000000000000000000000000000000000000000000000000000000000000000000000000000000000000000000000000000000000000000000000000000000000000000000000000000000000000000000000000000000000000000000000000000000000000000000000000000000000
310
00000000000000000000000000000000000000000000000000000000000000000000000000000000000000000000000000000000000000000000000000000000000000000000000000000000000000000000000000000000000000000000000000000000000000000000000000000000000000000000000000000000000000
310
00000000000000000000000000000000000000000000000000000000000000000000000000000000000000000000000000000000000000000000000000000000000000000000000000000000000000000000000000000000000000000000000000000000000000000000000000000000000000000000000000000000000000
310
00000000000000000000000000000000000000000000000000000000000000000000000000000000000000000000000000000000000000000000000000000000000000000000000000000000000000000000000000000000000000000000000000000000000000000000000000000000000000000000000000000000000000
310
00000000000000000000000000000000000000000000000000000000000000000000000000000000000000000000000000000000000000000000000000000000000000000000000000000000000000000000000000000000000000000000000000000000000000000000000000000000000000000000000000000000000000
310
00000000000000000000000000000000000000000000000000000000000000000000000000000000000000000000000000000000000000000000000000000000000000000000000000000000000000000000000000000000000000000000000000000000000000000000000000000000000000000000000000000000000000
310
00000000000000000000000000000000000000000000000000000000000000000000000000000000000000000000000000000000000000000000000000000000000000000000000000000000000000000000000000000000000000000000000000000000000000000000000000000000000000000000000000000000000000
310
000000000000000000000000000000000000000000000000000000000000000000000000000000000000000000000000000000000000000000000000000000000000000000000000000000000000000000000000000000000000000000000000000000000000000000000000
  0
ENDSEC
  0
EOF
