  0
SECTION
  2
HEADER
  9
$ACADVER
  1
AC1015
  9
$ACADMAINTVER
 70
     6
  9
$DWGCODEPAGE
  3
ANSI_932
  9
$INSBASE
 10
2394.809690443102
 20
1357.957377799471
 30
0.0
  9
$EXTMIN
 10
406.468657988461
 20
94.81479415936951
 30
0.0
  9
$EXTMAX
 10
2675.707445946327
 20
2046.81677749907
 30
0.0
  9
$LIMMIN
 10
0.0
 20
0.0
  9
$LIMMAX
 10
816.5000000000001
 20
565.0
  9
$ORTHOMODE
 70
     1
  9
$REGENMODE
 70
     1
  9
$FILLMODE
 70
     1
  9
$QTEXTMODE
 70
     0
  9
$MIRRTEXT
 70
     1
  9
$LTSCALE
 40
20.0
  9
$ATTMODE
 70
     1
  9
$TEXTSIZE
 40
21.0
  9
$TRACEWID
 40
0.05
  9
$TEXTSTYLE
  7
KANJI
  9
$CLAYER
  8
2
  9
$CELTYPE
  6
BYLAYER
  9
$CECOLOR
 62
   256
  9
$CELTSCALE
 40
1.0
  9
$DISPSILH
 70
     0
  9
$DIMSCALE
 40
7.0
  9
$DIMASZ
 40
2.0
  9
$DIMEXO
 40
0.5
  9
$DIMDLI
 40
0.0
  9
$DIMRND
 40
0.0
  9
$DIMDLE
 40
0.0
  9
$DIMEXE
 40
1.0
  9
$DIMTP
 40
0.0
  9
$DIMTM
 40
0.0
  9
$DIMTXT
 40
3.0
  9
$DIMCEN
 40
0.09
  9
$DIMTSZ
 40
0.0
  9
$DIMTOL
 70
     0
  9
$DIMLIM
 70
     0
  9
$DIMTIH
 70
     0
  9
$DIMTOH
 70
     0
  9
$DIMSE1
 70
     0
  9
$DIMSE2
 70
     0
  9
$DIMTAD
 70
     0
  9
$DIMZIN
 70
     8
  9
$DIMBLK
  1

  9
$DIMASO
 70
     0
  9
$DIMSHO
 70
     0
  9
$DIMPOST
  1

  9
$DIMAPOST
  1

  9
$DIMALT
 70
     0
  9
$DIMALTD
 70
     2
  9
$DIMALTF
 40
25.4
  9
$DIMLFAC
 40
1.0
  9
$DIMTOFL
 70
     1
  9
$DIMTVP
 40
1.0
  9
$DIMTIX
 70
     1
  9
$DIMSOXD
 70
     1
  9
$DIMSAH
 70
     0
  9
$DIMBLK1
  1

  9
$DIMBLK2
  1

  9
$DIMSTYLE
  2
STANDARD
  9
$DIMCLRD
 70
   256
  9
$DIMCLRE
 70
   256
  9
$DIMCLRT
 70
   256
  9
$DIMTFAC
 40
1.0
  9
$DIMGAP
 40
0.09
  9
$DIMJUST
 70
     0
  9
$DIMSD1
 70
     0
  9
$DIMSD2
 70
     0
  9
$DIMTOLJ
 70
     1
  9
$DIMTZIN
 70
     0
  9
$DIMALTZ
 70
     0
  9
$DIMALTTZ
 70
     0
  9
$DIMUPT
 70
     0
  9
$DIMDEC
 70
     1
  9
$DIMTDEC
 70
     4
  9
$DIMALTU
 70
     2
  9
$DIMALTTD
 70
     2
  9
$DIMTXSTY
  7
STANDARD
  9
$DIMAUNIT
 70
     0
  9
$DIMADEC
 70
     0
  9
$DIMALTRND
 40
0.0
  9
$DIMAZIN
 70
     0
  9
$DIMDSEP
 70
    46
  9
$DIMATFIT
 70
     3
  9
$DIMFRAC
 70
     0
  9
$DIMLDRBLK
  1

  9
$DIMLUNIT
 70
     2
  9
$DIMLWD
 70
    -2
  9
$DIMLWE
 70
    -2
  9
$DIMTMOVE
 70
     0
  9
$LUNITS
 70
     2
  9
$LUPREC
 70
     3
  9
$SKETCHINC
 40
0.1
  9
$FILLETRAD
 40
1.0
  9
$AUNITS
 70
     0
  9
$AUPREC
 70
     3
  9
$MENU
  1
C:\R13\WIN\SUPPORT\ACADFULL
  9
$ELEVATION
 40
0.0
  9
$PELEVATION
 40
0.0
  9
$THICKNESS
 40
0.0
  9
$LIMCHECK
 70
     0
  9
$CHAMFERA
 40
0.0
  9
$CHAMFERB
 40
0.0
  9
$CHAMFERC
 40
0.0
  9
$CHAMFERD
 40
0.0
  9
$SKPOLY
 70
     0
  9
$TDCREATE
 40
2457464.455073333
  9
$TDUCREATE
 40
2457464.080073333
  9
$TDUPDATE
 40
2458115.684001898
  9
$TDUUPDATE
 40
2458115.309001898
  9
$TDINDWG
 40
0.0105757292
  9
$TDUSRTIMER
 40
0.0105746644
  9
$USRTIMER
 70
     1
  9
$ANGBASE
 50
0.0
  9
$ANGDIR
 70
     0
  9
$PDMODE
 70
     0
  9
$PDSIZE
 40
0.0
  9
$PLINEWID
 40
0.0
  9
$SPLFRAME
 70
     0
  9
$SPLINETYPE
 70
     6
  9
$SPLINESEGS
 70
     8
  9
$HANDSEED
  5
71D
  9
$SURFTAB1
 70
     6
  9
$SURFTAB2
 70
     6
  9
$SURFTYPE
 70
     6
  9
$SURFU
 70
     6
  9
$SURFV
 70
     6
  9
$UCSBASE
  2

  9
$UCSNAME
  2

  9
$UCSORG
 10
0.0
 20
0.0
 30
0.0
  9
$UCSXDIR
 10
1.0
 20
0.0
 30
0.0
  9
$UCSYDIR
 10
0.0
 20
1.0
 30
0.0
  9
$UCSORTHOREF
  2

  9
$UCSORTHOVIEW
 70
     0
  9
$UCSORGTOP
 10
0.0
 20
0.0
 30
0.0
  9
$UCSORGBOTTOM
 10
0.0
 20
0.0
 30
0.0
  9
$UCSORGLEFT
 10
0.0
 20
0.0
 30
0.0
  9
$UCSORGRIGHT
 10
0.0
 20
0.0
 30
0.0
  9
$UCSORGFRONT
 10
0.0
 20
0.0
 30
0.0
  9
$UCSORGBACK
 10
0.0
 20
0.0
 30
0.0
  9
$PUCSBASE
  2

  9
$PUCSNAME
  2

  9
$PUCSORG
 10
0.0
 20
0.0
 30
0.0
  9
$PUCSXDIR
 10
1.0
 20
0.0
 30
0.0
  9
$PUCSYDIR
 10
0.0
 20
1.0
 30
0.0
  9
$PUCSORTHOREF
  2

  9
$PUCSORTHOVIEW
 70
     0
  9
$PUCSORGTOP
 10
0.0
 20
0.0
 30
0.0
  9
$PUCSORGBOTTOM
 10
0.0
 20
0.0
 30
0.0
  9
$PUCSORGLEFT
 10
0.0
 20
0.0
 30
0.0
  9
$PUCSORGRIGHT
 10
0.0
 20
0.0
 30
0.0
  9
$PUCSORGFRONT
 10
0.0
 20
0.0
 30
0.0
  9
$PUCSORGBACK
 10
0.0
 20
0.0
 30
0.0
  9
$USERI1
 70
     0
  9
$USERI2
 70
     0
  9
$USERI3
 70
     0
  9
$USERI4
 70
     0
  9
$USERI5
 70
     0
  9
$USERR1
 40
0.0
  9
$USERR2
 40
0.0
  9
$USERR3
 40
0.0
  9
$USERR4
 40
2448925.372986111
  9
$USERR5
 40
0.04166667
  9
$WORLDVIEW
 70
     1
  9
$SHADEDGE
 70
     3
  9
$SHADEDIF
 70
    70
  9
$TILEMODE
 70
     1
  9
$MAXACTVP
 70
    16
  9
$PINSBASE
 10
0.0
 20
0.0
 30
0.0
  9
$PLIMCHECK
 70
     0
  9
$PEXTMIN
 10
1000000000000000E+20
 20
1000000000000000E+20
 30
1000000000000000E+20
  9
$PEXTMAX
 10
-1000000000000000E+20
 20
-1000000000000000E+20
 30
-1000000000000000E+20
  9
$PLIMMIN
 10
0.0
 20
0.0
  9
$PLIMMAX
 10
12.0
 20
9.0
  9
$UNITMODE
 70
     0
  9
$VISRETAIN
 70
     0
  9
$PLINEGEN
 70
     0
  9
$PSLTSCALE
 70
     0
  9
$TREEDEPTH
 70
  3020
  9
$CMLSTYLE
  2
STANDARD
  9
$CMLJUST
 70
     0
  9
$CMLSCALE
 40
1.0
  9
$PROXYGRAPHICS
 70
     1
  9
$MEASUREMENT
 70
     0
  9
$CELWEIGHT
370
    -1
  9
$ENDCAPS
280
     0
  9
$JOINSTYLE
280
     0
  9
$LWDISPLAY
290
     0
  9
$INSUNITS
 70
     0
  9
$HYPERLINKBASE
  1

  9
$STYLESHEET
  1

  9
$XEDIT
290
     1
  9
$CEPSNTYPE
380
     0
  9
$PSTYLEMODE
290
     1
  9
$FINGERPRINTGUID
  2
{0F18731C-6CE4-4B19-942C-0B3B300E65AB}
  9
$VERSIONGUID
  2
{9CA4B058-046A-48BC-BBF9-3B4ED55932D5}
  9
$EXTNAMES
290
     1
  9
$PSVPSCALE
 40
0.0
  9
$OLESTARTUP
290
     0
  0
ENDSEC
  0
SECTION
  2
CLASSES
  0
CLASS
  1
ACDBDICTIONARYWDFLT
  2
AcDbDictionaryWithDefault
  3
ObjectDBX Classes
 90
        0
280
     0
281
     0
  0
CLASS
  1
MATERIAL
  2
AcDbMaterial
  3
ObjectDBX Classes
 90
     1153
280
     0
281
     0
  0
CLASS
  1
SORTENTSTABLE
  2
AcDbSortentsTable
  3
ObjectDBX Classes
 90
        0
280
     0
281
     0
  0
CLASS
  1
VISUALSTYLE
  2
AcDbVisualStyle
  3
ObjectDBX Classes
 90
     4095
280
     0
281
     0
  0
CLASS
  1
SCALE
  2
AcDbScale
  3
ObjectDBX Classes
 90
     1153
280
     0
281
     0
  0
CLASS
  1
DICTIONARYVAR
  2
AcDbDictionaryVar
  3
ObjectDBX Classes
 90
        0
280
     0
281
     0
  0
CLASS
  1
TABLESTYLE
  2
AcDbTableStyle
  3
ObjectDBX Classes
 90
     4095
280
     0
281
     0
  0
CLASS
  1
MLEADERSTYLE
  2
AcDbMLeaderStyle
  3
ACDB_MLEADERSTYLE_CLASS
 90
     4095
280
     0
281
     0
  0
CLASS
  1
ACDBPLACEHOLDER
  2
AcDbPlaceHolder
  3
ObjectDBX Classes
 90
        0
280
     0
281
     0
  0
CLASS
  1
LAYOUT
  2
AcDbLayout
  3
ObjectDBX Classes
 90
        0
280
     0
281
     0
  0
ENDSEC
  0
SECTION
  2
TABLES
  0
TABLE
  2
VPORT
  5
2C
102
{ACAD_XDICTIONARY
360
6E2
102
}
330
0
100
AcDbSymbolTable
 70
     1
  0
VPORT
  5
33
330
2C
100
AcDbSymbolTableRecord
100
AcDbViewportTableRecord
  2
*ACTIVE
 70
     0
 10
0.0
 20
0.0
 11
1.0
 21
1.0
 12
2380.507565437953
 22
1086.370919477459
 13
0.0
 23
0.0
 14
1.0
 24
1.0
 15
50.0
 25
50.0
 16
0.0
 26
0.0
 36
1.0
 17
0.0
 27
0.0
 37
0.0
 40
2517.079290047324
 41
1.82716049382716
 42
50.0
 43
0.0
 44
0.0
 50
0.0
 51
0.0
 71
     0
 72
  5000
 73
     1
 74
     0
 75
     0
 76
     0
 77
     0
 78
     0
281
     0
 65
     1
110
0.0
120
0.0
130
0.0
111
1.0
121
0.0
131
0.0
112
0.0
122
1.0
132
0.0
 79
     0
146
0.0
1001
ACAD_NAV_VCDISPLAY
1070
     3
  0
ENDTAB
  0
TABLE
  2
LTYPE
  5
F
330
0
100
AcDbSymbolTable
 70
     2
  0
LTYPE
  5
10
330
F
100
AcDbSymbolTableRecord
100
AcDbLinetypeTableRecord
  2
BYBLOCK
 70
     0
  3

 72
    65
 73
     0
 40
0.0
  0
LTYPE
  5
11
330
F
100
AcDbSymbolTableRecord
100
AcDbLinetypeTableRecord
  2
BYLAYER
 70
     0
  3

 72
    65
 73
     0
 40
0.0
  0
LTYPE
  5
E
330
F
100
AcDbSymbolTableRecord
100
AcDbLinetypeTableRecord
  2
CONTINUOUS
 70
     0
  3
Solid line
 72
    65
 73
     0
 40
0.0
  0
LTYPE
  5
81
330
F
100
AcDbSymbolTableRecord
100
AcDbLinetypeTableRecord
  2
CENTER
 70
     0
  3
____ _ ____ _ ____ _ ____ _ ____ _ ____ _ ____
 72
    65
 73
     4
 40
2.0
 49
1.25
 74
     0
 49
-0.25
 74
     0
 49
0.25
 74
     0
 49
-0.25
 74
     0
  0
ENDTAB
  0
TABLE
  2
LAYER
  5
2
102
{ACAD_XDICTIONARY
360
3
102
}
330
0
100
AcDbSymbolTable
 70
     8
  0
LAYER
  5
1F
102
{ACAD_XDICTIONARY
360
20
102
}
330
2
100
AcDbSymbolTableRecord
100
AcDbLayerTableRecord
  2
0
 70
     0
 62
     7
  6
CONTINUOUS
370
    -3
390
7
  0
LAYER
  5
5BE
102
{ACAD_XDICTIONARY
360
5BF
102
}
330
2
100
AcDbSymbolTableRecord
100
AcDbLayerTableRecord
  2
1
 70
     0
 62
     9
  6
CONTINUOUS
370
    -3
390
7
  0
LAYER
  5
1
102
{ACAD_XDICTIONARY
360
5
102
}
330
2
100
AcDbSymbolTableRecord
100
AcDbLayerTableRecord
  2
2
 70
     0
 62
     4
  6
CONTINUOUS
370
    -3
390
7
  0
LAYER
  5
83
102
{ACAD_XDICTIONARY
360
84
102
}
330
2
100
AcDbSymbolTableRecord
100
AcDbLayerTableRecord
  2
4
 70
     0
 62
     3
  6
CONTINUOUS
370
    -3
390
7
  0
LAYER
  5
7E
102
{ACAD_XDICTIONARY
360
7F
102
}
330
2
100
AcDbSymbolTableRecord
100
AcDbLayerTableRecord
  2
L-CENTER
 70
     0
 62
     1
  6
CENTER
370
    -3
390
7
  0
LAYER
  5
6C
102
{ACAD_XDICTIONARY
360
6D
102
}
330
2
100
AcDbSymbolTableRecord
100
AcDbLayerTableRecord
  2
3
 70
     0
 62
     2
  6
CONTINUOUS
370
    -3
390
7
  0
LAYER
  5
D0
102
{ACAD_XDICTIONARY
360
D1
102
}
330
2
100
AcDbSymbolTableRecord
100
AcDbLayerTableRecord
  2
CENTER
 70
     0
 62
     1
  6
CENTER
370
    -3
390
7
  0
LAYER
  5
5B8
330
2
100
AcDbSymbolTableRecord
100
AcDbLayerTableRecord
  2
5
 70
     0
 62
     6
  6
CONTINUOUS
370
    -3
390
7
  0
ENDTAB
  0
TABLE
  2
STYLE
  5
13
330
0
100
AcDbSymbolTable
 70
     2
  0
STYLE
  5
17
330
13
100
AcDbSymbolTableRecord
100
AcDbTextStyleTableRecord
  2
STANDARD
 70
     0
 40
0.0
 41
1.0
 50
0.0
 71
     0
 42
12.6
  3
TXT
  4

  0
STYLE
  5
12
330
13
100
AcDbSymbolTableRecord
100
AcDbTextStyleTableRecord
  2
KANJI
 70
     0
 40
0.0
 41
1.0
 50
0.0
 71
     0
 42
21.0
  3
TXT
  4
BIGFONT
  0
ENDTAB
  0
TABLE
  2
VIEW
  5
2A
330
0
100
AcDbSymbolTable
 70
     0
  0
ENDTAB
  0
TABLE
  2
UCS
  5
2B
330
0
100
AcDbSymbolTable
 70
     0
  0
ENDTAB
  0
TABLE
  2
APPID
  5
D
330
0
100
AcDbSymbolTable
 70
     6
  0
APPID
  5
C
330
D
100
AcDbSymbolTableRecord
100
AcDbRegAppTableRecord
  2
ACAD
 70
     0
  0
APPID
  5
34
330
D
100
AcDbSymbolTableRecord
100
AcDbRegAppTableRecord
  2
ACAD_NAV_VCDISPLAY
 70
     0
  0
APPID
  5
25
330
D
100
AcDbSymbolTableRecord
100
AcDbRegAppTableRecord
  2
ACAD_PSEXT
 70
     0
  0
APPID
  5
6D6
330
D
100
AcDbSymbolTableRecord
100
AcDbRegAppTableRecord
  2
ACAD_MLEADERVER
 70
     0
  0
ENDTAB
  0
TABLE
  2
DIMSTYLE
  5
16
330
0
100
AcDbSymbolTable
 70
     1
100
AcDbDimStyleTable
  0
DIMSTYLE
105
15
330
16
100
AcDbSymbolTableRecord
100
AcDbDimStyleTableRecord
  2
STANDARD
 70
     0
178
     0
340
17
  0
ENDTAB
  0
TABLE
  2
BLOCK_RECORD
  5
1A
330
0
100
AcDbSymbolTable
 70
     0
  0
BLOCK_RECORD
  5
1B
102
{ACAD_XDICTIONARY
360
1C
102
}
330
1A
100
AcDbSymbolTableRecord
100
AcDbBlockTableRecord
  2
*MODEL_SPACE
340
23
  0
BLOCK_RECORD
  5
26
330
1A
100
AcDbSymbolTableRecord
100
AcDbBlockTableRecord
  2
*PAPER_SPACE
340
29
  0
ENDTAB
  0
ENDSEC
  0
SECTION
  2
BLOCKS
  0
BLOCK
  5
1E
330
1B
100
AcDbEntity
  8
0
100
AcDbBlockBegin
  2
*MODEL_SPACE
 70
     0
 10
0.0
 20
0.0
 30
0.0
  3
*MODEL_SPACE
  1

  0
ENDBLK
  5
22
330
1B
100
AcDbEntity
  8
0
100
AcDbBlockEnd
  0
BLOCK
  5
27
330
26
100
AcDbEntity
 67
     1
  8
0
100
AcDbBlockBegin
  2
*PAPER_SPACE
 70
     0
 10
0.0
 20
0.0
 30
0.0
  3
*PAPER_SPACE
  1

  0
ENDBLK
  5
28
330
26
100
AcDbEntity
 67
     1
  8
0
100
AcDbBlockEnd
  0
ENDSEC
  0
SECTION
  2
ENTITIES
  0
TEXT
  5
BC
330
1B
100
AcDbEntity
  8
3
100
AcDbText
 10
1497.801408930548
 20
95.76908279689098
 30
0.0
 40
21.0
  1
LDC9-00
  7
KANJI
100
AcDbText
  0
ARC
  5
BE
330
1B
100
AcDbEntity
  8
4
100
AcDbCircle
 10
2583.978198946328
 20
110.9773981593694
 30
0.0
 40
7.616209999999999
100
AcDbArc
 50
305.987537999995
 51
30.25471399999988
  0
ARC
  5
BF
330
1B
100
AcDbEntity
  8
4
100
AcDbCircle
 10
2583.978198946328
 20
110.9773981593694
 30
0.0
 40
7.616209999999999
100
AcDbArc
 50
305.987537999995
 51
30.25471399999988
  0
ARC
  5
C1
330
1B
100
AcDbEntity
  8
4
100
AcDbCircle
 10
2592.392261946328
 20
150.9773931593695
 30
0.0
 40
7.616209999999999
100
AcDbArc
 50
305.9875319999896
 51
30.25471800000382
  0
ARC
  5
C2
330
1B
100
AcDbEntity
  8
4
100
AcDbCircle
 10
2592.392261946328
 20
150.9773931593695
 30
0.0
 40
7.616209999999999
100
AcDbArc
 50
305.9875319999896
 51
30.25471800000382
  0
ARC
  5
C3
330
1B
100
AcDbEntity
  8
4
100
AcDbCircle
 10
2588.185226946328
 20
130.9773921593696
 30
0.0
 40
7.616209999999999
100
AcDbArc
 50
305.987537999995
 51
30.25471399999988
  0
ARC
  5
C4
330
1B
100
AcDbEntity
  8
4
100
AcDbCircle
 10
2588.185226946328
 20
130.9773921593696
 30
0.0
 40
7.616209999999999
100
AcDbArc
 50
305.987537999995
 51
30.25471399999988
  0
ARC
  5
C5
330
1B
100
AcDbEntity
  8
4
100
AcDbCircle
 10
2597.135909946328
 20
118.6521981593696
 30
0.0
 40
7.616209999999999
100
AcDbArc
 50
125.9875430000027
 51
210.2547239999982
  0
ARC
  5
C6
330
1B
100
AcDbEntity
  8
4
100
AcDbCircle
 10
2597.135909946328
 20
118.6521981593696
 30
0.0
 40
7.616209999999999
100
AcDbArc
 50
125.9875430000027
 51
210.2547239999982
  0
ARC
  5
C7
330
1B
100
AcDbEntity
  8
4
100
AcDbCircle
 10
2601.342944946327
 20
138.6521991593695
 30
0.0
 40
7.616209999999999
100
AcDbArc
 50
125.9875430000027
 51
210.2547239999982
  0
ARC
  5
C8
330
1B
100
AcDbEntity
  8
4
100
AcDbCircle
 10
2601.342944946327
 20
138.6521991593695
 30
0.0
 40
7.616209999999999
100
AcDbArc
 50
125.9875430000027
 51
210.2547239999982
  0
LINE
  5
CC
330
1B
100
AcDbEntity
  8
4
100
AcDbLine
 10
486.662421244032
 20
2046.81677749907
 30
0.0
 11
676.6624212440324
 21
2046.81677749907
 31
0.0
  0
LINE
  5
CD
330
1B
100
AcDbEntity
  8
4
100
AcDbLine
 10
486.662421244032
 20
1211.81677749907
 30
0.0
 11
676.6624212440324
 21
1211.81677749907
 31
0.0
  0
LINE
  5
CE
330
1B
100
AcDbEntity
  8
4
100
AcDbLine
 10
454.662421244032
 20
463.8147941593693
 30
0.0
 11
856.6624212440324
 21
463.8147941593693
 31
0.0
  0
LINE
  5
CF
330
1B
100
AcDbEntity
  8
CENTER
100
AcDbLine
 10
1280.489571244032
 20
1614.81677749907
 30
0.0
 11
432.8352712440319
 21
1614.81677749907
 31
0.0
  0
LINE
  5
D3
330
1B
100
AcDbEntity
  8
CENTER
100
AcDbLine
 10
892.3565706457025
 20
1433.81677749907
 30
0.0
 11
820.9682718423614
 21
1433.81677749907
 31
0.0
  0
LINE
  5
D4
330
1B
100
AcDbEntity
  8
4
100
AcDbLine
 10
466.662421244032
 20
468.8147941593693
 30
0.0
 11
1246.662421244032
 21
468.8147941593693
 31
0.0
  0
LINE
  5
D5
330
1B
100
AcDbEntity
  8
CENTER
100
AcDbLine
 10
1430.603462383094
 20
1851.81677749907
 30
0.0
 11
417.5713633673522
 21
1851.81677749907
 31
0.0
  0
CIRCLE
  5
D6
330
1B
100
AcDbEntity
  8
4
100
AcDbCircle
 10
856.6624212440324
 20
1614.81677749907
 30
0.0
 40
402.0
  0
CIRCLE
  5
D7
330
1B
100
AcDbEntity
  8
4
100
AcDbCircle
 10
856.6624212440324
 20
1614.81677749907
 30
0.0
 40
390.0
  0
LINE
  5
D8
330
1B
100
AcDbEntity
  8
4
100
AcDbLine
 10
660.6624212440324
 20
264.8147941593693
 30
0.0
 11
676.6624212440324
 21
264.8147941593693
 31
0.0
  0
LINE
  5
D9
330
1B
100
AcDbEntity
  8
4
100
AcDbLine
 10
486.662421244032
 20
104.8147941593695
 30
0.0
 11
676.6624212440324
 21
104.8147941593695
 31
0.0
  0
LINE
  5
DA
330
1B
100
AcDbEntity
  8
CENTER
100
AcDbLine
 10
420.6513746467162
 20
279.8147941593693
 30
0.0
 11
1430.603462383094
 21
279.8147941593693
 31
0.0
  0
LINE
  5
DB
330
1B
100
AcDbEntity
  8
4
100
AcDbLine
 10
454.662421244032
 20
154.8147941593695
 30
0.0
 11
1258.662421244032
 21
154.8147941593695
 31
0.0
  0
LINE
  5
DC
330
1B
100
AcDbEntity
  8
4
100
AcDbLine
 10
486.662421244032
 20
1211.81677749907
 30
0.0
 11
486.662421244032
 21
1414.81677749907
 31
0.0
  0
LINE
  5
DD
330
1B
100
AcDbEntity
  8
4
100
AcDbLine
 10
660.6624212440324
 20
264.8147941593693
 30
0.0
 11
660.6624212440324
 21
154.8147941593695
 31
0.0
  0
LINE
  5
DE
330
1B
100
AcDbEntity
  8
4
100
AcDbLine
 10
445.662421244032
 20
189.8147941593695
 30
0.0
 11
445.662421244032
 21
369.8147941593693
 31
0.0
  0
LINE
  5
DF
330
1B
100
AcDbEntity
  8
4
100
AcDbLine
 10
454.662421244032
 20
170.8147941593695
 30
0.0
 11
660.6624212440324
 21
170.8147941593695
 31
0.0
  0
LINE
  5
E0
330
1B
100
AcDbEntity
  8
4
100
AcDbLine
 10
486.662421244032
 20
154.8147941593695
 30
0.0
 11
486.662421244032
 21
104.8147941593695
 31
0.0
  0
LINE
  5
E1
330
1B
100
AcDbEntity
  8
4
100
AcDbLine
 10
428.2624232440321
 20
189.8147941593695
 30
0.0
 11
454.662421244032
 21
189.8147941593695
 31
0.0
  0
LINE
  5
E2
330
1B
100
AcDbEntity
  8
CENTER
100
AcDbLine
 10
551.6624212440324
 20
94.81479415936951
 30
0.0
 11
551.6624212440324
 21
164.8147941593695
 31
0.0
  0
LINE
  5
E3
330
1B
100
AcDbEntity
  8
4
100
AcDbLine
 10
428.2624232440321
 20
369.8147941593693
 30
0.0
 11
454.6624212440329
 21
369.8147941593693
 31
0.0
  0
LINE
  5
E4
330
1B
100
AcDbEntity
  8
4
100
AcDbLine
 10
466.662421244032
 20
463.8147941593693
 30
0.0
 11
466.662421244032
 21
468.8147941593693
 31
0.0
  0
LINE
  5
E5
330
1B
100
AcDbEntity
  8
4
100
AcDbLine
 10
660.6624212440324
 20
1211.81677749907
 30
0.0
 11
660.6624212440324
 21
1263.83533249907
 31
0.0
  0
CIRCLE
  5
E6
330
1B
100
AcDbEntity
  8
4
100
AcDbCircle
 10
551.6624212440324
 20
1261.81677749907
 30
0.0
 40
13.0
  0
LINE
  5
E7
330
1B
100
AcDbEntity
  8
CENTER
100
AcDbLine
 10
551.6624212440324
 20
1228.740117499069
 30
0.0
 11
551.6624212440324
 21
1294.89343749907
 31
0.0
  0
LINE
  5
E8
330
1B
100
AcDbEntity
  8
CENTER
100
AcDbLine
 10
518.5857612440318
 20
1261.81677749907
 30
0.0
 11
584.7390812440321
 21
1261.81677749907
 31
0.0
  0
LINE
  5
E9
330
1B
100
AcDbEntity
  8
4
100
AcDbLine
 10
445.662421244032
 20
1761.81677749907
 30
0.0
 11
445.662421244032
 21
1941.81677749907
 31
0.0
  0
LINE
  5
EA
330
1B
100
AcDbEntity
  8
4
100
AcDbLine
 10
486.662421244032
 20
1414.81677749907
 30
0.0
 11
507.9448912440321
 21
1414.81677749907
 31
0.0
  0
LINE
  5
EB
330
1B
100
AcDbEntity
  8
4
100
AcDbLine
 10
482.5034862440325
 20
1761.81677749907
 30
0.0
 11
428.2917618820929
 21
1761.81677749907
 31
0.0
  0
LINE
  5
EC
330
1B
100
AcDbEntity
  8
4
100
AcDbLine
 10
622.8355162440325
 20
1941.81677749907
 30
0.0
 11
428.2903476626916
 21
1941.81677749907
 31
0.0
  0
LINE
  5
ED
330
1B
100
AcDbEntity
  8
4
100
AcDbLine
 10
486.662421244032
 20
1941.81677749907
 30
0.0
 11
486.662421244032
 21
2046.81677749907
 31
0.0
  0
LINE
  5
EE
330
1B
100
AcDbEntity
  8
4
100
AcDbLine
 10
660.6624212440324
 20
2046.81677749907
 30
0.0
 11
660.6624212440324
 21
1965.798222499069
 31
0.0
  0
LINE
  5
EF
330
1B
100
AcDbEntity
  8
CENTER
100
AcDbLine
 10
551.6624212440324
 20
2029.89343749907
 30
0.0
 11
551.6624212440324
 21
1963.740117499069
 31
0.0
  0
LINE
  5
F0
330
1B
100
AcDbEntity
  8
CENTER
100
AcDbLine
 10
518.5857612440318
 20
1996.81677749907
 30
0.0
 11
584.7390812440321
 21
1996.81677749907
 31
0.0
  0
CIRCLE
  5
F1
330
1B
100
AcDbEntity
  8
4
100
AcDbCircle
 10
551.6624212440324
 20
1996.81677749907
 30
0.0
 40
13.0
  0
LINE
  5
F2
330
1B
100
AcDbEntity
  8
4
100
AcDbLine
 10
1226.662421244032
 20
1211.81677749907
 30
0.0
 11
1226.662421244032
 21
1414.81677749907
 31
0.0
  0
LINE
  5
F3
330
1B
100
AcDbEntity
  8
CENTER
100
AcDbLine
 10
856.6624212440324
 20
1190.989627499069
 30
0.0
 11
856.6624212440324
 21
2038.64392749907
 31
0.0
  0
LINE
  5
F4
330
1B
100
AcDbEntity
  8
4
 62
     3
100
AcDbLine
 10
1853.707445946327
 20
468.8147941593693
 30
0.0
 11
2633.707445946327
 21
468.8147941593693
 31
0.0
  0
LINE
  5
F5
330
1B
100
AcDbEntity
  8
4
 62
     3
100
AcDbLine
 10
1841.707445946327
 20
463.8147941593693
 30
0.0
 11
2243.707445946327
 21
463.8147941593693
 31
0.0
  0
LINE
  5
F6
330
1B
100
AcDbEntity
  8
4
 62
     3
100
AcDbLine
 10
2595.707445946327
 20
170.8147941593695
 30
0.0
 11
1890.707445946327
 21
170.8147941593695
 31
0.0
  0
LINE
  5
F7
330
1B
100
AcDbEntity
  8
CENTER
100
AcDbLine
 10
2593.279564125104
 20
279.8147941593693
 30
0.0
 11
2368.13532776755
 21
279.8147941593693
 31
0.0
  0
LINE
  5
F8
330
1B
100
AcDbEntity
  8
4
 62
     3
100
AcDbLine
 10
1840.707445946327
 20
154.8147941593695
 30
0.0
 11
2675.707445946327
 21
154.8147941593695
 31
0.0
  0
LINE
  5
F9
330
1B
100
AcDbEntity
  8
CENTER
100
AcDbLine
 10
856.6624212440324
 20
135.1221523094041
 30
0.0
 11
856.6624212440324
 21
599.9174108144393
 31
0.0
  0
LINE
  5
FA
330
1B
100
AcDbEntity
  8
4
100
AcDbLine
 10
856.6624212440324
 20
463.8147941593693
 30
0.0
 11
1258.662421244032
 21
463.8147941593693
 31
0.0
  0
LINE
  5
FB
330
1B
100
AcDbEntity
  8
4
100
AcDbLine
 10
676.6624212440324
 20
170.8147941593695
 30
0.0
 11
1036.662421244032
 21
170.8147941593695
 31
0.0
  0
LINE
  5
FC
330
1B
100
AcDbEntity
  8
4
100
AcDbLine
 10
676.6624212440324
 20
264.8147941593693
 30
0.0
 11
676.6624212440324
 21
104.8147941593695
 31
0.0
  0
LINE
  5
FD
330
1B
100
AcDbEntity
  8
4
100
AcDbLine
 10
1267.662421244032
 20
369.8147941593693
 30
0.0
 11
1267.662421244032
 21
189.8147941593695
 31
0.0
  0
LINE
  5
FE
330
1B
100
AcDbEntity
  8
4
100
AcDbLine
 10
1052.662421244032
 20
154.8147941593695
 30
0.0
 11
1052.662421244032
 21
264.8147941593693
 31
0.0
  0
LINE
  5
FF
330
1B
100
AcDbEntity
  8
4
100
AcDbLine
 10
1036.662421244032
 20
264.8147941593693
 30
0.0
 11
1036.662421244032
 21
104.8147941593695
 31
0.0
  0
LINE
  5
100
330
1B
100
AcDbEntity
  8
4
100
AcDbLine
 10
1052.662421244032
 20
170.8147941593695
 30
0.0
 11
1258.662421244032
 21
170.8147941593695
 31
0.0
  0
LINE
  5
101
330
1B
100
AcDbEntity
  8
4
100
AcDbLine
 10
1036.662421244032
 20
104.8147941593695
 30
0.0
 11
1226.662421244032
 21
104.8147941593695
 31
0.0
  0
LINE
  5
102
330
1B
100
AcDbEntity
  8
CENTER
100
AcDbLine
 10
1161.662421244032
 20
94.81479415936951
 30
0.0
 11
1161.662421244032
 21
164.8147941593695
 31
0.0
  0
LINE
  5
103
330
1B
100
AcDbEntity
  8
4
100
AcDbLine
 10
1226.662421244032
 20
154.8147941593695
 30
0.0
 11
1226.662421244032
 21
104.8147941593695
 31
0.0
  0
LINE
  5
104
330
1B
100
AcDbEntity
  8
4
100
AcDbLine
 10
1285.062419244031
 20
189.8147941593695
 30
0.0
 11
1258.662421244032
 21
189.8147941593695
 31
0.0
  0
LINE
  5
105
330
1B
100
AcDbEntity
  8
4
100
AcDbLine
 10
1052.662421244032
 20
264.8147941593693
 30
0.0
 11
1036.662421244032
 21
264.8147941593693
 31
0.0
  0
LINE
  5
106
330
1B
100
AcDbEntity
  8
4
100
AcDbLine
 10
1285.063833456548
 20
369.8147941593697
 30
0.0
 11
1258.662421244031
 21
369.8147941593693
 31
0.0
  0
LINE
  5
107
330
1B
100
AcDbEntity
  8
4
100
AcDbLine
 10
1246.662421244032
 20
463.8147941593693
 30
0.0
 11
1246.662421244032
 21
468.8147941593693
 31
0.0
  0
LINE
  5
108
330
1B
100
AcDbEntity
  8
4
100
AcDbLine
 10
676.6624212440324
 20
1211.81677749907
 30
0.0
 11
676.6624212440324
 21
1255.367317499069
 31
0.0
  0
LINE
  5
109
330
1B
100
AcDbEntity
  8
CENTER
100
AcDbLine
 10
1194.739081244032
 20
1261.81677749907
 30
0.0
 11
1128.585761244032
 21
1261.81677749907
 31
0.0
  0
LINE
  5
10A
330
1B
100
AcDbEntity
  8
4
100
AcDbLine
 10
1226.662421244032
 20
1211.81677749907
 30
0.0
 11
1036.662421244032
 21
1211.81677749907
 31
0.0
  0
CIRCLE
  5
10B
330
1B
100
AcDbEntity
  8
4
100
AcDbCircle
 10
1161.662421244032
 20
1261.81677749907
 30
0.0
 40
13.0
  0
LINE
  5
10C
330
1B
100
AcDbEntity
  8
CENTER
100
AcDbLine
 10
1161.662421244032
 20
1228.740117499069
 30
0.0
 11
1161.662421244032
 21
1294.89343749907
 31
0.0
  0
LINE
  5
10D
330
1B
100
AcDbEntity
  8
4
100
AcDbLine
 10
1052.662421244032
 20
1211.81677749907
 30
0.0
 11
1052.662421244032
 21
1263.83533249907
 31
0.0
  0
LINE
  5
10E
330
1B
100
AcDbEntity
  8
4
100
AcDbLine
 10
1036.662421244032
 20
1211.81677749907
 30
0.0
 11
1036.662421244032
 21
1255.367317499069
 31
0.0
  0
LINE
  5
10F
330
1B
100
AcDbEntity
  8
4
100
AcDbLine
 10
1052.662421244032
 20
1261.81677749907
 30
0.0
 11
1049.003241244032
 21
1261.81677749907
 31
0.0
  0
LINE
  5
110
330
1B
100
AcDbEntity
  8
4
 62
     3
100
AcDbLine
 10
1840.707445946327
 20
154.8147941593695
 30
0.0
 11
1890.707445946327
 21
264.8147941593693
 31
0.0
  0
LINE
  5
111
330
1B
100
AcDbEntity
  8
4
 62
     3
100
AcDbLine
 10
2043.707445946327
 20
104.8147941593695
 30
0.0
 11
1840.707445946327
 21
104.8147941593695
 31
0.0
  0
LINE
  5
112
330
1B
100
AcDbEntity
  8
4
 62
     3
100
AcDbLine
 10
1841.707445946327
 20
154.8147941593695
 30
0.0
 11
1841.707445946327
 21
463.8147941593693
 31
0.0
  0
LINE
  5
113
330
1B
100
AcDbEntity
  8
4
 62
     3
100
AcDbLine
 10
1840.707445946327
 20
154.8147941593695
 30
0.0
 11
1840.707445946327
 21
104.8147941593695
 31
0.0
  0
LINE
  5
114
330
1B
100
AcDbEntity
  8
4
 62
     3
100
AcDbLine
 10
1841.707445946327
 20
170.8147941593695
 30
0.0
 11
1847.980150946328
 21
170.8147941593695
 31
0.0
  0
LINE
  5
115
330
1B
100
AcDbEntity
  8
4
 62
     3
100
AcDbLine
 10
1890.707445946327
 20
154.8147941593695
 30
0.0
 11
1890.707445946327
 21
264.8147941593693
 31
0.0
  0
LINE
  5
116
330
1B
100
AcDbEntity
  8
CENTER
100
AcDbLine
 10
1890.707445946327
 20
94.81479415936951
 30
0.0
 11
1890.707445946327
 21
164.8147941593695
 31
0.0
  0
LINE
  5
117
330
1B
100
AcDbEntity
  8
4
 62
     3
100
AcDbLine
 10
2043.707445946327
 20
154.8147941593695
 30
0.0
 11
2043.707445946327
 21
104.8147941593695
 31
0.0
  0
LINE
  5
118
330
1B
100
AcDbEntity
  8
4
 62
     3
100
AcDbLine
 10
1853.707445946327
 20
463.8147941593693
 30
0.0
 11
1853.707445946327
 21
468.8147941593693
 31
0.0
  0
LINE
  5
119
330
1B
100
AcDbEntity
  8
4
 62
     3
100
AcDbLine
 10
2645.707445946327
 20
463.8147941593693
 30
0.0
 11
2243.707445946327
 21
463.8147941593693
 31
0.0
  0
LINE
  5
11A
330
1B
100
AcDbEntity
  8
4
 62
     3
100
AcDbLine
 10
2570.707445946327
 20
369.8147941593693
 30
0.0
 11
2390.707445946327
 21
369.8147941593693
 31
0.0
  0
LINE
  5
11B
330
1B
100
AcDbEntity
  8
4
 62
     3
100
AcDbLine
 10
2570.707445946327
 20
189.8147941593695
 30
0.0
 11
2390.707445946327
 21
189.8147941593695
 31
0.0
  0
LINE
  5
11C
330
1B
100
AcDbEntity
  8
4
 62
     3
100
AcDbLine
 10
2675.707445946327
 20
104.8147941593695
 30
0.0
 11
2472.707445946327
 21
104.8147941593695
 31
0.0
  0
LINE
  5
11D
330
1B
100
AcDbEntity
  8
CENTER
100
AcDbLine
 10
2480.707445946327
 20
167.2426759805926
 30
0.0
 11
2480.707445946327
 21
392.386912338146
 31
0.0
  0
LINE
  5
11E
330
1B
100
AcDbEntity
  8
4
 62
     3
100
AcDbLine
 10
2390.707445946327
 20
189.8147941593695
 30
0.0
 11
2390.707445946327
 21
369.8147941593693
 31
0.0
  0
LINE
  5
11F
330
1B
100
AcDbEntity
  8
CENTER
100
AcDbLine
 10
2243.707445946327
 20
140.818687359782
 30
0.0
 11
2243.707445946327
 21
526.6163959283854
 31
0.0
  0
LINE
  5
120
330
1B
100
AcDbEntity
  8
CENTER
100
AcDbLine
 10
2062.707445946327
 20
475.0111356718248
 30
0.0
 11
2062.707445946327
 21
518.9702005971162
 31
0.0
  0
LINE
  5
121
330
1B
100
AcDbEntity
  8
4
 62
     3
100
AcDbLine
 10
2472.707445946327
 20
154.8147941593695
 30
0.0
 11
2472.707445946327
 21
104.8147941593695
 31
0.0
  0
LINE
  5
122
330
1B
100
AcDbEntity
  8
4
 62
     3
100
AcDbLine
 10
2645.707445946327
 20
196.0647941593695
 30
0.0
 11
2645.707445946327
 21
402.8147941593693
 31
0.0
  0
LINE
  5
123
330
1B
100
AcDbEntity
  8
4
 62
     3
100
AcDbLine
 10
2595.707445946327
 20
264.8147941593693
 30
0.0
 11
2595.707445946327
 21
154.8147941593695
 31
0.0
  0
LINE
  5
124
330
1B
100
AcDbEntity
  8
4
 62
     3
100
AcDbLine
 10
2570.707445946327
 20
369.8147941593693
 30
0.0
 11
2570.707445946327
 21
189.8147941593695
 31
0.0
  0
LINE
  5
125
330
1B
100
AcDbEntity
  8
4
 62
     3
100
AcDbLine
 10
2595.707445946327
 20
264.8147941593693
 30
0.0
 11
2675.707445946327
 21
154.8147941593695
 31
0.0
  0
LINE
  5
126
330
1B
100
AcDbEntity
  8
4
 62
     3
100
AcDbLine
 10
2675.707445946327
 20
154.8147941593695
 30
0.0
 11
2675.707445946327
 21
104.8147941593695
 31
0.0
  0
LINE
  5
127
330
1B
100
AcDbEntity
  8
CENTER
100
AcDbLine
 10
2625.707445946327
 20
164.8147941593695
 30
0.0
 11
2625.707445946327
 21
94.81479415936951
 31
0.0
  0
LINE
  5
128
330
1B
100
AcDbEntity
  8
4
 62
     3
100
AcDbLine
 10
2647.707445946327
 20
193.3147941593695
 30
0.0
 11
2647.707445946327
 21
197.3147941593695
 31
0.0
  0
LINE
  5
129
330
1B
100
AcDbEntity
  8
4
 62
     3
100
AcDbLine
 10
2645.707445946327
 20
197.3147941593695
 30
0.0
 11
2647.707445946327
 21
197.3147941593695
 31
0.0
  0
LINE
  5
12A
330
1B
100
AcDbEntity
  8
4
 62
     3
100
AcDbLine
 10
2647.707445946327
 20
382.8147941593693
 30
0.0
 11
2647.707445946327
 21
422.8147941593693
 31
0.0
  0
LINE
  5
12B
330
1B
100
AcDbEntity
  8
4
 62
     3
100
AcDbLine
 10
2645.707445946327
 20
382.8147941593693
 30
0.0
 11
2647.707445946327
 21
382.8147941593693
 31
0.0
  0
LINE
  5
12C
330
1B
100
AcDbEntity
  8
CENTER
100
AcDbLine
 10
2660.676928395041
 20
402.8147941593693
 30
0.0
 11
2625.880295946328
 21
402.8147941593693
 31
0.0
  0
LINE
  5
12D
330
1B
100
AcDbEntity
  8
4
 62
     3
100
AcDbLine
 10
2645.707445946327
 20
402.8147941593693
 30
0.0
 11
2645.707445946327
 21
463.8147941593693
 31
0.0
  0
LINE
  5
12E
330
1B
100
AcDbEntity
  8
4
 62
     3
100
AcDbLine
 10
2645.707445946327
 20
422.8147941593693
 30
0.0
 11
2647.707445946327
 21
422.8147941593693
 31
0.0
  0
LINE
  5
12F
330
1B
100
AcDbEntity
  8
4
 62
     3
100
AcDbLine
 10
2633.707445946327
 20
463.8147941593693
 30
0.0
 11
2633.707445946327
 21
468.8147941593693
 31
0.0
  0
LINE
  5
130
330
1B
100
AcDbEntity
  8
4
100
AcDbLine
 10
1267.662421244032
 20
1941.81677749907
 30
0.0
 11
1267.662421244032
 21
1761.81677749907
 31
0.0
  0
LINE
  5
131
330
1B
100
AcDbEntity
  8
4
100
AcDbLine
 10
1226.662421244032
 20
1414.81677749907
 30
0.0
 11
1205.379951244032
 21
1414.81677749907
 31
0.0
  0
LINE
  5
132
330
1B
100
AcDbEntity
  8
4
100
AcDbLine
 10
1230.821356244032
 20
1761.81677749907
 30
0.0
 11
1285.271859081623
 21
1761.81677749907
 31
0.0
  0
LINE
  5
133
330
1B
100
AcDbEntity
  8
4
100
AcDbLine
 10
676.6624212440324
 20
1974.26624249907
 30
0.0
 11
676.6624212440324
 21
2046.81677749907
 31
0.0
  0
LINE
  5
134
330
1B
100
AcDbEntity
  8
CENTER
100
AcDbLine
 10
1194.739081244032
 20
1996.81677749907
 30
0.0
 11
1128.585761244032
 21
1996.81677749907
 31
0.0
  0
LINE
  5
135
330
1B
100
AcDbEntity
  8
4
100
AcDbLine
 10
1090.489326244032
 20
1941.81677749907
 30
0.0
 11
1285.062419244031
 21
1941.81677749907
 31
0.0
  0
LINE
  5
136
330
1B
100
AcDbEntity
  8
4
100
AcDbLine
 10
1226.662421244032
 20
2046.81677749907
 30
0.0
 11
1036.662421244032
 21
2046.81677749907
 31
0.0
  0
LINE
  5
137
330
1B
100
AcDbEntity
  8
CENTER
100
AcDbLine
 10
1161.662421244032
 20
2029.89343749907
 30
0.0
 11
1161.662421244032
 21
1963.740117499069
 31
0.0
  0
LINE
  5
138
330
1B
100
AcDbEntity
  8
4
100
AcDbLine
 10
1052.662421244032
 20
2046.81677749907
 30
0.0
 11
1052.662421244032
 21
1965.798222499069
 31
0.0
  0
LINE
  5
139
330
1B
100
AcDbEntity
  8
4
100
AcDbLine
 10
1036.662421244032
 20
1974.26624249907
 30
0.0
 11
1036.662421244032
 21
2046.81677749907
 31
0.0
  0
LINE
  5
13A
330
1B
100
AcDbEntity
  8
4
100
AcDbLine
 10
1052.662421244032
 20
1966.81677749907
 30
0.0
 11
1050.827216244033
 21
1966.81677749907
 31
0.0
  0
CIRCLE
  5
13B
330
1B
100
AcDbEntity
  8
4
100
AcDbCircle
 10
1161.662421244032
 20
1996.81677749907
 30
0.0
 40
13.0
  0
LINE
  5
13C
330
1B
100
AcDbEntity
  8
4
100
AcDbLine
 10
1226.662421244032
 20
1941.81677749907
 30
0.0
 11
1226.662421244032
 21
2046.81677749907
 31
0.0
  0
LINE
  5
13D
330
1B
100
AcDbEntity
  8
4
100
AcDbLine
 10
445.662421244032
 20
189.8147941593695
 30
0.0
 11
445.662421244032
 21
369.8147941593693
 31
0.0
  0
LINE
  5
13E
330
1B
100
AcDbEntity
  8
4
100
AcDbLine
 10
454.662421244032
 20
154.8147941593695
 30
0.0
 11
454.662421244032
 21
463.8147941593693
 31
0.0
  0
LINE
  5
13F
330
1B
100
AcDbEntity
  8
4
100
AcDbLine
 10
1258.662421244032
 20
154.8147941593695
 30
0.0
 11
1258.662421244032
 21
463.8147941593693
 31
0.0
  0
LINE
  5
140
330
1B
100
AcDbEntity
  8
L-CENTER
100
AcDbLine
 10
2526.947962605694
 20
326.0553169163977
 30
0.0
 11
2558.210613595085
 21
357.3179605095088
 31
0.0
  0
LINE
  5
141
330
1B
100
AcDbEntity
  8
4
100
AcDbLine
 10
2532.781329129256
 20
351.4845976840861
 30
0.0
 11
2529.195027240584
 21
338.1003368242814
 31
0.0
  0
CIRCLE
  5
142
330
1B
100
AcDbEntity
  8
4
100
AcDbCircle
 10
2542.57928810039
 20
341.6866387129535
 30
0.0
 40
12.0
  0
LINE
  5
143
330
1B
100
AcDbEntity
  8
4
100
AcDbLine
 10
2555.963548960195
 20
345.2729406016256
 30
0.0
 11
2546.165589989062
 21
355.0708995727582
 31
0.0
  0
LINE
  5
144
330
1B
100
AcDbEntity
  8
4
100
AcDbLine
 10
2538.992986211718
 20
328.3023778531483
 30
0.0
 11
2552.377247071523
 21
331.8886797418204
 31
0.0
  0
LINE
  5
145
330
1B
100
AcDbEntity
  8
4
100
AcDbLine
 10
2529.195027240584
 20
338.1003368242814
 30
0.0
 11
2538.992986211718
 21
328.3023778531483
 31
0.0
  0
LINE
  5
146
330
1B
100
AcDbEntity
  8
4
100
AcDbLine
 10
2552.377247071523
 20
331.8886797418204
 30
0.0
 11
2555.963548960195
 21
345.2729406016256
 31
0.0
  0
LINE
  5
147
330
1B
100
AcDbEntity
  8
4
100
AcDbLine
 10
2546.165589989062
 20
355.0708995727582
 30
0.0
 11
2532.781329129256
 21
351.4845976840861
 31
0.0
  0
CIRCLE
  5
148
330
1B
100
AcDbEntity
  8
L-CENTER
100
AcDbCircle
 10
2480.707445946327
 20
279.8147941593693
 30
0.0
 40
87.5
  0
CIRCLE
  5
149
330
1B
100
AcDbEntity
  8
4
100
AcDbCircle
 10
2480.707445946327
 20
279.8147941593693
 30
0.0
 40
44.999997
  0
ARC
  5
14A
330
1B
100
AcDbEntity
  8
4
100
AcDbCircle
 10
2480.707445946327
 20
279.8147941593693
 30
0.0
 40
29.000034
100
AcDbArc
 50
104.988214999998
 51
75.01178499999833
  0
LINE
  5
14B
330
1B
100
AcDbEntity
  8
4
100
AcDbLine
 10
2488.207441946327
 20
313.8147951593696
 30
0.0
 11
2473.207442946328
 21
313.8147951593696
 31
0.0
  0
LINE
  5
14C
330
1B
100
AcDbEntity
  8
4
100
AcDbLine
 10
2488.207441946327
 20
303.8147981593697
 30
0.0
 11
2473.207442946328
 21
303.8147981593697
 31
0.0
  0
LINE
  5
14D
330
1B
100
AcDbEntity
  8
4
100
AcDbLine
 10
2488.207441946327
 20
303.8147981593697
 30
0.0
 11
2488.207441946327
 21
313.8147951593696
 31
0.0
  0
LINE
  5
14E
330
1B
100
AcDbEntity
  8
4
100
AcDbLine
 10
2473.207442946328
 20
313.8147951593696
 30
0.0
 11
2473.207442946328
 21
303.8147981593697
 31
0.0
  0
LINE
  5
14F
330
1B
100
AcDbEntity
  8
L-CENTER
100
AcDbLine
 10
2526.947965654526
 20
233.5742744511726
 30
0.0
 11
2558.210612945777
 21
202.311627159921
 31
0.0
  0
LINE
  5
150
330
1B
100
AcDbEntity
  8
4
100
AcDbLine
 10
2552.377248271284
 20
227.7409097766795
 30
0.0
 11
2538.992987411478
 21
231.3272116653516
 31
0.0
  0
LINE
  5
151
330
1B
100
AcDbEntity
  8
4
100
AcDbLine
 10
2546.165591188822
 20
204.5586899457417
 30
0.0
 11
2555.963550159956
 21
214.3566489168752
 31
0.0
  0
CIRCLE
  5
152
330
1B
100
AcDbEntity
  8
4
100
AcDbCircle
 10
2542.57928930015
 20
217.9429508055468
 30
0.0
 40
12.0
  0
LINE
  5
153
330
1B
100
AcDbEntity
  8
4
100
AcDbLine
 10
2538.992987411478
 20
231.3272116653516
 30
0.0
 11
2529.195028440346
 21
221.5292526942189
 31
0.0
  0
LINE
  5
154
330
1B
100
AcDbEntity
  8
4
100
AcDbLine
 10
2532.781330329018
 20
208.1449918344147
 30
0.0
 11
2546.165591188822
 21
204.5586899457417
 31
0.0
  0
LINE
  5
155
330
1B
100
AcDbEntity
  8
4
100
AcDbLine
 10
2529.195028440346
 20
221.5292526942189
 30
0.0
 11
2532.781330329018
 21
208.1449918344147
 31
0.0
  0
LINE
  5
156
330
1B
100
AcDbEntity
  8
4
100
AcDbLine
 10
2555.963550159956
 20
214.3566489168752
 30
0.0
 11
2552.377248271284
 21
227.7409097766795
 31
0.0
  0
LINE
  5
157
330
1B
100
AcDbEntity
  8
4
100
AcDbLine
 10
2415.249297203832
 20
204.5586934457417
 30
0.0
 11
2428.633558063638
 21
208.1449953344138
 31
0.0
  0
CIRCLE
  5
158
330
1B
100
AcDbEntity
  8
4
100
AcDbCircle
 10
2418.835599092504
 20
217.9429543055467
 30
0.0
 40
12.0
  0
LINE
  5
159
330
1B
100
AcDbEntity
  8
4
100
AcDbLine
 10
2432.21985995231
 20
221.529256194219
 30
0.0
 11
2422.421900981176
 21
231.3272151653514
 31
0.0
  0
LINE
  5
15A
330
1B
100
AcDbEntity
  8
4
100
AcDbLine
 10
2409.037640121372
 20
227.7409132766793
 30
0.0
 11
2405.4513382327
 21
214.3566524168746
 31
0.0
  0
LINE
  5
15B
330
1B
100
AcDbEntity
  8
4
100
AcDbLine
 10
2405.4513382327
 20
214.3566524168746
 30
0.0
 11
2415.249297203832
 21
204.5586934457417
 31
0.0
  0
LINE
  5
15C
330
1B
100
AcDbEntity
  8
4
100
AcDbLine
 10
2422.421900981176
 20
231.3272151653514
 30
0.0
 11
2409.037640121372
 21
227.7409132766793
 31
0.0
  0
LINE
  5
15D
330
1B
100
AcDbEntity
  8
4
100
AcDbLine
 10
2428.633558063638
 20
208.1449953344138
 30
0.0
 11
2432.21985995231
 21
221.529256194219
 31
0.0
  0
LINE
  5
15E
330
1B
100
AcDbEntity
  8
L-CENTER
100
AcDbLine
 10
2403.20427544688
 20
202.3116306599206
 30
0.0
 11
2434.466922738131
 21
233.5742779511725
 31
0.0
  0
ARC
  5
15F
330
1B
100
AcDbEntity
  8
4
100
AcDbCircle
 10
2790.707443946328
 20
279.8147941593693
 30
0.0
 40
399.999985
100
AcDbArc
 50
168.7072470000001
 51
191.2931499999999
  0
ARC
  5
160
330
1B
100
AcDbEntity
  8
4
100
AcDbCircle
 10
2480.707445946327
 20
589.8145541593694
 30
0.0
 40
399.999943
100
AcDbArc
 50
258.7073500000001
 51
281.2935410000001
  0
ARC
  5
161
330
1B
100
AcDbEntity
  8
4
100
AcDbCircle
 10
2403.355394946327
 20
202.4625051593694
 30
0.0
 40
4.999910999999999
100
AcDbArc
 50
191.2945689999995
 51
258.7054310000055
  0
ARC
  5
162
330
1B
100
AcDbEntity
  8
4
100
AcDbCircle
 10
2558.059496946329
 20
202.4625051593694
 30
0.0
 40
4.999910999999999
100
AcDbArc
 50
281.2945689999945
 51
348.7054310000005
  0
ARC
  5
163
330
1B
100
AcDbEntity
  8
4
100
AcDbCircle
 10
2170.707447946328
 20
279.8147941593693
 30
0.0
 40
399.999894
100
AcDbArc
 50
348.7075629999999
 51
11.29315000000006
  0
ARC
  5
164
330
1B
100
AcDbEntity
  8
4
100
AcDbCircle
 10
2558.059496946329
 20
357.1670901593693
 30
0.0
 40
4.999910999999999
100
AcDbArc
 50
11.2945690000021
 51
78.70543100000558
  0
ARC
  5
165
330
1B
100
AcDbEntity
  8
4
100
AcDbCircle
 10
2480.707445946327
 20
-30.18495884063032
 30
0.0
 40
400.000013
100
AcDbArc
 50
78.70689099999996
 51
101.2931849999999
  0
ARC
  5
166
330
1B
100
AcDbEntity
  8
4
100
AcDbCircle
 10
2403.355394946327
 20
357.1670901593693
 30
0.0
 40
4.999910999999999
100
AcDbArc
 50
101.2945689999944
 51
168.7054309999979
  0
LINE
  5
167
330
1B
100
AcDbEntity
  8
L-CENTER
100
AcDbLine
 10
2403.226986521956
 20
357.2952535837412
 30
0.0
 11
2434.453374304124
 21
326.0688658015729
 31
0.0
  0
LINE
  5
168
330
1B
100
AcDbEntity
  8
4
100
AcDbLine
 10
2428.633561563638
 20
351.4845964843253
 30
0.0
 11
2415.249300703833
 21
355.0708983729974
 31
0.0
  0
LINE
  5
169
330
1B
100
AcDbEntity
  8
4
100
AcDbLine
 10
2422.421904481178
 20
328.302376653387
 30
0.0
 11
2432.21986345231
 21
338.1003356245205
 31
0.0
  0
CIRCLE
  5
16A
330
1B
100
AcDbEntity
  8
4
100
AcDbCircle
 10
2418.835602592504
 20
341.6866375131926
 30
0.0
 40
12.0
  0
LINE
  5
16B
330
1B
100
AcDbEntity
  8
4
100
AcDbLine
 10
2415.249300703833
 20
355.0708983729974
 30
0.0
 11
2405.451341732699
 21
345.2729394018647
 31
0.0
  0
LINE
  5
16C
330
1B
100
AcDbEntity
  8
4
100
AcDbLine
 10
2409.037643621371
 20
331.88867854206
 30
0.0
 11
2422.421904481178
 21
328.302376653387
 31
0.0
  0
LINE
  5
16D
330
1B
100
AcDbEntity
  8
4
100
AcDbLine
 10
2405.451341732699
 20
345.2729394018647
 30
0.0
 11
2409.037643621371
 21
331.88867854206
 31
0.0
  0
LINE
  5
16E
330
1B
100
AcDbEntity
  8
4
100
AcDbLine
 10
2432.21986345231
 20
338.1003356245205
 30
0.0
 11
2428.633561563638
 21
351.4845964843253
 31
0.0
  0
LINE
  5
16F
330
1B
100
AcDbEntity
  8
4
100
AcDbLine
 10
2647.707445946327
 20
385.8147971593694
 30
0.0
 11
2649.207440946327
 21
385.8147971593694
 31
0.0
  0
LINE
  5
170
330
1B
100
AcDbEntity
  8
4
100
AcDbLine
 10
2649.207440946327
 20
384.8147981593697
 30
0.0
 11
2656.207440946327
 21
384.8147981593697
 31
0.0
  0
LINE
  5
171
330
1B
100
AcDbEntity
  8
4
100
AcDbLine
 10
2651.207445946327
 20
393.8147961593695
 30
0.0
 11
2656.207440946327
 21
393.8147961593695
 31
0.0
  0
LINE
  5
172
330
1B
100
AcDbEntity
  8
4
100
AcDbLine
 10
2649.207440946327
 20
419.8147981593697
 30
0.0
 11
2647.707445946327
 21
419.8147981593697
 31
0.0
  0
LINE
  5
173
330
1B
100
AcDbEntity
  8
4
100
AcDbLine
 10
2649.207440946327
 20
420.8147971593694
 30
0.0
 11
2656.207440946327
 21
420.8147971593694
 31
0.0
  0
LINE
  5
174
330
1B
100
AcDbEntity
  8
4
100
AcDbLine
 10
2651.207445946327
 20
411.8147991593696
 30
0.0
 11
2656.207440946327
 21
411.8147991593696
 31
0.0
  0
LINE
  5
175
330
1B
100
AcDbEntity
  8
4
100
AcDbLine
 10
2651.207445946327
 20
420.8147971593694
 30
0.0
 11
2651.207445946327
 21
384.8147981593697
 31
0.0
  0
LINE
  5
176
330
1B
100
AcDbEntity
  8
4
100
AcDbLine
 10
2649.207440946327
 20
420.8147971593694
 30
0.0
 11
2649.207440946327
 21
384.8147981593697
 31
0.0
  0
LINE
  5
177
330
1B
100
AcDbEntity
  8
4
100
AcDbLine
 10
2647.707445946327
 20
419.8147981593697
 30
0.0
 11
2647.707445946327
 21
385.8147971593694
 31
0.0
  0
LINE
  5
178
330
1B
100
AcDbEntity
  8
4
100
AcDbLine
 10
2656.207440946327
 20
420.8147971593694
 30
0.0
 11
2656.207440946327
 21
384.8147981593697
 31
0.0
  0
LINE
  5
179
330
1B
100
AcDbEntity
  8
4
100
AcDbLine
 10
1300.662423244031
 20
250.8147951593696
 30
0.0
 11
1418.662424244032
 21
250.8147951593696
 31
0.0
  0
LINE
  5
17A
330
1B
100
AcDbEntity
  8
4
100
AcDbLine
 10
1300.662423244031
 20
308.8147931593694
 30
0.0
 11
1418.662424244032
 21
308.8147931593694
 31
0.0
  0
LINE
  5
17B
330
1B
100
AcDbEntity
  8
4
100
AcDbLine
 10
1310.662420244032
 20
313.8147951593696
 30
0.0
 11
1420.662422244031
 21
313.8147951593696
 31
0.0
  0
LINE
  5
17C
330
1B
100
AcDbEntity
  8
4
100
AcDbLine
 10
1300.062425244032
 20
331.2943326677791
 30
0.0
 11
1300.062425244032
 21
352.0789423586061
 31
0.0
  0
ARC
  5
17D
330
1B
100
AcDbEntity
  8
4
100
AcDbCircle
 10
1281.741251670298
 20
341.6866375131926
 30
0.0
 40
18.32117357373317
100
AcDbArc
 50
337.7806898294696
 51
22.21931017052972
  0
LINE
  5
17E
330
1B
100
AcDbEntity
  8
4
100
AcDbLine
 10
1286.062425244032
 20
355.5430439737443
 30
0.0
 11
1286.062425244032
 21
327.8302310526419
 31
0.0
  0
LINE
  5
17F
330
1B
100
AcDbEntity
  8
4
100
AcDbLine
 10
1290.062425244032
 20
355.5430439737443
 30
0.0
 11
1290.062425244032
 21
327.8302310526419
 31
0.0
  0
LINE
  5
180
330
1B
100
AcDbEntity
  8
4
100
AcDbLine
 10
1286.062425244032
 20
190.8147991593696
 30
0.0
 11
1286.062425244032
 21
368.8147961593695
 31
0.0
  0
LINE
  5
181
330
1B
100
AcDbEntity
  8
4
100
AcDbLine
 10
1287.062424244031
 20
324.8147981593697
 30
0.0
 11
1287.062424244031
 21
234.8147971593694
 31
0.0
  0
LINE
  5
182
330
1B
100
AcDbEntity
  8
4
100
AcDbLine
 10
1287.062424244031
 20
234.8147901593695
 30
0.0
 11
1286.062425244032
 21
234.8147901593695
 31
0.0
  0
LINE
  5
183
330
1B
100
AcDbEntity
  8
4
100
AcDbLine
 10
1286.062425244033
 20
231.7993572660969
 30
0.0
 11
1298.701953339714
 21
231.7993572660971
 31
0.0
  0
LINE
  5
184
330
1B
100
AcDbEntity
  8
4
100
AcDbLine
 10
1298.701953339714
 20
204.0865443449948
 30
0.0
 11
1286.062425244033
 21
204.0865443449943
 31
0.0
  0
LINE
  5
185
330
1B
100
AcDbEntity
  8
4
100
AcDbLine
 10
1286.062425244033
 20
204.0865443449943
 30
0.0
 11
1286.062425244033
 21
231.7993572660969
 31
0.0
  0
ARC
  5
186
330
1B
100
AcDbEntity
  8
4
100
AcDbCircle
 10
1285.062419244031
 20
190.8147991593696
 30
0.0
 40
0.9999989999999999
100
AcDbArc
 50
270.0
 51
0.0
  0
LINE
  5
187
330
1B
100
AcDbEntity
  8
4
100
AcDbLine
 10
1290.062425244033
 20
204.0865443449943
 30
0.0
 11
1290.062425244033
 21
231.7993572660971
 31
0.0
  0
ARC
  5
188
330
1B
100
AcDbEntity
  8
4
100
AcDbCircle
 10
1294.971954886479
 20
228.3352556509599
 30
0.0
 40
5.090470357553002
100
AcDbArc
 50
317.1167115949158
 51
42.88328840508593
  0
LINE
  5
189
330
1B
100
AcDbEntity
  8
4
100
AcDbLine
 10
1300.062425244033
 20
228.3352556509599
 30
0.0
 11
1300.062425244033
 21
207.5506459601329
 31
0.0
  0
LINE
  5
18A
330
1B
100
AcDbEntity
  8
4
100
AcDbLine
 10
1298.701953339714
 20
224.8711540358217
 30
0.0
 11
1290.062425244033
 21
224.8711540358217
 31
0.0
  0
LINE
  5
18B
330
1B
100
AcDbEntity
  8
4
100
AcDbLine
 10
1298.701953339714
 20
211.014747575271
 30
0.0
 11
1290.062425244033
 21
211.014747575271
 31
0.0
  0
ARC
  5
18C
330
1B
100
AcDbEntity
  8
4
100
AcDbCircle
 10
1294.971954886479
 20
207.5506459601329
 30
0.0
 40
5.090470357553012
100
AcDbArc
 50
317.1167115949158
 51
42.88328840508593
  0
ARC
  5
18D
330
1B
100
AcDbEntity
  8
4
100
AcDbCircle
 10
1281.7412516703
 20
217.9429508055459
 30
0.0
 40
18.32117357373317
100
AcDbArc
 50
337.7806898294703
 51
22.2193101705313
  0
LINE
  5
18E
330
1B
100
AcDbEntity
  8
4
100
AcDbLine
 10
1300.662423244031
 20
247.3147951593696
 30
0.0
 11
1300.662423244031
 21
312.3147931593694
 31
0.0
  0
LINE
  5
18F
330
1B
100
AcDbEntity
  8
4
100
AcDbLine
 10
1287.062424244031
 20
247.3147951593696
 30
0.0
 11
1300.662423244031
 21
247.3147951593696
 31
0.0
  0
LINE
  5
190
330
1B
100
AcDbEntity
  8
4
100
AcDbLine
 10
1286.062425244032
 20
327.8302310526419
 30
0.0
 11
1298.701953339712
 21
327.8302310526419
 31
0.0
  0
LINE
  5
191
330
1B
100
AcDbEntity
  8
4
100
AcDbLine
 10
1287.062424244031
 20
324.8147981593697
 30
0.0
 11
1286.062425244032
 21
324.8147981593697
 31
0.0
  0
ARC
  5
192
330
1B
100
AcDbEntity
  8
4
100
AcDbCircle
 10
1294.971954886479
 20
331.2943326677791
 30
0.0
 40
5.090470357553002
100
AcDbArc
 50
317.1167115949122
 51
42.8832884050878
  0
LINE
  5
193
330
1B
100
AcDbEntity
  8
4
100
AcDbLine
 10
1298.701953339712
 20
334.7584342829173
 30
0.0
 11
1290.062425244032
 21
334.7584342829173
 31
0.0
  0
LINE
  5
194
330
1B
100
AcDbEntity
  8
4
100
AcDbLine
 10
1287.062424244031
 20
312.3147931593694
 30
0.0
 11
1300.662423244031
 21
312.3147931593694
 31
0.0
  0
LINE
  5
195
330
1B
100
AcDbEntity
  8
4
100
AcDbLine
 10
1310.662420244032
 20
313.8147951593696
 30
0.0
 11
1310.662420244032
 21
308.8147931593694
 31
0.0
  0
LINE
  5
196
330
1B
100
AcDbEntity
  8
4
100
AcDbLine
 10
1298.701953339712
 20
355.5430439737443
 30
0.0
 11
1286.062425244032
 21
355.5430439737443
 31
0.0
  0
ARC
  5
197
330
1B
100
AcDbEntity
  8
4
100
AcDbCircle
 10
1285.062419244031
 20
368.8147961593695
 30
0.0
 40
0.9999989999999999
100
AcDbArc
 50
0.0
 51
90.0
  0
ARC
  5
198
330
1B
100
AcDbEntity
  8
4
100
AcDbCircle
 10
1294.971954886479
 20
352.0789423586061
 30
0.0
 40
5.090470357553012
100
AcDbArc
 50
317.1167115949122
 51
42.8832884050878
  0
LINE
  5
199
330
1B
100
AcDbEntity
  8
4
100
AcDbLine
 10
1298.701953339712
 20
348.614840743468
 30
0.0
 11
1290.062425244032
 21
348.614840743468
 31
0.0
  0
LINE
  5
19A
330
1B
100
AcDbEntity
  8
4
100
AcDbLine
 10
1418.662424244032
 20
308.8147931593694
 30
0.0
 11
1418.662424244032
 21
250.8147951593696
 31
0.0
  0
LINE
  5
19B
330
1B
100
AcDbEntity
  8
4
100
AcDbLine
 10
1420.662422244031
 20
252.8148001593695
 30
0.0
 11
1420.662422244031
 21
313.8147951593696
 31
0.0
  0
LINE
  5
19C
330
1B
100
AcDbEntity
  8
4
100
AcDbLine
 10
1420.662422244031
 20
252.8148001593695
 30
0.0
 11
1418.662424244032
 21
250.8147951593696
 31
0.0
  0
LINE
  5
19D
330
1B
100
AcDbEntity
  8
4
100
AcDbLine
 10
1418.662424244032
 20
308.8147931593694
 30
0.0
 11
1420.662422244031
 21
306.8147951593696
 31
0.0
  0
LINE
  5
19E
330
1B
100
AcDbEntity
  8
L-CENTER
100
AcDbLine
 10
1304.619313952185
 20
217.9429508055466
 30
0.0
 11
1245.120756531543
 21
217.9429508055453
 31
0.0
  0
LINE
  5
19F
330
1B
100
AcDbEntity
  8
L-CENTER
100
AcDbLine
 10
1304.619313952185
 20
341.6866375131926
 30
0.0
 11
1245.120756531541
 21
341.6866375131926
 31
0.0
  0
LINE
  5
1A0
330
1B
100
AcDbEntity
  8
4
100
AcDbLine
 10
423.2624242440324
 20
355.5430439737443
 30
0.0
 11
423.2624242440324
 21
327.8302310526415
 31
0.0
  0
LINE
  5
1A1
330
1B
100
AcDbEntity
  8
4
100
AcDbLine
 10
427.2624242440324
 20
355.5430439737443
 30
0.0
 11
427.2624242440324
 21
327.8302310526415
 31
0.0
  0
ARC
  5
1A2
330
1B
100
AcDbEntity
  8
4
100
AcDbCircle
 10
431.5835978177656
 20
341.6866375131922
 30
0.0
 40
18.32117357373317
100
AcDbArc
 50
157.7806898294704
 51
202.2193101705296
  0
LINE
  5
1A3
330
1B
100
AcDbEntity
  8
4
100
AcDbLine
 10
413.2624242440324
 20
331.2943326677787
 30
0.0
 11
413.2624242440324
 21
352.0789423586061
 31
0.0
  0
LINE
  5
1A4
330
1B
100
AcDbEntity
  8
4
100
AcDbLine
 10
414.6228961483521
 20
334.7584342829168
 30
0.0
 11
423.2624242440324
 21
334.7584342829168
 31
0.0
  0
LINE
  5
1A5
330
1B
100
AcDbEntity
  8
4
100
AcDbLine
 10
427.2624242440324
 20
327.8302310526415
 30
0.0
 11
414.6228961483521
 21
327.8302310526415
 31
0.0
  0
ARC
  5
1A6
330
1B
100
AcDbEntity
  8
4
100
AcDbCircle
 10
418.3528946015858
 20
331.2943326677787
 30
0.0
 40
5.090470357553002
100
AcDbArc
 50
137.1167115949141
 51
222.8832884050859
  0
LINE
  5
1A7
330
1B
100
AcDbEntity
  8
4
100
AcDbLine
 10
414.6228961483521
 20
348.6148407434675
 30
0.0
 11
423.2624242440324
 21
348.6148407434675
 31
0.0
  0
LINE
  5
1A8
330
1B
100
AcDbEntity
  8
4
100
AcDbLine
 10
414.6228961483521
 20
355.5430439737443
 30
0.0
 11
427.2624242440324
 21
355.5430439737443
 31
0.0
  0
ARC
  5
1A9
330
1B
100
AcDbEntity
  8
4
100
AcDbCircle
 10
418.3528946015858
 20
352.0789423586061
 30
0.0
 40
5.090470357553012
100
AcDbArc
 50
137.1167115949141
 51
222.8832884050859
  0
ARC
  5
1AA
330
1B
100
AcDbEntity
  8
4
100
AcDbCircle
 10
428.2624232440321
 20
368.8147961593695
 30
0.0
 40
0.9999989999999999
100
AcDbArc
 50
90.0
 51
180.0
  0
LINE
  5
1AB
330
1B
100
AcDbEntity
  8
4
100
AcDbLine
 10
427.2624242440324
 20
190.8147991593694
 30
0.0
 11
427.2624242440324
 21
368.8147961593695
 31
0.0
  0
LINE
  5
1AC
330
1B
100
AcDbEntity
  8
L-CENTER
100
AcDbLine
 10
406.468657988461
 20
341.6866375131922
 30
0.0
 11
468.2040929565228
 21
341.6866375131922
 31
0.0
  0
LINE
  5
1AD
330
1B
100
AcDbEntity
  8
L-CENTER
100
AcDbLine
 10
407.4817038663887
 20
217.9429508055464
 30
0.0
 11
468.2040929565219
 21
217.942950805545
 31
0.0
  0
LINE
  5
1AE
330
1B
100
AcDbEntity
  8
4
100
AcDbLine
 10
414.6228961483512
 20
204.0865443449945
 30
0.0
 11
427.2624242440315
 21
204.0865443449943
 31
0.0
  0
LINE
  5
1AF
330
1B
100
AcDbEntity
  8
4
100
AcDbLine
 10
414.6228961483512
 20
211.014747575271
 30
0.0
 11
423.2624242440315
 21
211.0147475752708
 31
0.0
  0
LINE
  5
1B0
330
1B
100
AcDbEntity
  8
4
100
AcDbLine
 10
414.6228961483512
 20
224.8711540358217
 30
0.0
 11
423.2624242440315
 21
224.8711540358215
 31
0.0
  0
LINE
  5
1B1
330
1B
100
AcDbEntity
  8
4
100
AcDbLine
 10
427.2624242440315
 20
231.7993572660966
 30
0.0
 11
414.6228961483512
 21
231.7993572660971
 31
0.0
  0
ARC
  5
1B2
330
1B
100
AcDbEntity
  8
4
100
AcDbCircle
 10
431.5835978177647
 20
217.9429508055459
 30
0.0
 40
18.32117357373317
100
AcDbArc
 50
157.7806898294688
 51
202.219310170528
  0
ARC
  5
1B3
330
1B
100
AcDbEntity
  8
4
100
AcDbCircle
 10
418.352894601584
 20
207.5506459601327
 30
0.0
 40
5.090470357553012
100
AcDbArc
 50
137.1167115949109
 51
222.8832884050859
  0
LINE
  5
1B4
330
1B
100
AcDbEntity
  8
4
100
AcDbLine
 10
413.2624242440315
 20
228.3352556509599
 30
0.0
 11
413.2624242440315
 21
207.5506459601327
 31
0.0
  0
ARC
  5
1B5
330
1B
100
AcDbEntity
  8
4
100
AcDbCircle
 10
418.3528946015849
 20
228.3352556509599
 30
0.0
 40
5.090470357553002
100
AcDbArc
 50
137.1167115949141
 51
222.8832884050859
  0
LINE
  5
1B6
330
1B
100
AcDbEntity
  8
4
100
AcDbLine
 10
427.2624242440315
 20
204.0865443449943
 30
0.0
 11
427.2624242440315
 21
231.7993572660966
 31
0.0
  0
LINE
  5
1B7
330
1B
100
AcDbEntity
  8
4
100
AcDbLine
 10
423.2624242440315
 20
204.0865443449943
 30
0.0
 11
423.2624242440315
 21
231.7993572660969
 31
0.0
  0
ARC
  5
1B8
330
1B
100
AcDbEntity
  8
4
100
AcDbCircle
 10
428.2624232440321
 20
190.8147991593694
 30
0.0
 40
0.9999989999999999
100
AcDbArc
 50
180.0
 51
270.0
  0
CIRCLE
  5
1B9
330
1B
100
AcDbEntity
  8
4
100
AcDbCircle
 10
856.6624212440306
 20
1614.81677749907
 30
0.0
 40
328.0
  0
CIRCLE
  5
1BA
330
1B
100
AcDbEntity
  8
4
100
AcDbCircle
 10
856.6624212440306
 20
1614.81677749907
 30
0.0
 40
347.9999999999999
  0
CIRCLE
  5
1BB
330
1B
100
AcDbEntity
  8
CENTER
100
AcDbCircle
 10
856.6624212440306
 20
1614.81677749907
 30
0.0
 40
370.0
  0
LINE
  5
1BC
330
1B
100
AcDbEntity
  8
CENTER
100
AcDbLine
 10
576.4041808873058
 20
1621.81677749907
 30
0.0
 11
896.4041808873058
 21
1621.81677749907
 31
0.0
  0
LINE
  5
1BD
330
1B
100
AcDbEntity
  8
CENTER
100
AcDbLine
 10
875.6624212440324
 20
1601.81677749907
 30
0.0
 11
1135.662421244031
 21
1601.81677749907
 31
0.0
  0
LINE
  5
1BE
330
1B
100
AcDbEntity
  8
CENTER
100
AcDbLine
 10
1005.662421244031
 20
1471.81677749907
 30
0.0
 11
1005.662421244031
 21
1731.81677749907
 31
0.0
  0
CIRCLE
  5
1BF
330
1B
100
AcDbEntity
  8
CENTER
100
AcDbCircle
 10
1005.662421244031
 20
1601.81677749907
 30
0.0
 40
90.0
  0
CIRCLE
  5
1C0
330
1B
100
AcDbEntity
  8
4
100
AcDbCircle
 10
1005.662421244031
 20
1601.81677749907
 30
0.0
 40
110.0
  0
LINE
  5
1C1
330
1B
100
AcDbEntity
  8
CENTER
100
AcDbLine
 10
736.4041808873058
 20
1781.81677749907
 30
0.0
 11
736.4041808873058
 21
1461.81677749907
 31
0.0
  0
CIRCLE
  5
1C2
330
1B
100
AcDbEntity
  8
CENTER
100
AcDbCircle
 10
736.4041808873058
 20
1621.81677749907
 30
0.0
 40
120.0
  0
CIRCLE
  5
1C3
330
1B
100
AcDbEntity
  8
4
100
AcDbCircle
 10
736.4041808873058
 20
1621.81677749907
 30
0.0
 40
140.0
  0
LINE
  5
1C4
330
1B
100
AcDbEntity
  8
CENTER
 48
3.0
100
AcDbLine
 10
941.5765413639833
 20
1638.81677749907
 30
0.0
 11
913.8637284428819
 21
1654.81677749907
 31
0.0
  0
LINE
  5
1C5
330
1B
100
AcDbEntity
  8
CENTER
 48
3.0
100
AcDbLine
 10
646.3375388937252
 20
1673.81677749907
 30
0.0
 11
618.6247259726238
 21
1689.81677749907
 31
0.0
  0
LINE
  5
1C6
330
1B
100
AcDbEntity
  8
CENTER
 48
3.0
100
AcDbLine
 10
646.3375388937252
 20
1569.81677749907
 30
0.0
 11
618.6247259726238
 21
1553.81677749907
 31
0.0
  0
LINE
  5
1C7
330
1B
100
AcDbEntity
  8
CENTER
 48
3.0
100
AcDbLine
 10
826.4708228808881
 20
1569.81677749907
 30
0.0
 11
854.1836358019896
 21
1553.81677749907
 31
0.0
  0
LINE
  5
1C8
330
1B
100
AcDbEntity
  8
CENTER
 48
3.0
100
AcDbLine
 10
826.4708228808881
 20
1673.81677749907
 30
0.0
 11
854.1836358019896
 21
1689.81677749907
 31
0.0
  0
LINE
  5
1C9
330
1B
100
AcDbEntity
  8
CENTER
 48
3.0
100
AcDbLine
 10
941.5765413639833
 20
1564.81677749907
 30
0.0
 11
913.8637284428819
 21
1548.81677749907
 31
0.0
  0
LINE
  5
1CA
330
1B
100
AcDbEntity
  8
CENTER
 48
3.0
100
AcDbLine
 10
1069.74830112408
 20
1564.81677749907
 30
0.0
 11
1097.461114045183
 21
1548.81677749907
 31
0.0
  0
LINE
  5
1CB
330
1B
100
AcDbEntity
  8
CENTER
 48
3.0
100
AcDbLine
 10
1069.74830112408
 20
1638.81677749907
 30
0.0
 11
1097.461114045183
 21
1654.81677749907
 31
0.0
  0
LINE
  5
1CC
330
1B
100
AcDbEntity
  8
CENTER
100
AcDbLine
 10
816.6624212440324
 20
1894.81677749907
 30
0.0
 11
896.6624212440324
 21
1894.81677749907
 31
0.0
  0
ARC
  5
1CD
330
1B
100
AcDbEntity
  8
4
100
AcDbCircle
 10
856.6624212440306
 20
1894.816777499071
 30
0.0
 40
25.0
100
AcDbArc
 50
113.5781784781973
 51
246.4218215218027
  0
LINE
  5
1CE
330
1B
100
AcDbEntity
  8
4
100
AcDbLine
 10
1853.707445946327
 20
488.8147941593693
 30
0.0
 11
1853.707445946327
 21
468.8147941593693
 31
0.0
  0
LINE
  5
1CF
330
1B
100
AcDbEntity
  8
4
100
AcDbLine
 10
2633.707445946327
 20
488.8147941593693
 30
0.0
 11
2633.707445946327
 21
468.8147941593693
 31
0.0
  0
LINE
  5
1D0
330
1B
100
AcDbEntity
  8
4
100
AcDbLine
 10
1895.707445946327
 20
503.8147941593693
 30
0.0
 11
2591.707445946327
 21
503.8147941593693
 31
0.0
  0
LINE
  5
1D1
330
1B
100
AcDbEntity
  8
4
100
AcDbLine
 10
1895.707445946327
 20
503.8147941593693
 30
0.0
 11
1895.707445946327
 21
488.8147941593693
 31
0.0
  0
LINE
  5
1D2
330
1B
100
AcDbEntity
  8
4
100
AcDbLine
 10
2591.707445946327
 20
503.8147941593693
 30
0.0
 11
2591.707445946327
 21
488.8147941593693
 31
0.0
  0
LINE
  5
1D3
330
1B
100
AcDbEntity
  8
4
100
AcDbLine
 10
1853.707445946327
 20
488.8147941593693
 30
0.0
 11
2633.707445946327
 21
488.8147941593693
 31
0.0
  0
LINE
  5
1D4
330
1B
100
AcDbEntity
  8
4
100
AcDbLine
 10
2110.707445946327
 20
509.8147941593693
 30
0.0
 11
2390.707445946327
 21
509.8147941593693
 31
0.0
  0
LINE
  5
1D5
330
1B
100
AcDbEntity
  8
CENTER
100
AcDbLine
 10
617.4547510121806
 20
1854.02444773092
 30
0.0
 11
572.6110733978362
 21
1898.868125345265
 31
0.0
  0
LINE
  5
1D6
330
1B
100
AcDbEntity
  8
CENTER
100
AcDbLine
 10
1095.870091475882
 20
1854.02444773092
 30
0.0
 11
1140.713769090227
 21
1898.868125345265
 31
0.0
  0
LINE
  5
1D7
330
1B
100
AcDbEntity
  8
CENTER
100
AcDbLine
 10
1095.870091475882
 20
1375.609107267219
 30
0.0
 11
1140.713769090227
 21
1330.765429652874
 31
0.0
  0
LINE
  5
1D8
330
1B
100
AcDbEntity
  8
CENTER
100
AcDbLine
 10
617.4547510121806
 20
1375.609107267219
 30
0.0
 11
572.6110733978362
 21
1330.765429652874
 31
0.0
  0
LINE
  5
1D9
330
1B
100
AcDbEntity
  8
CENTER
100
AcDbLine
 10
736.4041808873058
 20
735.2102536078542
 30
0.0
 11
736.4041808873058
 21
136.7250853484888
 31
0.0
  0
LINE
  5
1DA
330
1B
100
AcDbEntity
  8
4
100
AcDbLine
 10
508.662421244032
 20
503.8147941593693
 30
0.0
 11
1204.662421244032
 21
503.8147941593693
 31
0.0
  0
LINE
  5
1DB
330
1B
100
AcDbEntity
  8
4
100
AcDbLine
 10
466.6624212440311
 20
488.8147941593693
 30
0.0
 11
1246.662421244032
 21
488.8147941593693
 31
0.0
  0
LINE
  5
1DC
330
1B
100
AcDbEntity
  8
4
100
AcDbLine
 10
596.4041808873058
 20
509.8147941593693
 30
0.0
 11
834.6873213606773
 21
509.8147941593693
 31
0.0
  0
LINE
  5
1DD
330
1B
100
AcDbEntity
  8
4
100
AcDbLine
 10
466.6624212440311
 20
488.8147941593693
 30
0.0
 11
466.662421244032
 21
468.8147941593693
 31
0.0
  0
LINE
  5
1DE
330
1B
100
AcDbEntity
  8
4
100
AcDbLine
 10
508.662421244032
 20
503.8147941593693
 30
0.0
 11
508.662421244032
 21
488.8147941593693
 31
0.0
  0
LINE
  5
1DF
330
1B
100
AcDbEntity
  8
4
100
AcDbLine
 10
596.4041808873094
 20
525.2147941593698
 30
0.0
 11
596.4041808873058
 21
503.8147941593693
 31
0.0
  0
LINE
  5
1E0
330
1B
100
AcDbEntity
  8
CENTER
100
AcDbLine
 10
1005.662421244032
 20
133.4503147625705
 30
0.0
 11
1005.662421244032
 21
541.3058630582887
 31
0.0
  0
LINE
  5
1E1
330
1B
100
AcDbEntity
  8
CENTER
100
AcDbLine
 10
1226.662421244032
 20
509.2027087523234
 30
0.0
 11
1226.662421244032
 21
455.8147941593693
 31
0.0
  0
LINE
  5
1E2
330
1B
100
AcDbEntity
  8
4
100
AcDbLine
 10
895.6624212440324
 20
509.8147941593693
 30
0.0
 11
1115.662421244032
 21
509.8147941593693
 31
0.0
  0
LINE
  5
1E3
330
1B
100
AcDbEntity
  8
4
100
AcDbLine
 10
876.4041808873094
 20
525.2147941593707
 30
0.0
 11
876.4041808873076
 21
521.9279065428032
 31
0.0
  0
LINE
  5
1E4
330
1B
100
AcDbEntity
  8
4
100
AcDbLine
 10
895.6624212440361
 20
525.2147941593707
 30
0.0
 11
895.6624212440306
 21
503.8147941593693
 31
0.0
  0
LINE
  5
1E5
330
1B
100
AcDbEntity
  8
4
100
AcDbLine
 10
1115.662421244029
 20
525.2147941593707
 30
0.0
 11
1115.662421244032
 21
503.8147941593693
 31
0.0
  0
LINE
  5
1E6
330
1B
100
AcDbEntity
  8
4
100
AcDbLine
 10
1204.662421244032
 20
503.8147941593693
 30
0.0
 11
1204.662421244032
 21
488.8147941593693
 31
0.0
  0
LINE
  5
1E7
330
1B
100
AcDbEntity
  8
4
100
AcDbLine
 10
1246.662421244032
 20
488.8147941593693
 30
0.0
 11
1246.662421244032
 21
468.8147941593693
 31
0.0
  0
LINE
  5
1E8
330
1B
100
AcDbEntity
  8
4
100
AcDbLine
 10
621.8432511776932
 20
525.2147941593698
 30
0.0
 11
643.7825614069002
 21
525.2147941593698
 31
0.0
  0
LINE
  5
1E9
330
1B
100
AcDbEntity
  8
4
100
AcDbLine
 10
621.8432511776932
 20
528.2147941593698
 30
0.0
 11
643.7825614069002
 21
528.2147941593698
 31
0.0
  0
ARC
  5
1EA
330
1B
100
AcDbEntity
  8
4
100
AcDbCircle
 10
632.8129062922976
 20
522.4190500241925
 30
0.0
 40
13.7957441351769
100
AcDbArc
 50
66.57340249137673
 51
113.4265975086313
  0
LINE
  5
1EB
330
1B
100
AcDbEntity
  8
4
100
AcDbLine
 10
641.0401476282491
 20
536.2147941593698
 30
0.0
 11
624.5856649563443
 21
536.2147941593698
 31
0.0
  0
ARC
  5
1EC
330
1B
100
AcDbEntity
  8
4
100
AcDbCircle
 10
624.5856649563443
 20
532.3394152840906
 30
0.0
 40
3.875378875279244
100
AcDbArc
 50
44.95592676273806
 51
135.0440732372477
  0
LINE
  5
1ED
330
1B
100
AcDbEntity
  8
4
100
AcDbLine
 10
627.3280787349954
 20
535.0776132487431
 30
0.0
 11
627.3280787349954
 21
528.2147941593698
 31
0.0
  0
LINE
  5
1EE
330
1B
100
AcDbEntity
  8
4
100
AcDbLine
 10
621.8432511776932
 20
535.0776132487431
 30
0.0
 11
621.8432511776932
 21
525.2147941593698
 31
0.0
  0
ARC
  5
1EF
330
1B
100
AcDbEntity
  8
4
100
AcDbCircle
 10
641.0401476282491
 20
532.3394152840906
 30
0.0
 40
3.875378875279264
100
AcDbArc
 50
44.95592676273806
 51
135.0440732372477
  0
LINE
  5
1F0
330
1B
100
AcDbEntity
  8
4
100
AcDbLine
 10
638.297733849598
 20
535.0776132487431
 30
0.0
 11
638.297733849598
 21
528.2147941593698
 31
0.0
  0
LINE
  5
1F1
330
1B
100
AcDbEntity
  8
4
100
AcDbLine
 10
643.7825614069002
 20
525.2147941593698
 30
0.0
 11
643.7825614069002
 21
535.0776132487431
 31
0.0
  0
LINE
  5
1F2
330
1B
100
AcDbEntity
  8
L-CENTER
100
AcDbLine
 10
632.8129062922976
 20
539.8156340394739
 30
0.0
 11
632.8129062922976
 21
486.7320998323335
 31
0.0
  0
ARC
  5
1F3
330
1B
100
AcDbEntity
  8
4
100
AcDbCircle
 10
728.1769395513543
 20
532.3394152840906
 30
0.0
 40
3.875378875279244
100
AcDbArc
 50
44.95592676275351
 51
135.044073237262
  0
LINE
  5
1F4
330
1B
100
AcDbEntity
  8
4
100
AcDbLine
 10
744.631422223259
 20
536.2147941593698
 30
0.0
 11
728.1769395513543
 21
536.2147941593698
 31
0.0
  0
LINE
  5
1F5
330
1B
100
AcDbEntity
  8
4
100
AcDbLine
 10
725.4345257727032
 20
528.2147941593698
 30
0.0
 11
747.3738360019083
 21
528.2147941593698
 31
0.0
  0
LINE
  5
1F6
330
1B
100
AcDbEntity
  8
4
100
AcDbLine
 10
725.4345257727032
 20
525.2147941593698
 30
0.0
 11
747.3738360019083
 21
525.2147941593698
 31
0.0
  0
LINE
  5
1F7
330
1B
100
AcDbEntity
  8
4
100
AcDbLine
 10
725.4345257727032
 20
535.0776132487431
 30
0.0
 11
725.4345257727032
 21
525.2147941593698
 31
0.0
  0
ARC
  5
1F8
330
1B
100
AcDbEntity
  8
4
100
AcDbCircle
 10
744.631422223259
 20
532.3394152840906
 30
0.0
 40
3.875378875279264
100
AcDbArc
 50
44.95592676275351
 51
135.044073237262
  0
ARC
  5
1F9
330
1B
100
AcDbEntity
  8
4
100
AcDbCircle
 10
736.4041808873058
 20
522.4190500241925
 30
0.0
 40
13.7957441351769
100
AcDbArc
 50
66.57340249136868
 51
113.4265975086271
  0
LINE
  5
1FA
330
1B
100
AcDbEntity
  8
4
100
AcDbLine
 10
730.9193533300054
 20
535.0776132487431
 30
0.0
 11
730.9193533300054
 21
528.2147941593698
 31
0.0
  0
LINE
  5
1FB
330
1B
100
AcDbEntity
  8
4
100
AcDbLine
 10
747.3738360019083
 20
525.2147941593698
 30
0.0
 11
747.3738360019083
 21
535.0776132487431
 31
0.0
  0
LINE
  5
1FC
330
1B
100
AcDbEntity
  8
4
100
AcDbLine
 10
741.889008444608
 20
535.0776132487431
 30
0.0
 11
741.889008444608
 21
528.2147941593698
 31
0.0
  0
LINE
  5
1FD
330
1B
100
AcDbEntity
  8
4
100
AcDbLine
 10
666.4041808873058
 20
526.2147941593698
 30
0.0
 11
725.4345257727032
 21
526.2147941593698
 31
0.0
  0
LINE
  5
1FE
330
1B
100
AcDbEntity
  8
4
100
AcDbLine
 10
681.4041808873058
 20
539.8147941593693
 30
0.0
 11
791.4041808873058
 21
539.8147941593693
 31
0.0
  0
LINE
  5
1FF
330
1B
100
AcDbEntity
  8
4
100
AcDbLine
 10
666.4041808873058
 20
525.2147941593698
 30
0.0
 11
666.4041808873058
 21
526.2147941593698
 31
0.0
  0
LINE
  5
200
330
1B
100
AcDbEntity
  8
4
100
AcDbLine
 10
681.4041808873058
 20
539.8147941593693
 30
0.0
 11
681.4041808873058
 21
526.2147941593698
 31
0.0
  0
ARC
  5
201
330
1B
100
AcDbEntity
  8
4
100
AcDbCircle
 10
681.4041808873058
 20
542.3147941593693
 30
0.0
 40
2.5
100
AcDbArc
 50
270.0
 51
0.0
  0
LINE
  5
202
330
1B
100
AcDbEntity
  8
4
100
AcDbLine
 10
736.4041808873058
 20
549.8147941593693
 30
0.0
 11
736.4041808873058
 21
549.8147941593693
 31
0.0
  0
ARC
  5
203
330
1B
100
AcDbEntity
  8
4
100
AcDbCircle
 10
791.4041808873058
 20
542.3147941593693
 30
0.0
 40
2.5
100
AcDbArc
 50
180.0
 51
270.0
  0
LINE
  5
204
330
1B
100
AcDbEntity
  8
4
100
AcDbLine
 10
806.4041808873058
 20
525.2147941593707
 30
0.0
 11
806.4041808873058
 21
526.2147941593707
 31
0.0
  0
LINE
  5
205
330
1B
100
AcDbEntity
  8
4
100
AcDbLine
 10
791.4041808873058
 20
539.8147941593693
 30
0.0
 11
791.4041808873058
 21
526.2147941593707
 31
0.0
  0
LINE
  5
206
330
1B
100
AcDbEntity
  8
4
100
AcDbLine
 10
834.5106279250135
 20
535.0776132487431
 30
0.0
 11
834.5106279250135
 21
528.2147941593698
 31
0.0
  0
ARC
  5
207
330
1B
100
AcDbEntity
  8
4
100
AcDbCircle
 10
831.7682141463624
 20
532.3394152840906
 30
0.0
 40
3.875378875279264
100
AcDbArc
 50
44.95592676273806
 51
135.0440732372465
  0
LINE
  5
208
330
1B
100
AcDbEntity
  8
4
100
AcDbLine
 10
829.0258003677131
 20
525.2147941593698
 30
0.0
 11
829.0258003677131
 21
535.0776132487431
 31
0.0
  0
LINE
  5
209
330
1B
100
AcDbEntity
  8
4
100
AcDbLine
 10
845.4802830396161
 20
535.0776132487431
 30
0.0
 11
845.4802830396161
 21
528.2147941593698
 31
0.0
  0
ARC
  5
20A
330
1B
100
AcDbEntity
  8
4
100
AcDbCircle
 10
848.2226968182672
 20
532.3394152840906
 30
0.0
 40
3.875378875279244
100
AcDbArc
 50
113.7416584781166
 51
135.0440732372465
  0
LINE
  5
20B
330
1B
100
AcDbEntity
  8
4
100
AcDbLine
 10
831.7682141463624
 20
536.2147941593698
 30
0.0
 11
846.6624172440311
 21
536.2147941593698
 31
0.0
  0
ARC
  5
20C
330
1B
100
AcDbEntity
  8
4
100
AcDbCircle
 10
839.9954554823157
 20
522.4190500241925
 30
0.0
 40
13.7957441351769
100
AcDbArc
 50
66.57340249137289
 51
113.4265975086313
  0
LINE
  5
20D
330
1B
100
AcDbEntity
  8
4
100
AcDbLine
 10
846.6624172440311
 20
528.2147941593698
 30
0.0
 11
829.0258003677131
 21
528.2147941593698
 31
0.0
  0
LINE
  5
20E
330
1B
100
AcDbEntity
  8
4
100
AcDbLine
 10
846.6624172440311
 20
525.2147941593698
 30
0.0
 11
829.0258003677131
 21
525.2147941593698
 31
0.0
  0
LINE
  5
20F
330
1B
100
AcDbEntity
  8
L-CENTER
100
AcDbLine
 10
839.9954554823157
 20
539.8156340394739
 30
0.0
 11
839.9954554823157
 21
486.7320998323335
 31
0.0
  0
LINE
  5
210
330
1B
100
AcDbEntity
  8
4
100
AcDbLine
 10
596.4041808873058
 20
525.2147941593698
 30
0.0
 11
725.4345257727032
 21
525.2147941593703
 31
0.0
  0
LINE
  5
211
330
1B
100
AcDbEntity
  8
4
100
AcDbLine
 10
683.9041808873058
 20
717.8147941593693
 30
0.0
 11
683.9041808873058
 21
542.3147941593693
 31
0.0
  0
LINE
  5
212
330
1B
100
AcDbEntity
  8
4
100
AcDbLine
 10
750.4041808873058
 20
719.8147941593693
 30
0.0
 11
750.4041808873058
 21
563.8147941593693
 31
0.0
  0
LINE
  5
213
330
1B
100
AcDbEntity
  8
4
100
AcDbLine
 10
788.9041808873058
 20
717.8147941593693
 30
0.0
 11
788.9041808873058
 21
542.3147941593693
 31
0.0
  0
LINE
  5
214
330
1B
100
AcDbEntity
  8
4
100
AcDbLine
 10
722.4041808873058
 20
719.8147941593693
 30
0.0
 11
722.4041808873058
 21
563.8147941593693
 31
0.0
  0
ARC
  5
215
330
1B
100
AcDbEntity
  8
4
100
AcDbCircle
 10
736.4041808873058
 20
563.8147941593693
 30
0.0
 40
14.0
100
AcDbArc
 50
180.0
 51
270.0
  0
ARC
  5
216
330
1B
100
AcDbEntity
  8
4
100
AcDbCircle
 10
736.4041808873058
 20
563.8147941593693
 30
0.0
 40
14.0
100
AcDbArc
 50
270.0
 51
0.0
  0
LINE
  5
217
330
1B
100
AcDbEntity
  8
4
100
AcDbLine
 10
750.4041808873058
 20
717.8147941593693
 30
0.0
 11
788.9041808873058
 21
717.8147941593693
 31
0.0
  0
LINE
  5
218
330
1B
100
AcDbEntity
  8
4
100
AcDbLine
 10
685.9041808873058
 20
719.8147941593693
 30
0.0
 11
786.9041808873058
 21
719.8147941593693
 31
0.0
  0
LINE
  5
219
330
1B
100
AcDbEntity
  8
4
100
AcDbLine
 10
683.9041808873058
 20
717.8147941593693
 30
0.0
 11
722.4041808873058
 21
717.8147941593693
 31
0.0
  0
LINE
  5
21A
330
1B
100
AcDbEntity
  8
4
100
AcDbLine
 10
683.9041808873058
 20
717.8147941593693
 30
0.0
 11
685.9041808873058
 21
719.8147941593693
 31
0.0
  0
LINE
  5
21B
330
1B
100
AcDbEntity
  8
4
100
AcDbLine
 10
786.9041808873058
 20
719.8147941593693
 30
0.0
 11
788.9041808873058
 21
717.8147941593693
 31
0.0
  0
LINE
  5
21C
330
1B
100
AcDbEntity
  8
4
100
AcDbLine
 10
895.6624212440324
 20
525.2147941593707
 30
0.0
 11
1115.662421244032
 21
525.2147941593707
 31
0.0
  0
LINE
  5
21D
330
1B
100
AcDbEntity
  8
4
100
AcDbLine
 10
994.692766129428
 20
525.2147941593707
 30
0.0
 11
1016.632076358635
 21
525.2147941593707
 31
0.0
  0
LINE
  5
21E
330
1B
100
AcDbEntity
  8
4
100
AcDbLine
 10
1013.889662579984
 20
536.2147941593707
 30
0.0
 11
997.4351799080791
 21
536.2147941593707
 31
0.0
  0
ARC
  5
21F
330
1B
100
AcDbEntity
  8
4
100
AcDbCircle
 10
1005.662421244032
 20
522.4190500241934
 30
0.0
 40
13.7957441351769
100
AcDbArc
 50
66.57340249137289
 51
113.4265975086313
  0
LINE
  5
220
330
1B
100
AcDbEntity
  8
4
100
AcDbLine
 10
994.692766129428
 20
528.2147941593707
 30
0.0
 11
1016.632076358635
 21
528.2147941593707
 31
0.0
  0
LINE
  5
221
330
1B
100
AcDbEntity
  8
4
100
AcDbLine
 10
916.3403909688309
 20
525.2147941593707
 30
0.0
 11
938.279701198036
 21
525.2147941593707
 31
0.0
  0
LINE
  5
222
330
1B
100
AcDbEntity
  8
4
100
AcDbLine
 10
916.3403909688309
 20
528.2147941593707
 30
0.0
 11
938.279701198036
 21
528.2147941593707
 31
0.0
  0
ARC
  5
223
330
1B
100
AcDbEntity
  8
4
100
AcDbCircle
 10
927.3100460834335
 20
522.4190500241934
 30
0.0
 40
13.7957441351769
100
AcDbArc
 50
66.57340249137289
 51
113.4265975086313
  0
LINE
  5
224
330
1B
100
AcDbEntity
  8
4
100
AcDbLine
 10
935.5372874193868
 20
536.2147941593707
 30
0.0
 11
919.082804747482
 21
536.2147941593707
 31
0.0
  0
ARC
  5
225
330
1B
100
AcDbEntity
  8
4
100
AcDbCircle
 10
919.082804747482
 20
532.3394152840915
 30
0.0
 40
3.875378875279244
100
AcDbArc
 50
44.95592676275351
 51
135.044073237262
  0
ARC
  5
226
330
1B
100
AcDbEntity
  8
4
100
AcDbCircle
 10
935.5372874193868
 20
532.3394152840915
 30
0.0
 40
3.875378875279264
100
AcDbArc
 50
44.95592676275351
 51
135.044073237262
  0
LINE
  5
227
330
1B
100
AcDbEntity
  8
4
100
AcDbLine
 10
921.8252185261331
 20
535.077613248744
 30
0.0
 11
921.8252185261331
 21
528.2147941593707
 31
0.0
  0
LINE
  5
228
330
1B
100
AcDbEntity
  8
4
100
AcDbLine
 10
916.3403909688309
 20
535.077613248744
 30
0.0
 11
916.3403909688309
 21
525.2147941593707
 31
0.0
  0
LINE
  5
229
330
1B
100
AcDbEntity
  8
4
100
AcDbLine
 10
932.7948736407357
 20
535.077613248744
 30
0.0
 11
932.7948736407357
 21
528.2147941593707
 31
0.0
  0
LINE
  5
22A
330
1B
100
AcDbEntity
  8
4
100
AcDbLine
 10
938.279701198036
 20
525.2147941593707
 30
0.0
 11
938.279701198036
 21
535.077613248744
 31
0.0
  0
ARC
  5
22B
330
1B
100
AcDbEntity
  8
4
100
AcDbCircle
 10
997.4351799080791
 20
532.3394152840915
 30
0.0
 40
3.875378875279244
100
AcDbArc
 50
44.95592676273806
 51
135.0440732372465
  0
LINE
  5
22C
330
1B
100
AcDbEntity
  8
4
100
AcDbLine
 10
994.692766129428
 20
535.077613248744
 30
0.0
 11
994.692766129428
 21
525.2147941593707
 31
0.0
  0
LINE
  5
22D
330
1B
100
AcDbEntity
  8
4
100
AcDbLine
 10
1000.17759368673
 20
535.077613248744
 30
0.0
 11
1000.17759368673
 21
528.2147941593707
 31
0.0
  0
ARC
  5
22E
330
1B
100
AcDbEntity
  8
4
100
AcDbCircle
 10
1013.889662579984
 20
532.3394152840915
 30
0.0
 40
3.875378875279264
100
AcDbArc
 50
44.95592676273806
 51
135.0440732372465
  0
LINE
  5
22F
330
1B
100
AcDbEntity
  8
4
100
AcDbLine
 10
1016.632076358635
 20
525.2147941593707
 30
0.0
 11
1016.632076358635
 21
535.077613248744
 31
0.0
  0
LINE
  5
230
330
1B
100
AcDbEntity
  8
4
100
AcDbLine
 10
1011.147248801333
 20
535.077613248744
 30
0.0
 11
1011.147248801333
 21
528.2147941593707
 31
0.0
  0
LINE
  5
231
330
1B
100
AcDbEntity
  8
4
100
AcDbLine
 10
1078.529968847327
 20
535.0776132487458
 30
0.0
 11
1078.529968847327
 21
528.2147941593726
 31
0.0
  0
LINE
  5
232
330
1B
100
AcDbEntity
  8
4
100
AcDbLine
 10
1089.49962396193
 20
535.0776132487467
 30
0.0
 11
1089.49962396193
 21
528.2147941593735
 31
0.0
  0
ARC
  5
233
330
1B
100
AcDbEntity
  8
4
100
AcDbCircle
 10
1075.787555068676
 20
532.3394152840933
 30
0.0
 40
3.875378875279264
100
AcDbArc
 50
44.9559267627547
 51
135.044073237262
  0
ARC
  5
234
330
1B
100
AcDbEntity
  8
4
100
AcDbCircle
 10
1092.242037740581
 20
532.3394152840942
 30
0.0
 40
3.875378875279244
100
AcDbArc
 50
44.9559267627547
 51
135.044073237262
  0
LINE
  5
235
330
1B
100
AcDbEntity
  8
4
100
AcDbLine
 10
1075.787555068676
 20
536.2147941593726
 30
0.0
 11
1092.242037740581
 21
536.2147941593735
 31
0.0
  0
ARC
  5
236
330
1B
100
AcDbEntity
  8
4
100
AcDbCircle
 10
1084.014796404628
 20
522.4190500241953
 30
0.0
 40
13.7957441351769
100
AcDbArc
 50
66.57340249137289
 51
113.4265975086271
  0
LINE
  5
237
330
1B
100
AcDbEntity
  8
4
100
AcDbLine
 10
1094.984451519232
 20
528.2147941593735
 30
0.0
 11
1073.045141290025
 21
528.2147941593726
 31
0.0
  0
LINE
  5
238
330
1B
100
AcDbEntity
  8
4
100
AcDbLine
 10
1094.984451519232
 20
525.2147941593735
 30
0.0
 11
1073.045141290025
 21
525.2147941593726
 31
0.0
  0
LINE
  5
239
330
1B
100
AcDbEntity
  8
4
100
AcDbLine
 10
1073.045141290025
 20
525.2147941593726
 30
0.0
 11
1073.045141290025
 21
535.0776132487458
 31
0.0
  0
LINE
  5
23A
330
1B
100
AcDbEntity
  8
4
100
AcDbLine
 10
1094.984451519232
 20
535.0776132487467
 30
0.0
 11
1094.984451519232
 21
525.2147941593735
 31
0.0
  0
LINE
  5
23B
330
1B
100
AcDbEntity
  8
L-CENTER
100
AcDbLine
 10
1084.014796404628
 20
539.8156340394767
 30
0.0
 11
1084.01479640463
 21
486.7320998323362
 31
0.0
  0
LINE
  5
23C
330
1B
100
AcDbEntity
  8
L-CENTER
100
AcDbLine
 10
927.3100460834335
 20
539.8156340394748
 30
0.0
 11
927.3100460834335
 21
486.7320998323344
 31
0.0
  0
LINE
  5
23D
330
1B
100
AcDbEntity
  8
4
100
AcDbLine
 10
747.3738360019083
 20
525.2147941593703
 30
0.0
 11
846.6624172440311
 21
525.2147941593707
 31
0.0
  0
LINE
  5
23E
330
1B
100
AcDbEntity
  8
4
100
AcDbLine
 10
747.3738360019083
 20
526.2147941593698
 30
0.0
 11
806.4041808873058
 21
526.2147941593698
 31
0.0
  0
LINE
  5
23F
330
1B
100
AcDbEntity
  8
4
100
AcDbLine
 10
676.6624212440324
 20
150.8147941593702
 30
0.0
 11
876.4041808873058
 21
150.81479415937
 31
0.0
  0
LINE
  5
240
330
1B
100
AcDbEntity
  8
4
100
AcDbLine
 10
725.4345257727032
 20
147.8147941593691
 30
0.0
 11
747.3738360019083
 21
147.8147941593691
 31
0.0
  0
LINE
  5
241
330
1B
100
AcDbEntity
  8
4
100
AcDbLine
 10
725.4345257727032
 20
150.8147941593691
 30
0.0
 11
747.3738360019083
 21
150.8147941593691
 31
0.0
  0
ARC
  5
242
330
1B
100
AcDbEntity
  8
4
100
AcDbCircle
 10
728.1769395513543
 20
143.6901730346483
 30
0.0
 40
3.875378875279244
100
AcDbArc
 50
224.9559267627369
 51
315.0440732372441
  0
LINE
  5
243
330
1B
100
AcDbEntity
  8
4
100
AcDbLine
 10
744.631422223259
 20
139.8147941593691
 30
0.0
 11
728.1769395513543
 21
139.8147941593691
 31
0.0
  0
LINE
  5
244
330
1B
100
AcDbEntity
  8
4
100
AcDbLine
 10
725.4345257727032
 20
140.9519750699958
 30
0.0
 11
725.4345257727032
 21
150.8147941593691
 31
0.0
  0
ARC
  5
245
330
1B
100
AcDbEntity
  8
4
100
AcDbCircle
 10
744.631422223259
 20
143.6901730346483
 30
0.0
 40
3.875378875279264
100
AcDbArc
 50
224.955926762738
 51
315.0440732372453
  0
ARC
  5
246
330
1B
100
AcDbEntity
  8
4
100
AcDbCircle
 10
736.4041808873058
 20
153.6105382945464
 30
0.0
 40
13.7957441351769
100
AcDbArc
 50
246.5734024913727
 51
293.4265975086313
  0
LINE
  5
247
330
1B
100
AcDbEntity
  8
4
100
AcDbLine
 10
730.9193533300054
 20
140.9519750699958
 30
0.0
 11
730.9193533300054
 21
147.8147941593691
 31
0.0
  0
LINE
  5
248
330
1B
100
AcDbEntity
  8
4
100
AcDbLine
 10
741.889008444608
 20
140.9519750699958
 30
0.0
 11
741.889008444608
 21
147.8147941593691
 31
0.0
  0
LINE
  5
249
330
1B
100
AcDbEntity
  8
4
100
AcDbLine
 10
747.3738360019083
 20
150.8147941593691
 30
0.0
 11
747.3738360019083
 21
140.9519750699958
 31
0.0
  0
LINE
  5
24A
330
1B
100
AcDbEntity
  8
4
100
AcDbLine
 10
850.9651105969183
 20
147.8147941593691
 30
0.0
 11
829.0258003677131
 21
147.8147941593691
 31
0.0
  0
ARC
  5
24B
330
1B
100
AcDbEntity
  8
4
100
AcDbCircle
 10
839.9954554823157
 20
153.6105382945464
 30
0.0
 40
13.7957441351769
100
AcDbArc
 50
246.5734024913687
 51
293.4265975086273
  0
LINE
  5
24C
330
1B
100
AcDbEntity
  8
4
100
AcDbLine
 10
831.7682141463624
 20
139.8147941593691
 30
0.0
 11
848.2226968182672
 21
139.8147941593691
 31
0.0
  0
ARC
  5
24D
330
1B
100
AcDbEntity
  8
4
100
AcDbCircle
 10
848.2226968182672
 20
143.6901730346483
 30
0.0
 40
3.875378875279244
100
AcDbArc
 50
224.9559267627535
 51
315.0440732372608
  0
LINE
  5
24E
330
1B
100
AcDbEntity
  8
4
100
AcDbLine
 10
845.4802830396161
 20
140.9519750699958
 30
0.0
 11
845.4802830396161
 21
147.8147941593691
 31
0.0
  0
ARC
  5
24F
330
1B
100
AcDbEntity
  8
4
100
AcDbCircle
 10
831.7682141463624
 20
143.6901730346483
 30
0.0
 40
3.875378875279264
100
AcDbArc
 50
224.9559267627547
 51
315.044073237262
  0
LINE
  5
250
330
1B
100
AcDbEntity
  8
4
100
AcDbLine
 10
834.5106279250135
 20
140.9519750699958
 30
0.0
 11
834.5106279250135
 21
147.8147941593691
 31
0.0
  0
LINE
  5
251
330
1B
100
AcDbEntity
  8
4
100
AcDbLine
 10
850.9651105969183
 20
150.8147941593691
 30
0.0
 11
829.0258003677131
 21
150.8147941593691
 31
0.0
  0
LINE
  5
252
330
1B
100
AcDbEntity
  8
4
100
AcDbLine
 10
850.9651105969183
 20
140.9519750699958
 30
0.0
 11
850.9651105969183
 21
150.8147941593691
 31
0.0
  0
LINE
  5
253
330
1B
100
AcDbEntity
  8
4
100
AcDbLine
 10
829.0258003677131
 20
150.8147941593691
 30
0.0
 11
829.0258003677131
 21
140.9519750699958
 31
0.0
  0
LINE
  5
254
330
1B
100
AcDbEntity
  8
4
100
AcDbLine
 10
876.4041808873058
 20
154.8147941593695
 30
0.0
 11
876.4041808873058
 21
150.81479415937
 31
0.0
  0
LINE
  5
255
330
1B
100
AcDbEntity
  8
4
100
AcDbLine
 10
896.4041808873058
 20
150.8147941593695
 30
0.0
 11
1036.662421244032
 21
150.8147941593695
 31
0.0
  0
LINE
  5
256
330
1B
100
AcDbEntity
  8
4
100
AcDbLine
 10
896.4041808873058
 20
154.8147941593695
 30
0.0
 11
896.4041808873058
 21
150.8147941593695
 31
0.0
  0
LINE
  5
257
330
1B
100
AcDbEntity
  8
4
100
AcDbLine
 10
933.536633284009
 20
140.9519750699953
 30
0.0
 11
933.536633284009
 21
147.8147941593686
 31
0.0
  0
LINE
  5
258
330
1B
100
AcDbEntity
  8
4
100
AcDbLine
 10
922.5669781694064
 20
140.9519750699953
 30
0.0
 11
922.5669781694064
 21
147.8147941593686
 31
0.0
  0
ARC
  5
259
330
1B
100
AcDbEntity
  8
4
100
AcDbCircle
 10
936.2790470626601
 20
143.6901730346478
 30
0.0
 40
3.875378875279264
100
AcDbArc
 50
224.955926762738
 51
315.0440732372453
  0
ARC
  5
25A
330
1B
100
AcDbEntity
  8
4
100
AcDbCircle
 10
919.8245643907553
 20
143.6901730346478
 30
0.0
 40
3.875378875279244
100
AcDbArc
 50
224.9559267627369
 51
315.0440732372441
  0
LINE
  5
25B
330
1B
100
AcDbEntity
  8
4
100
AcDbLine
 10
936.2790470626601
 20
139.8147941593686
 30
0.0
 11
919.8245643907553
 21
139.8147941593686
 31
0.0
  0
ARC
  5
25C
330
1B
100
AcDbEntity
  8
4
100
AcDbCircle
 10
928.0518057267086
 20
153.6105382945459
 30
0.0
 40
13.7957441351769
100
AcDbArc
 50
246.5734024913687
 51
293.4265975086273
  0
LINE
  5
25D
330
1B
100
AcDbEntity
  8
4
100
AcDbLine
 10
917.0821506121042
 20
147.8147941593686
 30
0.0
 11
939.0214608413112
 21
147.8147941593686
 31
0.0
  0
LINE
  5
25E
330
1B
100
AcDbEntity
  8
4
100
AcDbLine
 10
917.0821506121042
 20
150.8147941593686
 30
0.0
 11
939.0214608413112
 21
150.8147941593686
 31
0.0
  0
LINE
  5
25F
330
1B
100
AcDbEntity
  8
4
100
AcDbLine
 10
939.0214608413112
 20
150.8147941593686
 30
0.0
 11
939.0214608413112
 21
140.9519750699953
 31
0.0
  0
LINE
  5
260
330
1B
100
AcDbEntity
  8
4
100
AcDbLine
 10
917.0821506121042
 20
140.9519750699953
 30
0.0
 11
917.0821506121042
 21
150.8147941593686
 31
0.0
  0
LINE
  5
261
330
1B
100
AcDbEntity
  8
L-CENTER
100
AcDbLine
 10
928.0518057267086
 20
136.2139542792645
 30
0.0
 11
928.0518057267086
 21
189.297488486405
 31
0.0
  0
LINE
  5
262
330
1B
100
AcDbEntity
  8
4
100
AcDbLine
 10
995.4345257727032
 20
147.8147941593686
 30
0.0
 11
1017.373836001908
 21
147.8147941593686
 31
0.0
  0
LINE
  5
263
330
1B
100
AcDbEntity
  8
4
100
AcDbLine
 10
995.4345257727032
 20
150.8147941593686
 30
0.0
 11
1017.373836001908
 21
150.8147941593686
 31
0.0
  0
LINE
  5
264
330
1B
100
AcDbEntity
  8
4
100
AcDbLine
 10
1014.631422223259
 20
139.8147941593686
 30
0.0
 11
998.1769395513543
 21
139.8147941593686
 31
0.0
  0
ARC
  5
265
330
1B
100
AcDbEntity
  8
4
100
AcDbCircle
 10
1006.404180887306
 20
153.6105382945459
 30
0.0
 40
13.7957441351769
100
AcDbArc
 50
246.5734024913727
 51
293.4265975086313
  0
ARC
  5
266
330
1B
100
AcDbEntity
  8
4
100
AcDbCircle
 10
998.1769395513543
 20
143.6901730346478
 30
0.0
 40
3.875378875279244
100
AcDbArc
 50
224.9559267627369
 51
315.0440732372441
  0
LINE
  5
267
330
1B
100
AcDbEntity
  8
4
100
AcDbLine
 10
1000.919353330005
 20
140.9519750699953
 30
0.0
 11
1000.919353330005
 21
147.8147941593686
 31
0.0
  0
LINE
  5
268
330
1B
100
AcDbEntity
  8
4
100
AcDbLine
 10
995.4345257727032
 20
140.9519750699953
 30
0.0
 11
995.4345257727032
 21
150.8147941593686
 31
0.0
  0
ARC
  5
269
330
1B
100
AcDbEntity
  8
4
100
AcDbCircle
 10
1014.631422223259
 20
143.6901730346478
 30
0.0
 40
3.875378875279264
100
AcDbArc
 50
224.955926762738
 51
315.0440732372453
  0
LINE
  5
26A
330
1B
100
AcDbEntity
  8
4
100
AcDbLine
 10
1011.889008444608
 20
140.9519750699953
 30
0.0
 11
1011.889008444608
 21
147.8147941593686
 31
0.0
  0
LINE
  5
26B
330
1B
100
AcDbEntity
  8
4
100
AcDbLine
 10
1017.373836001908
 20
150.8147941593686
 30
0.0
 11
1017.373836001908
 21
140.9519750699953
 31
0.0
  0
LINE
  5
26C
330
1B
100
AcDbEntity
  8
4
100
AcDbLine
 10
2286.677250490454
 20
527.8148001593695
 30
0.0
 11
2264.737940261247
 21
527.8148001593695
 31
0.0
  0
LINE
  5
26D
330
1B
100
AcDbEntity
  8
4
100
AcDbLine
 10
2286.677250490454
 20
524.8148001593695
 30
0.0
 11
2264.737940261247
 21
524.8148001593695
 31
0.0
  0
LINE
  5
26E
330
1B
100
AcDbEntity
  8
4
100
AcDbLine
 10
2264.737940261247
 20
524.8148001593695
 30
0.0
 11
2264.737940261247
 21
534.6776192487428
 31
0.0
  0
ARC
  5
26F
330
1B
100
AcDbEntity
  8
4
100
AcDbCircle
 10
2267.480354039898
 20
531.9394212840912
 30
0.0
 40
3.875378875279264
100
AcDbArc
 50
44.95592676274758
 51
135.044073237262
  0
LINE
  5
270
330
1B
100
AcDbEntity
  8
4
100
AcDbLine
 10
2125.222619389025
 20
534.6776192487428
 30
0.0
 11
2125.222619389025
 21
527.8148001593695
 31
0.0
  0
LINE
  5
271
330
1B
100
AcDbEntity
  8
4
100
AcDbLine
 10
2119.737791831725
 20
524.8148001593695
 30
0.0
 11
2119.737791831725
 21
534.6776192487428
 31
0.0
  0
ARC
  5
272
330
1B
100
AcDbEntity
  8
4
100
AcDbCircle
 10
2122.480205610374
 20
531.9394212840921
 30
0.0
 40
3.875378875279264
100
AcDbArc
 50
44.95592676273806
 51
135.0440732372524
  0
LINE
  5
273
330
1B
100
AcDbEntity
  8
4
100
AcDbLine
 10
2141.67710206093
 20
527.8148001593695
 30
0.0
 11
2119.737791831725
 21
527.8148001593695
 31
0.0
  0
LINE
  5
274
330
1B
100
AcDbEntity
  8
4
100
AcDbLine
 10
2122.480205610374
 20
535.8148001593695
 30
0.0
 11
2138.934688282279
 21
535.8148001593695
 31
0.0
  0
LINE
  5
275
330
1B
100
AcDbEntity
  8
4
100
AcDbLine
 10
2141.67710206093
 20
524.8148001593695
 30
0.0
 11
2119.737791831725
 21
524.8148001593695
 31
0.0
  0
ARC
  5
276
330
1B
100
AcDbEntity
  8
4
100
AcDbCircle
 10
2130.707446946325
 20
522.0190560241931
 30
0.0
 40
13.7957441351769
100
AcDbArc
 50
85.17845215864331
 51
113.4265975086271
  0
LINE
  5
277
330
1B
100
AcDbEntity
  8
4
100
AcDbLine
 10
2129.737788831724
 20
524.8148001593695
 30
0.0
 11
2129.737788831724
 21
534.6776192487428
 31
0.0
  0
LINE
  5
278
330
1B
100
AcDbEntity
  8
L-CENTER
100
AcDbLine
 10
2130.707446946327
 20
539.4156400394736
 30
0.0
 11
2130.707446946327
 21
486.3321058323331
 31
0.0
  0
ARC
  5
279
330
1B
100
AcDbEntity
  8
4
100
AcDbCircle
 10
2140.707443946326
 20
522.0190560241931
 30
0.0
 40
13.7957441351769
100
AcDbArc
 50
66.57340249136868
 51
113.4265975086271
  0
LINE
  5
27A
330
1B
100
AcDbEntity
  8
4
100
AcDbLine
 10
2132.480202610375
 20
535.8148001593695
 30
0.0
 11
2148.93468528228
 21
535.8148001593695
 31
0.0
  0
LINE
  5
27B
330
1B
100
AcDbEntity
  8
4
100
AcDbLine
 10
2146.192271503628
 20
534.6776192487428
 30
0.0
 11
2146.192271503628
 21
527.8148001593695
 31
0.0
  0
LINE
  5
27C
330
1B
100
AcDbEntity
  8
4
100
AcDbLine
 10
2151.677099060931
 20
534.6776192487428
 30
0.0
 11
2151.677099060931
 21
524.8148001593695
 31
0.0
  0
ARC
  5
27D
330
1B
100
AcDbEntity
  8
4
100
AcDbCircle
 10
2148.93468528228
 20
531.9394212840921
 30
0.0
 40
3.875378875279244
100
AcDbArc
 50
44.95592676274758
 51
135.044073237262
  0
LINE
  5
27E
330
1B
100
AcDbEntity
  8
4
100
AcDbLine
 10
2135.222616389026
 20
534.6776192487428
 30
0.0
 11
2135.222616389026
 21
527.8148001593695
 31
0.0
  0
LINE
  5
27F
330
1B
100
AcDbEntity
  8
4
100
AcDbLine
 10
2196.676949110544
 20
527.8148001593695
 30
0.0
 11
2174.737638881339
 21
527.8148001593695
 31
0.0
  0
ARC
  5
280
330
1B
100
AcDbEntity
  8
4
100
AcDbCircle
 10
2185.707293995939
 20
522.0190560241931
 30
0.0
 40
13.7957441351769
100
AcDbArc
 50
66.57340249136868
 51
113.4265975086271
  0
LINE
  5
281
330
1B
100
AcDbEntity
  8
4
100
AcDbLine
 10
2177.480052659988
 20
535.8148001593695
 30
0.0
 11
2193.934535331893
 21
535.8148001593695
 31
0.0
  0
LINE
  5
282
330
1B
100
AcDbEntity
  8
4
100
AcDbLine
 10
2196.676949110544
 20
524.8148001593695
 30
0.0
 11
2174.737638881339
 21
524.8148001593695
 31
0.0
  0
LINE
  5
283
330
1B
100
AcDbEntity
  8
4
100
AcDbLine
 10
2191.192121553242
 20
534.6776192487428
 30
0.0
 11
2191.192121553242
 21
527.8148001593695
 31
0.0
  0
LINE
  5
284
330
1B
100
AcDbEntity
  8
4
100
AcDbLine
 10
2196.676949110544
 20
534.6776192487428
 30
0.0
 11
2196.676949110544
 21
524.8148001593695
 31
0.0
  0
ARC
  5
285
330
1B
100
AcDbEntity
  8
4
100
AcDbCircle
 10
2193.934535331893
 20
531.9394212840912
 30
0.0
 40
3.875378875279244
100
AcDbArc
 50
44.95592676273806
 51
135.0440732372524
  0
LINE
  5
286
330
1B
100
AcDbEntity
  8
4
100
AcDbLine
 10
2180.222466438639
 20
534.6776192487428
 30
0.0
 11
2180.222466438639
 21
527.8148001593695
 31
0.0
  0
LINE
  5
287
330
1B
100
AcDbEntity
  8
4
100
AcDbLine
 10
2174.737638881339
 20
524.8148001593695
 30
0.0
 11
2174.737638881339
 21
534.6776192487428
 31
0.0
  0
ARC
  5
288
330
1B
100
AcDbEntity
  8
4
100
AcDbCircle
 10
2177.480052659988
 20
531.9394212840912
 30
0.0
 40
3.875378875279264
100
AcDbArc
 50
44.95592676273806
 51
135.0440732372524
  0
LINE
  5
289
330
1B
100
AcDbEntity
  8
4
100
AcDbLine
 10
2193.934535331893
 20
535.8148001593695
 30
0.0
 11
2198.934385121587
 21
535.8148001593695
 31
0.0
  0
LINE
  5
28A
330
1B
100
AcDbEntity
  8
4
100
AcDbLine
 10
2201.676798900238
 20
534.6776192487428
 30
0.0
 11
2201.676798900238
 21
524.8148001593695
 31
0.0
  0
ARC
  5
28B
330
1B
100
AcDbEntity
  8
4
100
AcDbCircle
 10
2198.934385121585
 20
531.9394212840912
 30
0.0
 40
3.875378875279244
100
AcDbArc
 50
44.95592676273806
 51
130.1715865965468
  0
LINE
  5
28C
330
1B
100
AcDbEntity
  8
4
100
AcDbLine
 10
2201.676798900238
 20
527.8148001593695
 30
0.0
 11
2179.737488671031
 21
527.8148001593695
 31
0.0
  0
LINE
  5
28D
330
1B
100
AcDbEntity
  8
4
100
AcDbLine
 10
2201.676798900238
 20
524.8148001593695
 30
0.0
 11
2179.737488671031
 21
524.8148001593695
 31
0.0
  0
LINE
  5
28E
330
1B
100
AcDbEntity
  8
L-CENTER
100
AcDbLine
 10
2140.707443946326
 20
539.4156400394736
 30
0.0
 11
2140.707443946326
 21
486.3321058323331
 31
0.0
  0
LINE
  5
28F
330
1B
100
AcDbEntity
  8
L-CENTER
100
AcDbLine
 10
2190.707143785633
 20
539.4156400394736
 30
0.0
 11
2190.707143785633
 21
486.3321058323331
 31
0.0
  0
LINE
  5
290
330
1B
100
AcDbEntity
  8
L-CENTER
100
AcDbLine
 10
2185.707293995941
 20
539.4156400394736
 30
0.0
 11
2185.707293995941
 21
486.3321058323331
 31
0.0
  0
LINE
  5
291
330
1B
100
AcDbEntity
  8
4
100
AcDbLine
 10
2151.677099060931
 20
527.8148001593695
 30
0.0
 11
2129.737788831724
 21
527.8148001593695
 31
0.0
  0
LINE
  5
292
330
1B
100
AcDbEntity
  8
4
100
AcDbLine
 10
2151.677099060931
 20
524.8148001593695
 30
0.0
 11
2129.737788831724
 21
524.8148001593695
 31
0.0
  0
ARC
  5
293
330
1B
100
AcDbEntity
  8
4
100
AcDbCircle
 10
2132.480202610375
 20
531.9394212840921
 30
0.0
 40
3.875378875279264
100
AcDbArc
 50
44.95592676274758
 51
135.044073237262
  0
ARC
  5
294
330
1B
100
AcDbEntity
  8
4
100
AcDbCircle
 10
2275.70759537585
 20
522.0190560241931
 30
0.0
 40
13.7957441351769
100
AcDbArc
 50
66.57340249136868
 51
113.4265975086233
  0
LINE
  5
295
330
1B
100
AcDbEntity
  8
4
100
AcDbLine
 10
2267.480354039898
 20
535.8148001593695
 30
0.0
 11
2283.934836711803
 21
535.8148001593695
 31
0.0
  0
LINE
  5
296
330
1B
100
AcDbEntity
  8
4
100
AcDbLine
 10
2281.192422933152
 20
534.6776192487428
 30
0.0
 11
2281.192422933152
 21
527.8148001593695
 31
0.0
  0
LINE
  5
297
330
1B
100
AcDbEntity
  8
4
100
AcDbLine
 10
2286.677250490454
 20
534.6776192487428
 30
0.0
 11
2286.677250490454
 21
524.8148001593695
 31
0.0
  0
ARC
  5
298
330
1B
100
AcDbEntity
  8
4
100
AcDbCircle
 10
2283.934836711803
 20
531.9394212840912
 30
0.0
 40
3.875378875279244
100
AcDbArc
 50
44.9559267627547
 51
135.044073237262
  0
LINE
  5
299
330
1B
100
AcDbEntity
  8
4
100
AcDbLine
 10
2270.22276781855
 20
534.6776192487428
 30
0.0
 11
2270.22276781855
 21
527.8148001593695
 31
0.0
  0
LINE
  5
29A
330
1B
100
AcDbEntity
  8
4
100
AcDbLine
 10
2321.676801839403
 20
527.8148001593695
 30
0.0
 11
2299.737491610196
 21
527.8148001593695
 31
0.0
  0
LINE
  5
29B
330
1B
100
AcDbEntity
  8
4
100
AcDbLine
 10
2302.479905388847
 20
535.8148001593695
 30
0.0
 11
2318.934388060752
 21
535.8148001593695
 31
0.0
  0
LINE
  5
29C
330
1B
100
AcDbEntity
  8
4
100
AcDbLine
 10
2321.676801839403
 20
524.8148001593695
 30
0.0
 11
2299.737491610196
 21
524.8148001593695
 31
0.0
  0
LINE
  5
29D
330
1B
100
AcDbEntity
  8
4
100
AcDbLine
 10
2305.222319167498
 20
534.6776192487428
 30
0.0
 11
2305.222319167498
 21
527.8148001593695
 31
0.0
  0
LINE
  5
29E
330
1B
100
AcDbEntity
  8
4
100
AcDbLine
 10
2299.737491610196
 20
524.8148001593695
 30
0.0
 11
2299.737491610196
 21
534.6776192487428
 31
0.0
  0
ARC
  5
29F
330
1B
100
AcDbEntity
  8
4
100
AcDbCircle
 10
2302.479905388845
 20
531.9394212840912
 30
0.0
 40
3.875378875279264
100
AcDbArc
 50
44.95592676273806
 51
135.0440732372453
  0
LINE
  5
2A0
330
1B
100
AcDbEntity
  8
4
100
AcDbLine
 10
2331.67710106093
 20
527.8148001593695
 30
0.0
 11
2309.737790831724
 21
527.8148001593695
 31
0.0
  0
ARC
  5
2A1
330
1B
100
AcDbEntity
  8
4
100
AcDbCircle
 10
2320.707445946327
 20
522.0190560241931
 30
0.0
 40
13.7957441351769
100
AcDbArc
 50
66.57340249137673
 51
113.4265975086313
  0
LINE
  5
2A2
330
1B
100
AcDbEntity
  8
4
100
AcDbLine
 10
2312.480204610374
 20
535.8148001593695
 30
0.0
 11
2328.934687282278
 21
535.8148001593695
 31
0.0
  0
LINE
  5
2A3
330
1B
100
AcDbEntity
  8
4
100
AcDbLine
 10
2331.67710106093
 20
524.8148001593695
 30
0.0
 11
2309.737790831724
 21
524.8148001593695
 31
0.0
  0
LINE
  5
2A4
330
1B
100
AcDbEntity
  8
4
100
AcDbLine
 10
2326.192273503627
 20
534.6776192487428
 30
0.0
 11
2326.192273503627
 21
527.8148001593695
 31
0.0
  0
LINE
  5
2A5
330
1B
100
AcDbEntity
  8
4
100
AcDbLine
 10
2331.67710106093
 20
534.6776192487428
 30
0.0
 11
2331.67710106093
 21
524.8148001593695
 31
0.0
  0
ARC
  5
2A6
330
1B
100
AcDbEntity
  8
4
100
AcDbCircle
 10
2328.934687282278
 20
531.9394212840921
 30
0.0
 40
3.875378875279244
100
AcDbArc
 50
44.95592676273806
 51
135.0440732372453
  0
LINE
  5
2A7
330
1B
100
AcDbEntity
  8
4
100
AcDbLine
 10
2315.222618389025
 20
534.6776192487428
 30
0.0
 11
2315.222618389025
 21
527.8148001593695
 31
0.0
  0
LINE
  5
2A8
330
1B
100
AcDbEntity
  8
4
100
AcDbLine
 10
2309.737790831724
 20
524.8148001593695
 30
0.0
 11
2309.737790831724
 21
534.6776192487428
 31
0.0
  0
ARC
  5
2A9
330
1B
100
AcDbEntity
  8
4
100
AcDbCircle
 10
2312.480204610374
 20
531.9394212840921
 30
0.0
 40
3.875378875279264
100
AcDbArc
 50
44.95592676273806
 51
135.0440732372453
  0
ARC
  5
2AA
330
1B
100
AcDbEntity
  8
4
100
AcDbCircle
 10
2310.707146724798
 20
522.0190560241931
 30
0.0
 40
13.7957441351769
100
AcDbArc
 50
85.1776269230303
 51
113.4265975086233
  0
LINE
  5
2AB
330
1B
100
AcDbEntity
  8
L-CENTER
100
AcDbLine
 10
2275.70759537585
 20
539.4156400394736
 30
0.0
 11
2275.70759537585
 21
486.3321058323331
 31
0.0
  0
LINE
  5
2AC
330
1B
100
AcDbEntity
  8
L-CENTER
100
AcDbLine
 10
2310.707146724798
 20
539.4156400394736
 30
0.0
 11
2310.707146724798
 21
486.3321058323331
 31
0.0
  0
LINE
  5
2AD
330
1B
100
AcDbEntity
  8
L-CENTER
100
AcDbLine
 10
2320.707445946327
 20
539.4156400394736
 30
0.0
 11
2320.707445946327
 21
486.3321058323331
 31
0.0
  0
LINE
  5
2AE
330
1B
100
AcDbEntity
  8
4
100
AcDbLine
 10
2381.677100060931
 20
527.8148001593695
 30
0.0
 11
2359.737789831724
 21
527.8148001593695
 31
0.0
  0
ARC
  5
2AF
330
1B
100
AcDbEntity
  8
4
100
AcDbCircle
 10
2370.707444946327
 20
522.019056024194
 30
0.0
 40
13.7957441351769
100
AcDbArc
 50
66.57340249136868
 51
113.4265975086233
  0
LINE
  5
2B0
330
1B
100
AcDbEntity
  8
4
100
AcDbLine
 10
2362.480203610375
 20
535.8148001593695
 30
0.0
 11
2378.93468628228
 21
535.8148001593695
 31
0.0
  0
LINE
  5
2B1
330
1B
100
AcDbEntity
  8
4
100
AcDbLine
 10
2381.677100060931
 20
524.8148001593695
 30
0.0
 11
2359.737789831724
 21
524.8148001593695
 31
0.0
  0
LINE
  5
2B2
330
1B
100
AcDbEntity
  8
4
100
AcDbLine
 10
2376.192272503629
 20
534.6776192487437
 30
0.0
 11
2376.192272503629
 21
527.8148001593695
 31
0.0
  0
LINE
  5
2B3
330
1B
100
AcDbEntity
  8
4
100
AcDbLine
 10
2381.677100060931
 20
534.6776192487437
 30
0.0
 11
2381.677100060931
 21
524.8148001593695
 31
0.0
  0
ARC
  5
2B4
330
1B
100
AcDbEntity
  8
4
100
AcDbCircle
 10
2378.934686282278
 20
531.9394212840921
 30
0.0
 40
3.875378875279244
100
AcDbArc
 50
44.95592676273806
 51
135.0440732372453
  0
LINE
  5
2B5
330
1B
100
AcDbEntity
  8
4
100
AcDbLine
 10
2365.222617389026
 20
534.6776192487437
 30
0.0
 11
2365.222617389026
 21
527.8148001593695
 31
0.0
  0
LINE
  5
2B6
330
1B
100
AcDbEntity
  8
4
100
AcDbLine
 10
2359.737789831724
 20
524.8148001593695
 30
0.0
 11
2359.737789831724
 21
534.6776192487437
 31
0.0
  0
ARC
  5
2B7
330
1B
100
AcDbEntity
  8
4
100
AcDbCircle
 10
2362.480203610373
 20
531.9394212840921
 30
0.0
 40
3.875378875279264
100
AcDbArc
 50
44.95592676273806
 51
135.0440732372453
  0
LINE
  5
2B8
330
1B
100
AcDbEntity
  8
L-CENTER
100
AcDbLine
 10
2370.707444946327
 20
539.4156400394736
 30
0.0
 11
2370.707444946327
 21
486.3321058323331
 31
0.0
  0
LINE
  5
2B9
330
1B
100
AcDbEntity
  8
4
100
AcDbLine
 10
2198.207445946327
 20
717.81479615937
 30
0.0
 11
2200.207443946326
 21
719.8147941593693
 31
0.0
  0
LINE
  5
2BA
330
1B
100
AcDbEntity
  8
4
100
AcDbLine
 10
2110.707445946327
 20
524.8148001593695
 30
0.0
 11
2110.707445946327
 21
509.8147941593693
 31
0.0
  0
LINE
  5
2BB
330
1B
100
AcDbEntity
  8
4
100
AcDbLine
 10
2120.707449946327
 20
524.8148001593695
 30
0.0
 11
2120.707449946327
 21
509.8147941593693
 31
0.0
  0
LINE
  5
2BC
330
1B
100
AcDbEntity
  8
4
100
AcDbLine
 10
2110.707445946327
 20
503.8147941593693
 30
0.0
 11
2110.707445946327
 21
509.8147941593693
 31
0.0
  0
LINE
  5
2BD
330
1B
100
AcDbEntity
  8
4
100
AcDbLine
 10
2120.707449946327
 20
503.8147941593693
 30
0.0
 11
2120.707449946327
 21
509.8147941593693
 31
0.0
  0
LINE
  5
2BE
330
1B
100
AcDbEntity
  8
4
100
AcDbLine
 10
2198.207445946327
 20
549.81479615937
 30
0.0
 11
2189.207447946328
 21
549.81479615937
 31
0.0
  0
LINE
  5
2BF
330
1B
100
AcDbEntity
  8
4
100
AcDbLine
 10
2195.707444946327
 20
535.8148001593695
 30
0.0
 11
2195.707444946327
 21
539.8147991593692
 31
0.0
  0
LINE
  5
2C0
330
1B
100
AcDbEntity
  8
4
100
AcDbLine
 10
2189.207447946328
 20
719.8147941593693
 30
0.0
 11
2189.207447946328
 21
549.81479615937
 31
0.0
  0
LINE
  5
2C1
330
1B
100
AcDbEntity
  8
4
100
AcDbLine
 10
2198.207445946327
 20
539.8147991593692
 30
0.0
 11
2198.207445946327
 21
717.81479615937
 31
0.0
  0
LINE
  5
2C2
330
1B
100
AcDbEntity
  8
4
100
AcDbLine
 10
2301.207447946328
 20
719.8147941593693
 30
0.0
 11
2303.207445946327
 21
717.81479615937
 31
0.0
  0
LINE
  5
2C4
330
1B
100
AcDbEntity
  8
4
100
AcDbLine
 10
2305.707446946327
 20
535.8148001593695
 30
0.0
 11
2305.707446946327
 21
539.8147991593692
 31
0.0
  0
LINE
  5
2C5
330
1B
100
AcDbEntity
  8
4
100
AcDbLine
 10
2340.707446946327
 20
524.8148001593695
 30
0.0
 11
2340.707446946327
 21
509.8147941593693
 31
0.0
  0
LINE
  5
2C6
330
1B
100
AcDbEntity
  8
4
100
AcDbLine
 10
2340.707446946327
 20
509.8147941593693
 30
0.0
 11
2340.707446946327
 21
503.8147941593693
 31
0.0
  0
LINE
  5
2C7
330
1B
100
AcDbEntity
  8
4
100
AcDbLine
 10
2390.707445946327
 20
524.8148001593695
 30
0.0
 11
2390.707445946327
 21
509.8147941593693
 31
0.0
  0
LINE
  5
2C8
330
1B
100
AcDbEntity
  8
4
100
AcDbLine
 10
2390.707445946327
 20
503.8147941593693
 30
0.0
 11
2390.707445946327
 21
509.8147941593693
 31
0.0
  0
LINE
  5
2C9
330
1B
100
AcDbEntity
  8
4
100
AcDbLine
 10
2303.207445946327
 20
539.8147991593692
 30
0.0
 11
2303.207445946327
 21
717.81479615937
 31
0.0
  0
LINE
  5
2CA
330
1B
100
AcDbEntity
  8
4
100
AcDbLine
 10
2301.207447946328
 20
719.8147941593693
 30
0.0
 11
2189.207447946328
 21
719.8147941593693
 31
0.0
  0
LINE
  5
2CB
330
1B
100
AcDbEntity
  8
4
100
AcDbLine
 10
2198.207445946327
 20
717.81479615937
 30
0.0
 11
2303.207445946327
 21
717.81479615937
 31
0.0
  0
LINE
  5
2CC
330
1B
100
AcDbEntity
  8
4
100
AcDbLine
 10
2305.707446946327
 20
539.8147991593692
 30
0.0
 11
2195.707444946327
 21
539.8147991593692
 31
0.0
  0
LINE
  5
2CD
330
1B
100
AcDbEntity
  8
4
100
AcDbLine
 10
2264.737940261247
 20
525.8147991593692
 30
0.0
 11
2201.676798900238
 21
525.8147991593692
 31
0.0
  0
LINE
  5
2CE
330
1B
100
AcDbEntity
  8
4
100
AcDbLine
 10
2390.707445946327
 20
524.8148001593695
 30
0.0
 11
2110.707445946327
 21
524.8148001593695
 31
0.0
  0
LINE
  5
2CF
330
1B
100
AcDbEntity
  8
4
100
AcDbLine
 10
2390.707445946327
 20
509.8147941593693
 30
0.0
 11
2110.707445946327
 21
509.8147941593693
 31
0.0
  0
LINE
  5
2D0
330
1B
100
AcDbEntity
  8
CENTER
100
AcDbLine
 10
2250.707445946327
 20
140.818687359782
 30
0.0
 11
2250.707445946327
 21
734.0193429924343
 31
0.0
  0
ARC
  5
2D1
330
1B
100
AcDbEntity
  8
4
100
AcDbCircle
 10
2362.480203610375
 20
143.6901690346476
 30
0.0
 40
3.875378875279264
100
AcDbArc
 50
224.955926762738
 51
315.0440732372441
  0
LINE
  5
2D2
330
1B
100
AcDbEntity
  8
4
100
AcDbLine
 10
2359.737789831726
 20
150.8147901593688
 30
0.0
 11
2359.737789831726
 21
140.9519710699965
 31
0.0
  0
LINE
  5
2D3
330
1B
100
AcDbEntity
  8
4
100
AcDbLine
 10
2365.222617389026
 20
140.9519710699965
 30
0.0
 11
2365.222617389026
 21
147.8147901593688
 31
0.0
  0
ARC
  5
2D4
330
1B
100
AcDbEntity
  8
4
100
AcDbCircle
 10
2378.93468628228
 20
143.6901690346476
 30
0.0
 40
3.875378875279244
100
AcDbArc
 50
224.9559267627369
 51
315.0440732372441
  0
LINE
  5
2D5
330
1B
100
AcDbEntity
  8
4
100
AcDbLine
 10
2381.677100060931
 20
140.9519710699965
 30
0.0
 11
2381.677100060931
 21
150.8147901593688
 31
0.0
  0
LINE
  5
2D6
330
1B
100
AcDbEntity
  8
4
100
AcDbLine
 10
2376.192272503629
 20
140.9519710699965
 30
0.0
 11
2376.192272503629
 21
147.8147901593688
 31
0.0
  0
LINE
  5
2D7
330
1B
100
AcDbEntity
  8
4
100
AcDbLine
 10
2381.677100060931
 20
150.8147901593688
 30
0.0
 11
2359.737789831726
 21
150.8147901593688
 31
0.0
  0
LINE
  5
2D8
330
1B
100
AcDbEntity
  8
4
100
AcDbLine
 10
2362.480203610375
 20
139.8147901593688
 30
0.0
 11
2378.93468628228
 21
139.8147901593688
 31
0.0
  0
ARC
  5
2D9
330
1B
100
AcDbEntity
  8
4
100
AcDbCircle
 10
2370.707444946327
 20
153.6105342945457
 30
0.0
 40
13.7957441351769
100
AcDbArc
 50
246.5734024913769
 51
293.4265975086313
  0
LINE
  5
2DA
330
1B
100
AcDbEntity
  8
4
100
AcDbLine
 10
2381.677100060931
 20
147.8147901593688
 30
0.0
 11
2359.737789831726
 21
147.8147901593688
 31
0.0
  0
ARC
  5
2DB
330
1B
100
AcDbEntity
  8
4
100
AcDbCircle
 10
2312.480204610375
 20
143.6901690346485
 30
0.0
 40
3.875378875279264
100
AcDbArc
 50
224.955926762738
 51
315.0440732372441
  0
LINE
  5
2DC
330
1B
100
AcDbEntity
  8
4
100
AcDbLine
 10
2309.737790831724
 20
150.8147901593697
 30
0.0
 11
2309.737790831724
 21
140.9519710699965
 31
0.0
  0
LINE
  5
2DD
330
1B
100
AcDbEntity
  8
4
100
AcDbLine
 10
2315.222618389027
 20
140.9519710699965
 30
0.0
 11
2315.222618389027
 21
147.8147901593697
 31
0.0
  0
ARC
  5
2DE
330
1B
100
AcDbEntity
  8
4
100
AcDbCircle
 10
2328.93468728228
 20
143.6901690346485
 30
0.0
 40
3.875378875279244
100
AcDbArc
 50
224.9559267627369
 51
315.0440732372441
  0
LINE
  5
2DF
330
1B
100
AcDbEntity
  8
4
100
AcDbLine
 10
2331.677101060931
 20
140.9519710699965
 30
0.0
 11
2331.677101060931
 21
150.8147901593697
 31
0.0
  0
LINE
  5
2E0
330
1B
100
AcDbEntity
  8
4
100
AcDbLine
 10
2326.192273503629
 20
140.9519710699965
 30
0.0
 11
2326.192273503629
 21
147.8147901593697
 31
0.0
  0
LINE
  5
2E1
330
1B
100
AcDbEntity
  8
4
100
AcDbLine
 10
2331.677101060931
 20
150.8147901593697
 30
0.0
 11
2309.737790831724
 21
150.8147901593697
 31
0.0
  0
LINE
  5
2E2
330
1B
100
AcDbEntity
  8
4
100
AcDbLine
 10
2312.480204610375
 20
139.8147901593697
 30
0.0
 11
2328.93468728228
 21
139.8147901593697
 31
0.0
  0
ARC
  5
2E3
330
1B
100
AcDbEntity
  8
4
100
AcDbCircle
 10
2320.707445946327
 20
153.6105342945457
 30
0.0
 40
13.7957441351769
100
AcDbArc
 50
246.5734024913769
 51
293.4265975086313
  0
LINE
  5
2E4
330
1B
100
AcDbEntity
  8
4
100
AcDbLine
 10
2331.677101060931
 20
147.8147901593697
 30
0.0
 11
2309.737790831724
 21
147.8147901593697
 31
0.0
  0
ARC
  5
2E5
330
1B
100
AcDbEntity
  8
4
100
AcDbCircle
 10
2302.479905388847
 20
143.6901690346485
 30
0.0
 40
3.875378875279264
100
AcDbArc
 50
224.955926762738
 51
315.0440732372441
  0
LINE
  5
2E6
330
1B
100
AcDbEntity
  8
4
100
AcDbLine
 10
2299.737491610198
 20
150.8147901593697
 30
0.0
 11
2299.737491610198
 21
140.9519710699965
 31
0.0
  0
LINE
  5
2E7
330
1B
100
AcDbEntity
  8
4
100
AcDbLine
 10
2305.222319167498
 20
140.9519710699965
 30
0.0
 11
2305.222319167498
 21
147.8147901593697
 31
0.0
  0
LINE
  5
2E8
330
1B
100
AcDbEntity
  8
4
100
AcDbLine
 10
2321.676801839403
 20
150.8147901593697
 30
0.0
 11
2299.737491610198
 21
150.8147901593697
 31
0.0
  0
LINE
  5
2E9
330
1B
100
AcDbEntity
  8
4
100
AcDbLine
 10
2302.479905388847
 20
139.8147901593697
 30
0.0
 11
2318.934388060752
 21
139.8147901593697
 31
0.0
  0
ARC
  5
2EA
330
1B
100
AcDbEntity
  8
4
100
AcDbCircle
 10
2310.707146724798
 20
153.6105342945466
 30
0.0
 40
13.7957441351769
100
AcDbArc
 50
246.5734024913769
 51
274.8223730769697
  0
LINE
  5
2EB
330
1B
100
AcDbEntity
  8
4
100
AcDbLine
 10
2321.676801839403
 20
147.8147901593697
 30
0.0
 11
2299.737491610198
 21
147.8147901593697
 31
0.0
  0
ARC
  5
2EC
330
1B
100
AcDbEntity
  8
4
100
AcDbCircle
 10
2267.480354039898
 20
143.6901690346485
 30
0.0
 40
3.875378875279264
100
AcDbArc
 50
224.9559267627487
 51
315.044073237262
  0
LINE
  5
2ED
330
1B
100
AcDbEntity
  8
4
100
AcDbLine
 10
2264.737940261249
 20
150.8147901593697
 30
0.0
 11
2264.737940261249
 21
140.9519710699965
 31
0.0
  0
LINE
  5
2EE
330
1B
100
AcDbEntity
  8
4
100
AcDbLine
 10
2270.22276781855
 20
140.9519710699965
 30
0.0
 11
2270.22276781855
 21
147.8147901593697
 31
0.0
  0
ARC
  5
2EF
330
1B
100
AcDbEntity
  8
4
100
AcDbCircle
 10
2283.934836711803
 20
143.6901690346485
 30
0.0
 40
3.875378875279244
100
AcDbArc
 50
224.9559267627547
 51
315.044073237262
  0
LINE
  5
2F0
330
1B
100
AcDbEntity
  8
4
100
AcDbLine
 10
2286.677250490454
 20
140.9519710699965
 30
0.0
 11
2286.677250490454
 21
150.8147901593697
 31
0.0
  0
LINE
  5
2F1
330
1B
100
AcDbEntity
  8
4
100
AcDbLine
 10
2281.192422933152
 20
140.9519710699965
 30
0.0
 11
2281.192422933152
 21
147.8147901593697
 31
0.0
  0
LINE
  5
2F2
330
1B
100
AcDbEntity
  8
4
100
AcDbLine
 10
2286.677250490454
 20
150.8147901593697
 30
0.0
 11
2264.737940261249
 21
150.8147901593697
 31
0.0
  0
LINE
  5
2F3
330
1B
100
AcDbEntity
  8
4
100
AcDbLine
 10
2267.480354039898
 20
139.8147901593697
 30
0.0
 11
2283.934836711803
 21
139.8147901593697
 31
0.0
  0
ARC
  5
2F4
330
1B
100
AcDbEntity
  8
4
100
AcDbCircle
 10
2275.707595375852
 20
153.6105342945466
 30
0.0
 40
13.7957441351769
100
AcDbArc
 50
246.5734024913687
 51
293.4265975086231
  0
LINE
  5
2F5
330
1B
100
AcDbEntity
  8
4
100
AcDbLine
 10
2286.677250490454
 20
147.8147901593697
 30
0.0
 11
2264.737940261249
 21
147.8147901593697
 31
0.0
  0
ARC
  5
2F6
330
1B
100
AcDbEntity
  8
4
100
AcDbCircle
 10
2177.480052659988
 20
143.6901690346485
 30
0.0
 40
3.875378875279264
100
AcDbArc
 50
224.9559267627487
 51
315.044073237262
  0
LINE
  5
2F7
330
1B
100
AcDbEntity
  8
4
100
AcDbLine
 10
2174.737638881339
 20
150.8147901593697
 30
0.0
 11
2174.737638881339
 21
140.9519710699965
 31
0.0
  0
LINE
  5
2F8
330
1B
100
AcDbEntity
  8
4
100
AcDbLine
 10
2180.222466438641
 20
140.9519710699965
 30
0.0
 11
2180.222466438641
 21
147.8147901593697
 31
0.0
  0
ARC
  5
2F9
330
1B
100
AcDbEntity
  8
4
100
AcDbCircle
 10
2193.934535331893
 20
143.6901690346485
 30
0.0
 40
3.875378875279244
100
AcDbArc
 50
224.9559267627476
 51
315.044073237262
  0
LINE
  5
2FA
330
1B
100
AcDbEntity
  8
4
100
AcDbLine
 10
2196.676949110546
 20
140.9519710699965
 30
0.0
 11
2196.676949110546
 21
150.8147901593697
 31
0.0
  0
LINE
  5
2FB
330
1B
100
AcDbEntity
  8
4
100
AcDbLine
 10
2191.192121553243
 20
140.9519710699965
 30
0.0
 11
2191.192121553243
 21
147.8147901593697
 31
0.0
  0
LINE
  5
2FC
330
1B
100
AcDbEntity
  8
4
100
AcDbLine
 10
2196.676949110546
 20
150.8147901593697
 30
0.0
 11
2174.737638881339
 21
150.8147901593697
 31
0.0
  0
LINE
  5
2FD
330
1B
100
AcDbEntity
  8
4
100
AcDbLine
 10
2177.48005265999
 20
139.8147901593697
 30
0.0
 11
2193.934535331894
 21
139.8147901593697
 31
0.0
  0
ARC
  5
2FE
330
1B
100
AcDbEntity
  8
4
100
AcDbCircle
 10
2185.707293995941
 20
153.6105342945466
 30
0.0
 40
13.7957441351769
100
AcDbArc
 50
246.5734024913687
 51
293.4265975086273
  0
LINE
  5
2FF
330
1B
100
AcDbEntity
  8
4
100
AcDbLine
 10
2196.676949110546
 20
147.8147901593697
 30
0.0
 11
2174.737638881339
 21
147.8147901593697
 31
0.0
  0
ARC
  5
300
330
1B
100
AcDbEntity
  8
4
100
AcDbCircle
 10
2198.934385121587
 20
143.6901690346485
 30
0.0
 40
3.875378875279244
100
AcDbArc
 50
229.8284134034364
 51
315.0440732372441
  0
LINE
  5
301
330
1B
100
AcDbEntity
  8
4
100
AcDbLine
 10
2201.676798900238
 20
140.9519710699965
 30
0.0
 11
2201.676798900238
 21
150.8147901593697
 31
0.0
  0
LINE
  5
302
330
1B
100
AcDbEntity
  8
4
100
AcDbLine
 10
2201.676798900238
 20
150.8147901593697
 30
0.0
 11
2179.737488671031
 21
150.8147901593697
 31
0.0
  0
LINE
  5
303
330
1B
100
AcDbEntity
  8
4
100
AcDbLine
 10
2193.934535331894
 20
139.8147901593697
 30
0.0
 11
2198.934385121587
 21
139.8147901593697
 31
0.0
  0
LINE
  5
304
330
1B
100
AcDbEntity
  8
4
100
AcDbLine
 10
2201.676798900238
 20
147.8147901593697
 30
0.0
 11
2179.737488671031
 21
147.8147901593697
 31
0.0
  0
ARC
  5
305
330
1B
100
AcDbEntity
  8
4
100
AcDbCircle
 10
2132.480202610375
 20
143.6901690346485
 30
0.0
 40
3.875378875279264
100
AcDbArc
 50
224.9559267627487
 51
315.044073237262
  0
LINE
  5
306
330
1B
100
AcDbEntity
  8
4
100
AcDbLine
 10
2129.737788831726
 20
150.8147901593697
 30
0.0
 11
2129.737788831726
 21
140.9519710699965
 31
0.0
  0
LINE
  5
307
330
1B
100
AcDbEntity
  8
4
100
AcDbLine
 10
2135.222616389026
 20
140.9519710699965
 30
0.0
 11
2135.222616389026
 21
147.8147901593697
 31
0.0
  0
ARC
  5
308
330
1B
100
AcDbEntity
  8
4
100
AcDbCircle
 10
2148.93468528228
 20
143.6901690346485
 30
0.0
 40
3.875378875279244
100
AcDbArc
 50
224.9559267627476
 51
315.044073237262
  0
LINE
  5
309
330
1B
100
AcDbEntity
  8
4
100
AcDbLine
 10
2151.677099060931
 20
140.9519710699965
 30
0.0
 11
2151.677099060931
 21
150.8147901593697
 31
0.0
  0
LINE
  5
30A
330
1B
100
AcDbEntity
  8
4
100
AcDbLine
 10
2146.192271503628
 20
140.9519710699965
 30
0.0
 11
2146.192271503628
 21
147.8147901593697
 31
0.0
  0
LINE
  5
30B
330
1B
100
AcDbEntity
  8
4
100
AcDbLine
 10
2151.677099060931
 20
150.8147901593697
 30
0.0
 11
2129.737788831726
 21
150.8147901593697
 31
0.0
  0
LINE
  5
30C
330
1B
100
AcDbEntity
  8
4
100
AcDbLine
 10
2132.480202610375
 20
139.8147901593697
 30
0.0
 11
2148.93468528228
 21
139.8147901593697
 31
0.0
  0
ARC
  5
30D
330
1B
100
AcDbEntity
  8
4
100
AcDbCircle
 10
2140.707443946328
 20
153.6105342945457
 30
0.0
 40
13.7957441351769
100
AcDbArc
 50
246.5734024913687
 51
293.4265975086273
  0
LINE
  5
30E
330
1B
100
AcDbEntity
  8
4
100
AcDbLine
 10
2151.677099060931
 20
147.8147901593697
 30
0.0
 11
2129.737788831726
 21
147.8147901593697
 31
0.0
  0
ARC
  5
30F
330
1B
100
AcDbEntity
  8
4
100
AcDbCircle
 10
2122.480205610374
 20
143.6901690346485
 30
0.0
 40
3.875378875279264
100
AcDbArc
 50
224.9559267627487
 51
315.044073237262
  0
LINE
  5
310
330
1B
100
AcDbEntity
  8
4
100
AcDbLine
 10
2119.737791831725
 20
150.8147901593697
 30
0.0
 11
2119.737791831725
 21
140.9519710699965
 31
0.0
  0
LINE
  5
311
330
1B
100
AcDbEntity
  8
4
100
AcDbLine
 10
2125.222619389027
 20
140.9519710699965
 30
0.0
 11
2125.222619389027
 21
147.8147901593697
 31
0.0
  0
LINE
  5
312
330
1B
100
AcDbEntity
  8
4
100
AcDbLine
 10
2141.677102060932
 20
150.8147901593697
 30
0.0
 11
2119.737791831725
 21
150.8147901593697
 31
0.0
  0
LINE
  5
313
330
1B
100
AcDbEntity
  8
4
100
AcDbLine
 10
2122.480205610376
 20
139.8147901593697
 30
0.0
 11
2138.934688282281
 21
139.8147901593697
 31
0.0
  0
ARC
  5
314
330
1B
100
AcDbEntity
  8
4
100
AcDbCircle
 10
2130.707446946327
 20
153.6105342945457
 30
0.0
 40
13.7957441351769
100
AcDbArc
 50
246.5734024913687
 51
274.8215478413529
  0
LINE
  5
315
330
1B
100
AcDbEntity
  8
4
100
AcDbLine
 10
2141.677102060932
 20
147.8147901593697
 30
0.0
 11
2119.737791831725
 21
147.8147901593697
 31
0.0
  0
LINE
  5
316
330
1B
100
AcDbEntity
  8
4
100
AcDbLine
 10
2110.707445946327
 20
150.8147901593697
 30
0.0
 11
2110.707445946327
 21
154.8147941593695
 31
0.0
  0
LINE
  5
317
330
1B
100
AcDbEntity
  8
4
100
AcDbLine
 10
2120.707449946328
 20
150.8147901593697
 30
0.0
 11
2120.707449946328
 21
154.8147941593695
 31
0.0
  0
LINE
  5
318
330
1B
100
AcDbEntity
  8
4
100
AcDbLine
 10
2340.707446946327
 20
150.8147901593697
 30
0.0
 11
2340.707446946327
 21
154.8147941593695
 31
0.0
  0
LINE
  5
319
330
1B
100
AcDbEntity
  8
4
100
AcDbLine
 10
2390.707445946327
 20
150.8147901593697
 30
0.0
 11
2390.707445946327
 21
154.8147941593695
 31
0.0
  0
LINE
  5
31A
330
1B
100
AcDbEntity
  8
4
100
AcDbLine
 10
2110.707445946327
 20
150.8147901593697
 30
0.0
 11
2390.707445946327
 21
150.8147901593697
 31
0.0
  0
LINE
  5
31B
330
1B
100
AcDbEntity
  8
L-CENTER
100
AcDbLine
 10
2185.707293995941
 20
136.2139502792656
 30
0.0
 11
2185.707293995941
 21
189.2974844864061
 31
0.0
  0
LINE
  5
31C
330
1B
100
AcDbEntity
  8
L-CENTER
100
AcDbLine
 10
2190.707143785633
 20
136.2139502792656
 30
0.0
 11
2190.707143785633
 21
189.2974844864061
 31
0.0
  0
LINE
  5
31D
330
1B
100
AcDbEntity
  8
L-CENTER
100
AcDbLine
 10
2140.707443946328
 20
136.2139502792656
 30
0.0
 11
2140.707443946328
 21
189.2974844864061
 31
0.0
  0
LINE
  5
31E
330
1B
100
AcDbEntity
  8
L-CENTER
100
AcDbLine
 10
2130.707446946327
 20
136.2139502792656
 30
0.0
 11
2130.707446946327
 21
189.2974844864061
 31
0.0
  0
LINE
  5
31F
330
1B
100
AcDbEntity
  8
L-CENTER
100
AcDbLine
 10
2370.707444946328
 20
136.2139502792647
 30
0.0
 11
2370.707444946328
 21
189.2974844864052
 31
0.0
  0
LINE
  5
320
330
1B
100
AcDbEntity
  8
L-CENTER
100
AcDbLine
 10
2320.707445946327
 20
136.2139502792656
 30
0.0
 11
2320.707445946327
 21
189.2974844864061
 31
0.0
  0
LINE
  5
321
330
1B
100
AcDbEntity
  8
L-CENTER
100
AcDbLine
 10
2310.7071467248
 20
136.2139502792656
 30
0.0
 11
2310.7071467248
 21
189.2974844864061
 31
0.0
  0
LINE
  5
322
330
1B
100
AcDbEntity
  8
L-CENTER
100
AcDbLine
 10
2275.707595375852
 20
136.2139502792656
 30
0.0
 11
2275.707595375852
 21
189.2974844864061
 31
0.0
  0
LINE
  5
323
330
1B
100
AcDbEntity
  8
4
100
AcDbLine
 10
750.4041808873058
 20
1560.31677949907
 30
0.0
 11
722.4041808873058
 21
1560.31677949907
 31
0.0
  0
LINE
  5
324
330
1B
100
AcDbEntity
  8
4
100
AcDbLine
 10
722.4041808873058
 20
1578.316775499069
 30
0.0
 11
750.4041808873058
 21
1578.316775499069
 31
0.0
  0
ARC
  5
325
330
1B
100
AcDbEntity
  8
4
100
AcDbCircle
 10
736.4041808873058
 20
1621.81677749907
 30
0.0
 40
52.500014
100
AcDbArc
 50
285.4660057259744
 51
254.5339950000001
  0
LINE
  5
326
330
1B
100
AcDbEntity
  8
4
100
AcDbLine
 10
722.4041808873058
 20
1560.31677949907
 30
0.0
 11
722.4041808873058
 21
1578.316775499069
 31
0.0
  0
LINE
  5
327
330
1B
100
AcDbEntity
  8
4
100
AcDbLine
 10
750.4041808873058
 20
1560.31677949907
 30
0.0
 11
750.4041808873058
 21
1578.316775499069
 31
0.0
  0
CIRCLE
  5
328
330
1B
100
AcDbEntity
  8
4
100
AcDbCircle
 10
736.4041808873058
 20
1621.81677749907
 30
0.0
 40
70.00580180323877
  0
LINE
  5
329
330
1B
100
AcDbEntity
  8
4
100
AcDbLine
 10
637.9657878495977
 20
1691.316477341328
 30
0.0
 11
626.9961327349952
 21
1691.316477341328
 31
0.0
  0
LINE
  5
32A
330
1B
100
AcDbEntity
  8
4
100
AcDbLine
 10
637.9657878495977
 20
1672.316477341328
 30
0.0
 11
643.4506154068999
 21
1681.816477341328
 31
0.0
  0
LINE
  5
32B
330
1B
100
AcDbEntity
  8
4
100
AcDbLine
 10
626.9961327349952
 20
1672.316477341328
 30
0.0
 11
637.9657878495977
 21
1672.316477341328
 31
0.0
  0
LINE
  5
32C
330
1B
100
AcDbEntity
  8
4
100
AcDbLine
 10
621.5113051776948
 20
1681.816477341328
 30
0.0
 11
626.9961327349952
 21
1672.316477341328
 31
0.0
  0
CIRCLE
  5
32D
330
1B
100
AcDbEntity
  8
4
100
AcDbCircle
 10
632.4809602922974
 20
1681.816477341328
 30
0.0
 40
9.5
  0
LINE
  5
32E
330
1B
100
AcDbEntity
  8
4
100
AcDbLine
 10
643.4506154068999
 20
1681.816477341328
 30
0.0
 11
637.9657878495977
 21
1691.316477341328
 31
0.0
  0
LINE
  5
32F
330
1B
100
AcDbEntity
  8
4
100
AcDbLine
 10
626.9961327349952
 20
1691.316477341328
 30
0.0
 11
621.5113051776948
 21
1681.816477341328
 31
0.0
  0
LINE
  5
330
330
1B
100
AcDbEntity
  8
4
100
AcDbLine
 10
637.9661324947988
 20
1571.316480713799
 30
0.0
 11
626.9964773801962
 21
1571.316480713799
 31
0.0
  0
LINE
  5
331
330
1B
100
AcDbEntity
  8
4
100
AcDbLine
 10
637.9661324947988
 20
1552.316480713799
 30
0.0
 11
643.450960052101
 21
1561.816480713799
 31
0.0
  0
LINE
  5
332
330
1B
100
AcDbEntity
  8
4
100
AcDbLine
 10
626.9964773801962
 20
1552.316480713799
 30
0.0
 11
637.9661324947988
 21
1552.316480713799
 31
0.0
  0
LINE
  5
333
330
1B
100
AcDbEntity
  8
4
100
AcDbLine
 10
621.511649822894
 20
1561.816480713799
 30
0.0
 11
626.9964773801962
 21
1552.316480713799
 31
0.0
  0
CIRCLE
  5
334
330
1B
100
AcDbEntity
  8
4
100
AcDbCircle
 10
632.4813049374966
 20
1561.816480713799
 30
0.0
 40
9.5
  0
LINE
  5
335
330
1B
100
AcDbEntity
  8
4
100
AcDbLine
 10
643.450960052101
 20
1561.816480713799
 30
0.0
 11
637.9661324947988
 21
1571.316480713799
 31
0.0
  0
LINE
  5
336
330
1B
100
AcDbEntity
  8
4
100
AcDbLine
 10
626.9964773801962
 20
1571.316480713799
 30
0.0
 11
621.511649822894
 21
1561.816480713799
 31
0.0
  0
LINE
  5
337
330
1B
100
AcDbEntity
  8
4
100
AcDbLine
 10
741.889008444608
 20
1511.316778499069
 30
0.0
 11
730.9193533300054
 21
1511.316778499069
 31
0.0
  0
LINE
  5
338
330
1B
100
AcDbEntity
  8
4
100
AcDbLine
 10
741.889008444608
 20
1492.316778499069
 30
0.0
 11
747.3738360019101
 21
1501.816778499069
 31
0.0
  0
LINE
  5
339
330
1B
100
AcDbEntity
  8
4
100
AcDbLine
 10
730.9193533300054
 20
1492.316778499069
 30
0.0
 11
741.889008444608
 21
1492.316778499069
 31
0.0
  0
LINE
  5
33A
330
1B
100
AcDbEntity
  8
4
100
AcDbLine
 10
725.4345257727032
 20
1501.816778499069
 30
0.0
 11
730.9193533300054
 21
1492.316778499069
 31
0.0
  0
CIRCLE
  5
33B
330
1B
100
AcDbEntity
  8
4
100
AcDbCircle
 10
736.4041808873058
 20
1501.816778499069
 30
0.0
 40
9.5
  0
LINE
  5
33C
330
1B
100
AcDbEntity
  8
4
100
AcDbLine
 10
747.3738360019101
 20
1501.816778499069
 30
0.0
 11
741.889008444608
 21
1511.316778499069
 31
0.0
  0
LINE
  5
33D
330
1B
100
AcDbEntity
  8
4
100
AcDbLine
 10
730.9193533300054
 20
1511.316778499069
 30
0.0
 11
725.4345257727032
 21
1501.816778499069
 31
0.0
  0
LINE
  5
33E
330
1B
100
AcDbEntity
  8
4
100
AcDbLine
 10
845.8122284990964
 20
1571.317076720598
 30
0.0
 11
834.8425733844938
 21
1571.317076720598
 31
0.0
  0
LINE
  5
33F
330
1B
100
AcDbEntity
  8
4
100
AcDbLine
 10
845.8122284990964
 20
1552.317076720598
 30
0.0
 11
851.2970560563986
 21
1561.817076720598
 31
0.0
  0
LINE
  5
340
330
1B
100
AcDbEntity
  8
4
100
AcDbLine
 10
834.8425733844938
 20
1552.317076720598
 30
0.0
 11
845.8122284990964
 21
1552.317076720598
 31
0.0
  0
LINE
  5
341
330
1B
100
AcDbEntity
  8
4
100
AcDbLine
 10
829.3577458271934
 20
1561.817076720598
 30
0.0
 11
834.8425733844938
 21
1552.317076720598
 31
0.0
  0
CIRCLE
  5
342
330
1B
100
AcDbEntity
  8
4
100
AcDbCircle
 10
840.327400941796
 20
1561.817076720598
 30
0.0
 40
9.5
  0
LINE
  5
343
330
1B
100
AcDbEntity
  8
4
100
AcDbLine
 10
851.2970560563986
 20
1561.817076720598
 30
0.0
 11
845.8122284990964
 21
1571.317076720598
 31
0.0
  0
LINE
  5
344
330
1B
100
AcDbEntity
  8
4
100
AcDbLine
 10
834.8425733844938
 20
1571.317076720598
 30
0.0
 11
829.3577458271934
 21
1561.817076720598
 31
0.0
  0
LINE
  5
345
330
1B
100
AcDbEntity
  8
4
100
AcDbLine
 10
845.8118812908938
 20
1691.317079659763
 30
0.0
 11
834.8422261762912
 21
1691.317079659763
 31
0.0
  0
LINE
  5
346
330
1B
100
AcDbEntity
  8
4
100
AcDbLine
 10
845.8118812908938
 20
1672.317079659763
 30
0.0
 11
851.296708848196
 21
1681.817079659763
 31
0.0
  0
LINE
  5
347
330
1B
100
AcDbEntity
  8
4
100
AcDbLine
 10
834.8422261762912
 20
1672.317079659763
 30
0.0
 11
845.8118812908938
 21
1672.317079659763
 31
0.0
  0
LINE
  5
348
330
1B
100
AcDbEntity
  8
4
100
AcDbLine
 10
829.3573986189908
 20
1681.817079659763
 30
0.0
 11
834.8422261762912
 21
1672.317079659763
 31
0.0
  0
CIRCLE
  5
349
330
1B
100
AcDbEntity
  8
4
100
AcDbCircle
 10
840.3270537335934
 20
1681.817079659763
 30
0.0
 40
9.5
  0
LINE
  5
34A
330
1B
100
AcDbEntity
  8
4
100
AcDbLine
 10
851.296708848196
 20
1681.817079659763
 30
0.0
 11
845.8118812908938
 21
1691.317079659763
 31
0.0
  0
LINE
  5
34B
330
1B
100
AcDbEntity
  8
4
100
AcDbLine
 10
834.8422261762912
 20
1691.317079659763
 30
0.0
 11
829.3573986189908
 21
1681.817079659763
 31
0.0
  0
LINE
  5
34C
330
1B
100
AcDbEntity
  8
4
100
AcDbLine
 10
741.889008444608
 20
1751.31677649907
 30
0.0
 11
730.9193533300054
 21
1751.31677649907
 31
0.0
  0
LINE
  5
34D
330
1B
100
AcDbEntity
  8
4
100
AcDbLine
 10
741.889008444608
 20
1732.31677649907
 30
0.0
 11
747.3738360019101
 21
1741.81677649907
 31
0.0
  0
LINE
  5
34E
330
1B
100
AcDbEntity
  8
4
100
AcDbLine
 10
730.9193533300054
 20
1732.31677649907
 30
0.0
 11
741.889008444608
 21
1732.31677649907
 31
0.0
  0
LINE
  5
34F
330
1B
100
AcDbEntity
  8
4
100
AcDbLine
 10
725.4345257727032
 20
1741.81677649907
 30
0.0
 11
730.9193533300054
 21
1732.31677649907
 31
0.0
  0
CIRCLE
  5
350
330
1B
100
AcDbEntity
  8
4
100
AcDbCircle
 10
736.4041808873058
 20
1741.81677649907
 30
0.0
 40
9.5
  0
LINE
  5
351
330
1B
100
AcDbEntity
  8
4
100
AcDbLine
 10
747.3738360019101
 20
1741.81677649907
 30
0.0
 11
741.889008444608
 21
1751.31677649907
 31
0.0
  0
LINE
  5
352
330
1B
100
AcDbEntity
  8
4
100
AcDbLine
 10
730.9193533300054
 20
1751.31677649907
 30
0.0
 11
725.4345257727032
 21
1741.81677649907
 31
0.0
  0
LINE
  5
353
330
1B
100
AcDbEntity
  8
4
100
AcDbLine
 10
933.2048756407344
 20
1656.316629122092
 30
0.0
 11
922.2352205261318
 21
1656.316629122092
 31
0.0
  0
LINE
  5
354
330
1B
100
AcDbEntity
  8
4
100
AcDbLine
 10
933.2048756407344
 20
1637.316629122092
 30
0.0
 11
938.6897031980366
 21
1646.816629122092
 31
0.0
  0
LINE
  5
355
330
1B
100
AcDbEntity
  8
4
100
AcDbLine
 10
922.2352205261318
 20
1637.316629122092
 30
0.0
 11
933.2048756407344
 21
1637.316629122092
 31
0.0
  0
LINE
  5
356
330
1B
100
AcDbEntity
  8
4
100
AcDbLine
 10
916.7503929688296
 20
1646.816629122092
 30
0.0
 11
922.2352205261318
 21
1637.316629122092
 31
0.0
  0
CIRCLE
  5
357
330
1B
100
AcDbEntity
  8
4
100
AcDbCircle
 10
927.7200480834322
 20
1646.816629122092
 30
0.0
 40
9.5
  0
LINE
  5
358
330
1B
100
AcDbEntity
  8
4
100
AcDbLine
 10
938.6897031980366
 20
1646.816629122092
 30
0.0
 11
933.2048756407344
 21
1656.316629122092
 31
0.0
  0
LINE
  5
359
330
1B
100
AcDbEntity
  8
4
100
AcDbLine
 10
922.2352205261318
 20
1656.316629122092
 30
0.0
 11
916.7503929688296
 21
1646.816629122092
 31
0.0
  0
LINE
  5
35A
330
1B
100
AcDbEntity
  8
4
100
AcDbLine
 10
1011.147248801333
 20
1701.316778499069
 30
0.0
 11
1000.17759368673
 21
1701.316778499069
 31
0.0
  0
LINE
  5
35B
330
1B
100
AcDbEntity
  8
4
100
AcDbLine
 10
1011.147248801333
 20
1682.316778499069
 30
0.0
 11
1016.632076358635
 21
1691.816778499069
 31
0.0
  0
LINE
  5
35C
330
1B
100
AcDbEntity
  8
4
100
AcDbLine
 10
1000.17759368673
 20
1682.316778499069
 30
0.0
 11
1011.147248801333
 21
1682.316778499069
 31
0.0
  0
LINE
  5
35D
330
1B
100
AcDbEntity
  8
4
100
AcDbLine
 10
994.692766129428
 20
1691.816778499069
 30
0.0
 11
1000.17759368673
 21
1682.316778499069
 31
0.0
  0
CIRCLE
  5
35E
330
1B
100
AcDbEntity
  8
4
100
AcDbCircle
 10
1005.662421244031
 20
1691.816778499069
 30
0.0
 40
9.5
  0
LINE
  5
35F
330
1B
100
AcDbEntity
  8
4
100
AcDbLine
 10
1016.632076358635
 20
1691.816778499069
 30
0.0
 11
1011.147248801333
 21
1701.316778499069
 31
0.0
  0
LINE
  5
360
330
1B
100
AcDbEntity
  8
4
100
AcDbLine
 10
1000.17759368673
 20
1701.316778499069
 30
0.0
 11
994.692766129428
 21
1691.816778499069
 31
0.0
  0
LINE
  5
361
330
1B
100
AcDbEntity
  8
4
100
AcDbLine
 10
1089.089449145192
 20
1656.316928449456
 30
0.0
 11
1078.11979403059
 21
1656.316928449456
 31
0.0
  0
LINE
  5
362
330
1B
100
AcDbEntity
  8
4
100
AcDbLine
 10
1089.089449145192
 20
1637.316928449456
 30
0.0
 11
1094.574276702494
 21
1646.816928449456
 31
0.0
  0
LINE
  5
363
330
1B
100
AcDbEntity
  8
4
100
AcDbLine
 10
1078.11979403059
 20
1637.316928449456
 30
0.0
 11
1089.089449145192
 21
1637.316928449456
 31
0.0
  0
LINE
  5
364
330
1B
100
AcDbEntity
  8
4
100
AcDbLine
 10
1072.634966473287
 20
1646.816928449456
 30
0.0
 11
1078.11979403059
 21
1637.316928449456
 31
0.0
  0
CIRCLE
  5
365
330
1B
100
AcDbEntity
  8
4
100
AcDbCircle
 10
1083.60462158789
 20
1646.816928449456
 30
0.0
 40
9.5
  0
LINE
  5
366
330
1B
100
AcDbEntity
  8
4
100
AcDbLine
 10
1094.574276702494
 20
1646.816928449456
 30
0.0
 11
1089.089449145192
 21
1656.316928449456
 31
0.0
  0
LINE
  5
367
330
1B
100
AcDbEntity
  8
4
100
AcDbLine
 10
1078.11979403059
 20
1656.316928449456
 30
0.0
 11
1072.634966473287
 21
1646.816928449456
 31
0.0
  0
LINE
  5
368
330
1B
100
AcDbEntity
  8
4
100
AcDbLine
 10
1089.089622722529
 20
1566.316927193447
 30
0.0
 11
1078.119967607926
 21
1566.316927193447
 31
0.0
  0
LINE
  5
369
330
1B
100
AcDbEntity
  8
4
100
AcDbLine
 10
1089.089622722529
 20
1547.316927193447
 30
0.0
 11
1094.574450279831
 21
1556.816927193447
 31
0.0
  0
LINE
  5
36A
330
1B
100
AcDbEntity
  8
4
100
AcDbLine
 10
1078.119967607926
 20
1547.316927193447
 30
0.0
 11
1089.089622722529
 21
1547.316927193447
 31
0.0
  0
CIRCLE
  5
36B
330
1B
100
AcDbEntity
  8
4
100
AcDbCircle
 10
1083.604795165227
 20
1556.816927193447
 30
0.0
 40
9.5
  0
LINE
  5
36C
330
1B
100
AcDbEntity
  8
4
100
AcDbLine
 10
1094.574450279831
 20
1556.816927193447
 30
0.0
 11
1089.089622722529
 21
1566.316927193447
 31
0.0
  0
LINE
  5
36D
330
1B
100
AcDbEntity
  8
4
100
AcDbLine
 10
1072.635140050624
 20
1556.816927193447
 30
0.0
 11
1078.119967607926
 21
1547.316927193447
 31
0.0
  0
LINE
  5
36E
330
1B
100
AcDbEntity
  8
4
100
AcDbLine
 10
1078.119967607926
 20
1566.316927193447
 30
0.0
 11
1072.635140050624
 21
1556.816927193447
 31
0.0
  0
LINE
  5
36F
330
1B
100
AcDbEntity
  8
4
100
AcDbLine
 10
1011.147248801333
 20
1521.31677649907
 30
0.0
 11
1000.17759368673
 21
1521.31677649907
 31
0.0
  0
LINE
  5
370
330
1B
100
AcDbEntity
  8
4
100
AcDbLine
 10
1011.147248801333
 20
1502.31677649907
 30
0.0
 11
1016.632076358635
 21
1511.81677649907
 31
0.0
  0
LINE
  5
371
330
1B
100
AcDbEntity
  8
4
100
AcDbLine
 10
1000.17759368673
 20
1502.31677649907
 30
0.0
 11
1011.147248801333
 21
1502.31677649907
 31
0.0
  0
LINE
  5
372
330
1B
100
AcDbEntity
  8
4
100
AcDbLine
 10
994.692766129428
 20
1511.81677649907
 30
0.0
 11
1000.17759368673
 21
1502.31677649907
 31
0.0
  0
CIRCLE
  5
373
330
1B
100
AcDbEntity
  8
4
100
AcDbCircle
 10
1005.662421244031
 20
1511.81677649907
 30
0.0
 40
9.5
  0
LINE
  5
374
330
1B
100
AcDbEntity
  8
4
100
AcDbLine
 10
1016.632076358635
 20
1511.81677649907
 30
0.0
 11
1011.147248801333
 21
1521.31677649907
 31
0.0
  0
LINE
  5
375
330
1B
100
AcDbEntity
  8
4
100
AcDbLine
 10
1000.17759368673
 20
1521.31677649907
 30
0.0
 11
994.692766129428
 21
1511.81677649907
 31
0.0
  0
LINE
  5
376
330
1B
100
AcDbEntity
  8
4
100
AcDbLine
 10
933.2050481567508
 20
1566.316627069546
 30
0.0
 11
922.2353930421482
 21
1566.316627069546
 31
0.0
  0
LINE
  5
377
330
1B
100
AcDbEntity
  8
4
100
AcDbLine
 10
922.2353930421482
 20
1547.316627069546
 30
0.0
 11
933.2050481567508
 21
1547.316627069546
 31
0.0
  0
LINE
  5
378
330
1B
100
AcDbEntity
  8
4
100
AcDbLine
 10
916.750565484846
 20
1556.816627069546
 30
0.0
 11
922.2353930421482
 21
1547.316627069546
 31
0.0
  0
CIRCLE
  5
379
330
1B
100
AcDbEntity
  8
4
100
AcDbCircle
 10
927.7202205994486
 20
1556.816627069546
 30
0.0
 40
9.5
  0
LINE
  5
37A
330
1B
100
AcDbEntity
  8
4
100
AcDbLine
 10
922.2353930421482
 20
1566.316627069546
 30
0.0
 11
916.750565484846
 21
1556.816627069546
 31
0.0
  0
LINE
  5
37B
330
1B
100
AcDbEntity
  8
4
100
AcDbLine
 10
933.2050481567508
 20
1547.316627069546
 30
0.0
 11
938.689875714053
 21
1556.816627069546
 31
0.0
  0
LINE
  5
37C
330
1B
100
AcDbEntity
  8
4
100
AcDbLine
 10
938.689875714053
 20
1556.816627069546
 30
0.0
 11
933.2050481567508
 21
1566.316627069546
 31
0.0
  0
LINE
  5
37D
330
1B
100
AcDbEntity
  8
CENTER
100
AcDbLine
 10
1963.707445946327
 20
491.840916159369
 30
0.0
 11
1963.707445946327
 21
605.7886661593702
 31
0.0
  0
CIRCLE
  5
37E
330
1B
100
AcDbEntity
  8
4
100
AcDbCircle
 10
1963.707445946327
 20
548.8147911593696
 30
0.0
 40
25.000003
  0
ARC
  5
37F
330
1B
100
AcDbEntity
  8
4
100
AcDbCircle
 10
1963.707445946327
 20
548.8147911593696
 30
0.0
 40
45.000025
100
AcDbArc
 50
299.2650450000004
 51
240.7363440000009
  0
LINE
  5
380
330
1B
100
AcDbEntity
  8
4
100
AcDbLine
 10
1963.707445946327
 20
523.8147951593696
 30
0.0
 11
1984.632979946327
 21
521.8147901593697
 31
0.0
  0
LINE
  5
381
330
1B
100
AcDbEntity
  8
4
100
AcDbLine
 10
1984.632979946327
 20
521.8147901593697
 30
0.0
 11
1942.782394946327
 21
521.8147901593697
 31
0.0
  0
LINE
  5
382
330
1B
100
AcDbEntity
  8
L-CENTER
100
AcDbLine
 10
1906.733570946327
 20
548.8147911593696
 30
0.0
 11
2020.681320946328
 21
548.8147911593696
 31
0.0
  0
LINE
  5
383
330
1B
100
AcDbEntity
  8
4
100
AcDbLine
 10
1942.782394946327
 20
521.8147901593697
 30
0.0
 11
1963.707445946327
 21
523.8147951593696
 31
0.0
  0
LINE
  5
384
330
1B
100
AcDbEntity
  8
4
100
AcDbLine
 10
1940.707447946328
 20
509.8147951593696
 30
0.0
 11
1941.257493946328
 21
509.8147951593696
 31
0.0
  0
LINE
  5
385
330
1B
100
AcDbEntity
  8
4
100
AcDbLine
 10
1986.157397946328
 20
509.8147951593696
 30
0.0
 11
1986.707443946328
 21
509.8147951593696
 31
0.0
  0
LINE
  5
386
330
1B
100
AcDbEntity
  8
4
100
AcDbLine
 10
1985.707444946328
 20
503.8147941593693
 30
0.0
 11
1941.707446946327
 21
503.8147941593693
 31
0.0
  0
LINE
  5
387
330
1B
100
AcDbEntity
  8
4
100
AcDbLine
 10
1941.707446946327
 20
503.8147941593693
 30
0.0
 11
1985.707444946328
 21
503.8147941593693
 31
0.0
  0
LINE
  5
388
330
1B
100
AcDbEntity
  8
4
100
AcDbLine
 10
1940.707447946328
 20
505.8147921593695
 30
0.0
 11
1941.382492946328
 21
505.8147921593695
 31
0.0
  0
LINE
  5
389
330
1B
100
AcDbEntity
  8
4
100
AcDbLine
 10
1940.707447946328
 20
505.8147921593695
 30
0.0
 11
1940.707447946328
 21
509.8147951593696
 31
0.0
  0
LINE
  5
38A
330
1B
100
AcDbEntity
  8
4
100
AcDbLine
 10
1942.782394946327
 20
521.8147901593697
 30
0.0
 11
1941.207443946328
 21
503.8147941593693
 31
0.0
  0
LINE
  5
38B
330
1B
100
AcDbEntity
  8
4
100
AcDbLine
 10
1986.032643946327
 20
505.8147921593695
 30
0.0
 11
1986.707443946328
 21
505.8147921593695
 31
0.0
  0
LINE
  5
38C
330
1B
100
AcDbEntity
  8
4
100
AcDbLine
 10
1986.707443946328
 20
505.8147921593695
 30
0.0
 11
1986.707443946328
 21
509.8147951593696
 31
0.0
  0
LINE
  5
38D
330
1B
100
AcDbEntity
  8
4
100
AcDbLine
 10
1984.632979946327
 20
521.8147901593697
 30
0.0
 11
1986.207692946327
 21
503.8147941593693
 31
0.0
  0
LINE
  5
38E
330
1B
100
AcDbEntity
  8
CENTER
100
AcDbLine
 10
2523.707445946327
 20
491.840916159369
 30
0.0
 11
2523.707445946327
 21
605.7886661593702
 31
0.0
  0
ARC
  5
38F
330
1B
100
AcDbEntity
  8
4
100
AcDbCircle
 10
2523.707445946327
 20
548.8147911593696
 30
0.0
 40
45.000025
100
AcDbArc
 50
299.2636560000004
 51
240.7349550000009
  0
CIRCLE
  5
390
330
1B
100
AcDbEntity
  8
4
100
AcDbCircle
 10
2523.707445946327
 20
548.8147911593696
 30
0.0
 40
25.000003
  0
LINE
  5
391
330
1B
100
AcDbEntity
  8
L-CENTER
100
AcDbLine
 10
2580.681320946328
 20
548.8147911593696
 30
0.0
 11
2466.733570946327
 21
548.8147911593696
 31
0.0
  0
LINE
  5
392
330
1B
100
AcDbEntity
  8
4
100
AcDbLine
 10
2502.781911946327
 20
521.8147901593697
 30
0.0
 11
2501.207198946327
 21
503.8147941593693
 31
0.0
  0
LINE
  5
393
330
1B
100
AcDbEntity
  8
4
100
AcDbLine
 10
2544.632496946327
 20
521.8147901593697
 30
0.0
 11
2546.207447946328
 21
503.8147941593693
 31
0.0
  0
LINE
  5
394
330
1B
100
AcDbEntity
  8
4
100
AcDbLine
 10
2544.632496946327
 20
521.8147901593697
 30
0.0
 11
2523.707445946327
 21
523.8147951593696
 31
0.0
  0
LINE
  5
395
330
1B
100
AcDbEntity
  8
4
100
AcDbLine
 10
2502.781911946327
 20
521.8147901593697
 30
0.0
 11
2544.632496946327
 21
521.8147901593697
 31
0.0
  0
LINE
  5
396
330
1B
100
AcDbEntity
  8
4
100
AcDbLine
 10
2523.707445946327
 20
523.8147951593696
 30
0.0
 11
2502.781911946327
 21
521.8147901593697
 31
0.0
  0
LINE
  5
397
330
1B
100
AcDbEntity
  8
4
100
AcDbLine
 10
2500.707447946328
 20
505.8147921593695
 30
0.0
 11
2500.707447946328
 21
509.8147951593696
 31
0.0
  0
LINE
  5
398
330
1B
100
AcDbEntity
  8
4
100
AcDbLine
 10
2501.382247946328
 20
505.8147921593695
 30
0.0
 11
2500.707447946328
 21
505.8147921593695
 31
0.0
  0
LINE
  5
399
330
1B
100
AcDbEntity
  8
4
100
AcDbLine
 10
2546.707443946328
 20
505.8147921593695
 30
0.0
 11
2546.707443946328
 21
509.8147951593696
 31
0.0
  0
LINE
  5
39A
330
1B
100
AcDbEntity
  8
4
100
AcDbLine
 10
2546.707443946328
 20
505.8147921593695
 30
0.0
 11
2546.032398946328
 21
505.8147921593695
 31
0.0
  0
LINE
  5
39B
330
1B
100
AcDbEntity
  8
4
100
AcDbLine
 10
2545.707444946328
 20
503.8147941593693
 30
0.0
 11
2501.707446946327
 21
503.8147941593693
 31
0.0
  0
LINE
  5
39C
330
1B
100
AcDbEntity
  8
4
100
AcDbLine
 10
2501.707446946327
 20
503.8147941593693
 30
0.0
 11
2545.707444946328
 21
503.8147941593693
 31
0.0
  0
LINE
  5
39D
330
1B
100
AcDbEntity
  8
4
100
AcDbLine
 10
2501.257493946328
 20
509.8147951593696
 30
0.0
 11
2500.707447946328
 21
509.8147951593696
 31
0.0
  0
LINE
  5
39E
330
1B
100
AcDbEntity
  8
4
100
AcDbLine
 10
2546.707443946328
 20
509.8147951593696
 30
0.0
 11
2546.157397946328
 21
509.8147951593696
 31
0.0
  0
ARC
  5
39F
330
1B
100
AcDbEntity
  8
4
100
AcDbCircle
 10
856.6624212440324
 20
1929.81677749907
 30
0.0
 40
10.0
100
AcDbArc
 50
0.0
 51
180.0
  0
ARC
  5
3A0
330
1B
100
AcDbEntity
  8
4
100
AcDbCircle
 10
856.6624212440324
 20
1859.81677749907
 30
0.0
 40
10.0
100
AcDbArc
 50
180.0
 51
0.0
  0
ARC
  5
3A1
330
1B
100
AcDbEntity
  8
4
100
AcDbCircle
 10
856.6624212440324
 20
1894.81677749907
 30
0.0
 40
22.5
100
AcDbArc
 50
116.387799961243
 51
243.612200038757
  0
ARC
  5
3A2
330
1B
100
AcDbEntity
  8
4
100
AcDbCircle
 10
856.6624212440324
 20
1894.81677749907
 30
0.0
 40
20.0
100
AcDbArc
 50
119.9999999999999
 51
240.0000000000001
  0
LINE
  5
3A3
330
1B
100
AcDbEntity
  8
4
100
AcDbLine
 10
846.6624212440324
 20
1859.81677749907
 30
0.0
 11
846.6624212440324
 21
1929.81677749907
 31
0.0
  0
ARC
  5
3A4
330
1B
100
AcDbEntity
  8
4
100
AcDbCircle
 10
856.6624212440324
 20
1894.81677749907
 30
0.0
 40
20.0
100
AcDbArc
 50
299.9999999999998
 51
60.00000000000011
  0
ARC
  5
3A5
330
1B
100
AcDbEntity
  8
4
100
AcDbCircle
 10
856.6624212440324
 20
1894.81677749907
 30
0.0
 40
22.5
100
AcDbArc
 50
296.387799961243
 51
63.61220003875699
  0
LINE
  5
3A6
330
1B
100
AcDbEntity
  8
4
100
AcDbLine
 10
866.6624212440324
 20
1859.81677749907
 30
0.0
 11
866.6624212440324
 21
1929.81677749907
 31
0.0
  0
ARC
  5
3A7
330
1B
100
AcDbEntity
  8
4
100
AcDbCircle
 10
856.6624212440306
 20
1894.816777499071
 30
0.0
 40
25.0
100
AcDbArc
 50
293.578178478206
 51
66.42182152179429
  0
ARC
  5
3A8
330
1B
100
AcDbEntity
  8
4
100
AcDbCircle
 10
856.6624212440306
 20
1334.816777499068
 30
0.0
 40
25.0
100
AcDbArc
 50
113.5781784781973
 51
246.4218215218027
  0
ARC
  5
3A9
330
1B
100
AcDbEntity
  8
4
100
AcDbCircle
 10
856.6624212440324
 20
1334.816777499069
 30
0.0
 40
20.0
100
AcDbArc
 50
119.9999999999999
 51
240.0000000000001
  0
ARC
  5
3AA
330
1B
100
AcDbEntity
  8
4
100
AcDbCircle
 10
856.6624212440324
 20
1334.816777499069
 30
0.0
 40
22.5
100
AcDbArc
 50
116.387799961243
 51
243.612200038757
  0
LINE
  5
3AB
330
1B
100
AcDbEntity
  8
CENTER
100
AcDbLine
 10
816.6624212440324
 20
1334.816777499069
 30
0.0
 11
896.6624212440324
 21
1334.816777499069
 31
0.0
  0
ARC
  5
3AC
330
1B
100
AcDbEntity
  8
4
100
AcDbCircle
 10
856.6624212440306
 20
1334.816777499068
 30
0.0
 40
25.0
100
AcDbArc
 50
293.578178478206
 51
66.42182152179407
  0
LINE
  5
3AD
330
1B
100
AcDbEntity
  8
4
100
AcDbLine
 10
866.6624212440324
 20
1369.816777499069
 30
0.0
 11
866.6624212440324
 21
1299.816777499069
 31
0.0
  0
ARC
  5
3AE
330
1B
100
AcDbEntity
  8
4
100
AcDbCircle
 10
856.6624212440324
 20
1334.816777499069
 30
0.0
 40
22.5
100
AcDbArc
 50
296.387799961243
 51
63.61220003875699
  0
ARC
  5
3AF
330
1B
100
AcDbEntity
  8
4
100
AcDbCircle
 10
856.6624212440324
 20
1334.816777499069
 30
0.0
 40
20.0
100
AcDbArc
 50
299.9999999999998
 51
60.00000000000011
  0
LINE
  5
3B0
330
1B
100
AcDbEntity
  8
4
100
AcDbLine
 10
846.6624212440324
 20
1369.816777499069
 30
0.0
 11
846.6624212440324
 21
1299.816777499069
 31
0.0
  0
ARC
  5
3B1
330
1B
100
AcDbEntity
  8
4
100
AcDbCircle
 10
856.6624212440324
 20
1369.816777499069
 30
0.0
 40
10.0
100
AcDbArc
 50
0.0
 51
180.0
  0
ARC
  5
3B2
330
1B
100
AcDbEntity
  8
4
100
AcDbCircle
 10
856.6624212440324
 20
1299.816777499069
 30
0.0
 40
10.0
100
AcDbArc
 50
180.0
 51
0.0
  0
LINE
  5
3B3
330
1B
100
AcDbEntity
  8
L-CENTER
100
AcDbLine
 10
836.7840032440322
 20
548.8147911593696
 30
0.0
 11
879.6709662440312
 21
548.8147911593696
 31
0.0
  0
ARC
  5
3B4
330
1B
100
AcDbEntity
  8
4
100
AcDbCircle
 10
856.6624212440324
 20
583.8147911593696
 30
0.0
 40
9.999996999999999
100
AcDbArc
 50
0.0
 51
180.0
  0
LINE
  5
3B5
330
1B
100
AcDbEntity
  8
4
100
AcDbLine
 10
846.6624172440311
 20
511.8147931593699
 30
0.0
 11
846.6624172440311
 21
583.8147911593696
 31
0.0
  0
LINE
  5
3B6
330
1B
100
AcDbEntity
  8
4
100
AcDbLine
 10
846.6624172440311
 20
522.8589801593694
 30
0.0
 11
835.7371252440312
 21
521.8147901593697
 31
0.0
  0
LINE
  5
3B7
330
1B
100
AcDbEntity
  8
4
100
AcDbLine
 10
835.7371252440312
 20
521.8147901593697
 30
0.0
 11
846.6624172440311
 21
521.8147901593697
 31
0.0
  0
LINE
  5
3B8
330
1B
100
AcDbEntity
  8
4
100
AcDbLine
 10
835.7371252440312
 20
521.8147901593697
 30
0.0
 11
834.1624192440318
 21
503.8147941593693
 31
0.0
  0
ARC
  5
3B9
330
1B
100
AcDbEntity
  8
4
100
AcDbCircle
 10
842.6624212440324
 20
511.8147931593699
 30
0.0
 40
4.000003
100
AcDbArc
 50
270.0
 51
0.0
  0
LINE
  5
3BA
330
1B
100
AcDbEntity
  8
4
100
AcDbLine
 10
866.6624182440314
 20
511.8147931593699
 30
0.0
 11
866.6624182440314
 21
583.8147911593696
 31
0.0
  0
LINE
  5
3BB
330
1B
100
AcDbEntity
  8
4
100
AcDbLine
 10
866.6624182440314
 20
522.8589801593694
 30
0.0
 11
877.5877102440313
 21
521.8147901593697
 31
0.0
  0
LINE
  5
3BC
330
1B
100
AcDbEntity
  8
4
100
AcDbLine
 10
866.6624182440314
 20
521.8147901593697
 30
0.0
 11
877.5877102440313
 21
521.8147901593697
 31
0.0
  0
ARC
  5
3BD
330
1B
100
AcDbEntity
  8
4
100
AcDbCircle
 10
870.6624212440324
 20
511.8147931593699
 30
0.0
 40
4.000003
100
AcDbArc
 50
180.0
 51
270.0
  0
LINE
  5
3BE
330
1B
100
AcDbEntity
  8
4
100
AcDbLine
 10
877.5877102440313
 20
521.8147901593697
 30
0.0
 11
879.1624232440313
 21
503.8147941593693
 31
0.0
  0
LINE
  5
3BF
330
1B
100
AcDbEntity
  8
4
100
AcDbLine
 10
866.6624182440314
 20
525.2147941593707
 30
0.0
 11
876.4041808873058
 21
525.2147941593707
 31
0.0
  0
ARC
  5
3C0
330
1B
100
AcDbEntity
  8
4
100
AcDbCircle
 10
1281.7412466703
 20
1789.944934145246
 30
0.0
 40
18.32117357373317
100
AcDbArc
 50
337.7806898294728
 51
22.21931017053041
  0
LINE
  5
3C1
330
1B
100
AcDbEntity
  8
4
100
AcDbLine
 10
1300.062420244034
 20
1800.33723899066
 30
0.0
 11
1300.062420244034
 21
1779.552629299833
 31
0.0
  0
LINE
  5
3C2
330
1B
100
AcDbEntity
  8
4
100
AcDbLine
 10
1286.062420244034
 20
1776.088527684695
 30
0.0
 11
1286.062420244034
 21
1803.801340605797
 31
0.0
  0
LINE
  5
3C3
330
1B
100
AcDbEntity
  8
4
100
AcDbLine
 10
1290.062420244034
 20
1776.088527684695
 30
0.0
 11
1290.062420244034
 21
1803.801340605797
 31
0.0
  0
LINE
  5
3C4
330
1B
100
AcDbEntity
  8
4
100
AcDbLine
 10
1286.062425244032
 20
1762.816782499069
 30
0.0
 11
1286.062425244032
 21
1940.816779499069
 31
0.0
  0
LINE
  5
3C5
330
1B
100
AcDbEntity
  8
4
100
AcDbLine
 10
1298.701948339714
 20
1776.088527684695
 30
0.0
 11
1286.062420244034
 21
1776.088527684695
 31
0.0
  0
LINE
  5
3C6
330
1B
100
AcDbEntity
  8
4
100
AcDbLine
 10
1298.701948339714
 20
1783.016730914971
 30
0.0
 11
1290.062420244034
 21
1783.016730914971
 31
0.0
  0
ARC
  5
3C7
330
1B
100
AcDbEntity
  8
4
100
AcDbCircle
 10
1285.062419244031
 20
1762.816782499069
 30
0.0
 40
0.9999989999999999
100
AcDbArc
 50
270.0
 51
0.0
  0
ARC
  5
3C8
330
1B
100
AcDbEntity
  8
4
100
AcDbCircle
 10
1294.971949886481
 20
1779.552629299833
 30
0.0
 40
5.090470357553012
100
AcDbArc
 50
317.1167115949086
 51
42.88328840509141
  0
LINE
  5
3C9
330
1B
100
AcDbEntity
  8
4
100
AcDbLine
 10
1287.062425244032
 20
1819.316777499071
 30
0.0
 11
1301.072421244032
 21
1819.316777499071
 31
0.0
  0
LINE
  5
3CA
330
1B
100
AcDbEntity
  8
4
100
AcDbLine
 10
1287.062425244032
 20
1884.316777499071
 30
0.0
 11
1301.072421244032
 21
1884.316777499071
 31
0.0
  0
LINE
  5
3CB
330
1B
100
AcDbEntity
  8
4
100
AcDbLine
 10
1298.701948339714
 20
1796.873137375522
 30
0.0
 11
1290.062420244034
 21
1796.873137375522
 31
0.0
  0
LINE
  5
3CC
330
1B
100
AcDbEntity
  8
4
100
AcDbLine
 10
1286.062420244034
 20
1803.801340605797
 30
0.0
 11
1298.701948339714
 21
1803.801340605797
 31
0.0
  0
LINE
  5
3CD
330
1B
100
AcDbEntity
  8
4
100
AcDbLine
 10
1287.062425244032
 20
1806.81677749907
 30
0.0
 11
1287.062425244032
 21
1896.81677749907
 31
0.0
  0
LINE
  5
3CE
330
1B
100
AcDbEntity
  8
4
100
AcDbLine
 10
1286.062425244032
 20
1806.81677749907
 30
0.0
 11
1287.062425244032
 21
1806.81677749907
 31
0.0
  0
LINE
  5
3CF
330
1B
100
AcDbEntity
  8
4
100
AcDbLine
 10
1286.062425244032
 20
1896.81677749907
 30
0.0
 11
1287.062425244032
 21
1896.81677749907
 31
0.0
  0
LINE
  5
3D0
330
1B
100
AcDbEntity
  8
4
100
AcDbLine
 10
1421.072421244032
 20
1878.816777499071
 30
0.0
 11
1421.072421244032
 21
1824.816777499071
 31
0.0
  0
LINE
  5
3D1
330
1B
100
AcDbEntity
  8
4
100
AcDbLine
 10
1419.072421244032
 20
1844.316777499071
 30
0.0
 11
1419.072421244032
 21
1822.816777499071
 31
0.0
  0
LINE
  5
3D2
330
1B
100
AcDbEntity
  8
4
100
AcDbLine
 10
1301.072421244032
 20
1884.316777499071
 30
0.0
 11
1301.072421244032
 21
1819.316777499071
 31
0.0
  0
LINE
  5
3D3
330
1B
100
AcDbEntity
  8
4
100
AcDbLine
 10
1303.072421244032
 20
1822.816777499071
 30
0.0
 11
1419.072421244032
 21
1822.816777499071
 31
0.0
  0
ARC
  5
3D4
330
1B
100
AcDbEntity
  8
4
100
AcDbCircle
 10
1303.072421244032
 20
1820.816777499071
 30
0.0
 40
2.0
100
AcDbArc
 50
90.0
 51
180.0
  0
ARC
  5
3D5
330
1B
100
AcDbEntity
  8
4
100
AcDbCircle
 10
1294.971949886479
 20
1800.33723899066
 30
0.0
 40
5.090470357553002
100
AcDbArc
 50
317.1167115949213
 51
42.88328840508593
  0
LINE
  5
3D6
330
1B
100
AcDbEntity
  8
4
100
AcDbLine
 10
1419.072421244032
 20
1822.816777499071
 30
0.0
 11
1421.072421244032
 21
1824.816777499071
 31
0.0
  0
LINE
  5
3D7
330
1B
100
AcDbEntity
  8
4
100
AcDbLine
 10
1303.072421244032
 20
1880.816777499071
 30
0.0
 11
1419.072421244032
 21
1880.816777499071
 31
0.0
  0
LINE
  5
3D8
330
1B
100
AcDbEntity
  8
4
100
AcDbLine
 10
1318.572421244032
 20
1859.316777499071
 30
0.0
 11
1421.072421244032
 21
1859.316777499071
 31
0.0
  0
LINE
  5
3D9
330
1B
100
AcDbEntity
  8
4
100
AcDbLine
 10
1318.572421244032
 20
1844.316777499071
 30
0.0
 11
1421.072421244032
 21
1844.316777499071
 31
0.0
  0
ARC
  5
3DA
330
1B
100
AcDbEntity
  8
4
100
AcDbCircle
 10
1318.572421244032
 20
1851.816777499071
 30
0.0
 40
7.5
100
AcDbArc
 50
90.0
 51
270.0
  0
ARC
  5
3DB
330
1B
100
AcDbEntity
  8
4
100
AcDbCircle
 10
1303.072421244032
 20
1882.816777499071
 30
0.0
 40
2.0
100
AcDbArc
 50
180.0
 51
270.0
  0
LINE
  5
3DC
330
1B
100
AcDbEntity
  8
4
100
AcDbLine
 10
1419.072421244032
 20
1880.816777499071
 30
0.0
 11
1419.072421244032
 21
1859.316777499071
 31
0.0
  0
LINE
  5
3DD
330
1B
100
AcDbEntity
  8
4
100
AcDbLine
 10
1419.072421244032
 20
1880.816777499071
 30
0.0
 11
1421.072421244032
 21
1878.816777499071
 31
0.0
  0
LINE
  5
3DE
330
1B
100
AcDbEntity
  8
4
100
AcDbLine
 10
1298.701948339712
 20
1906.760417622617
 30
0.0
 11
1290.062420244032
 21
1906.760417622617
 31
0.0
  0
LINE
  5
3DF
330
1B
100
AcDbEntity
  8
4
100
AcDbLine
 10
1286.062420244032
 20
1899.832214392342
 30
0.0
 11
1298.701948339712
 21
1899.832214392342
 31
0.0
  0
LINE
  5
3E0
330
1B
100
AcDbEntity
  8
4
100
AcDbLine
 10
1298.701948339712
 20
1920.616824083168
 30
0.0
 11
1290.062420244032
 21
1920.616824083168
 31
0.0
  0
LINE
  5
3E1
330
1B
100
AcDbEntity
  8
4
100
AcDbLine
 10
1298.701948339712
 20
1927.545027313444
 30
0.0
 11
1286.062420244032
 21
1927.545027313444
 31
0.0
  0
LINE
  5
3E2
330
1B
100
AcDbEntity
  8
4
100
AcDbLine
 10
1290.062420244032
 20
1927.545027313444
 30
0.0
 11
1290.062420244032
 21
1899.832214392342
 31
0.0
  0
LINE
  5
3E3
330
1B
100
AcDbEntity
  8
4
100
AcDbLine
 10
1286.062420244032
 20
1927.545027313444
 30
0.0
 11
1286.062420244032
 21
1899.832214392342
 31
0.0
  0
ARC
  5
3E4
330
1B
100
AcDbEntity
  8
4
100
AcDbCircle
 10
1285.062419244031
 20
1940.816779499069
 30
0.0
 40
0.9999989999999999
100
AcDbArc
 50
0.0
 51
90.0
  0
ARC
  5
3E5
330
1B
100
AcDbEntity
  8
4
100
AcDbCircle
 10
1294.971949886479
 20
1903.296316007479
 30
0.0
 40
5.090470357553002
100
AcDbArc
 50
317.1167115949086
 51
42.88328840509141
  0
ARC
  5
3E6
330
1B
100
AcDbEntity
  8
4
100
AcDbCircle
 10
1294.971949886479
 20
1924.080925698306
 30
0.0
 40
5.090470357553012
100
AcDbArc
 50
317.1167115949086
 51
42.88328840509141
  0
ARC
  5
3E7
330
1B
100
AcDbEntity
  8
4
100
AcDbCircle
 10
1281.741246670299
 20
1913.688620852892
 30
0.0
 40
18.32117357373317
100
AcDbArc
 50
337.7806898294712
 51
22.21931017052882
  0
LINE
  5
3E8
330
1B
100
AcDbEntity
  8
4
100
AcDbLine
 10
1300.062420244032
 20
1903.296316007479
 30
0.0
 11
1300.062420244032
 21
1924.080925698306
 31
0.0
  0
LINE
  5
3E9
330
1B
100
AcDbEntity
  8
4
100
AcDbLine
 10
1267.662421244031
 20
1761.81677749907
 30
0.0
 11
1267.662421244031
 21
1941.81677749907
 31
0.0
  0
LINE
  5
3EA
330
1B
100
AcDbEntity
  8
L-CENTER
100
AcDbLine
 10
1301.663260124138
 20
1789.944934145246
 30
0.0
 11
1245.120751531543
 21
1789.944934145245
 31
0.0
  0
LINE
  5
3EB
330
1B
100
AcDbEntity
  8
L-CENTER
100
AcDbLine
 10
1301.663260124136
 20
1913.688620852892
 30
0.0
 11
1245.120751531541
 21
1913.688620852892
 31
0.0
  0
LINE
  5
3EC
330
1B
100
AcDbEntity
  8
4
100
AcDbLine
 10
423.2917608820944
 20
1776.088527684695
 30
0.0
 11
423.2917608820944
 21
1803.801340605797
 31
0.0
  0
LINE
  5
3ED
330
1B
100
AcDbEntity
  8
4
100
AcDbLine
 10
427.2917608820944
 20
1776.088527684695
 30
0.0
 11
427.2917608820944
 21
1803.801340605797
 31
0.0
  0
LINE
  5
3EE
330
1B
100
AcDbEntity
  8
4
100
AcDbLine
 10
413.2917608820944
 20
1800.33723899066
 30
0.0
 11
413.2917608820944
 21
1779.552629299833
 31
0.0
  0
ARC
  5
3EF
330
1B
100
AcDbEntity
  8
4
100
AcDbCircle
 10
431.6129344558276
 20
1789.944934145246
 30
0.0
 40
18.32117357373317
100
AcDbArc
 50
157.7806898294696
 51
202.2193101705273
  0
LINE
  5
3F0
330
1B
100
AcDbEntity
  8
4
100
AcDbLine
 10
427.2917558820927
 20
1762.816782499079
 30
0.0
 11
427.2917558820964
 21
1940.816779499079
 31
0.0
  0
LINE
  5
3F1
330
1B
100
AcDbEntity
  8
4
100
AcDbLine
 10
414.6522327864141
 20
1783.016730914971
 30
0.0
 11
423.2917608820944
 21
1783.016730914971
 31
0.0
  0
LINE
  5
3F2
330
1B
100
AcDbEntity
  8
4
100
AcDbLine
 10
414.6522327864141
 20
1776.088527684695
 30
0.0
 11
427.2917608820944
 21
1776.088527684695
 31
0.0
  0
ARC
  5
3F3
330
1B
100
AcDbEntity
  8
4
100
AcDbCircle
 10
418.3822312396478
 20
1779.552629299833
 30
0.0
 40
5.090470357553012
100
AcDbArc
 50
137.1167115949141
 51
222.8832884050859
  0
ARC
  5
3F4
330
1B
100
AcDbEntity
  8
4
100
AcDbCircle
 10
428.2917618820929
 20
1762.816782499079
 30
0.0
 40
0.9999989999999999
100
AcDbArc
 50
180.0
 51
270.0
  0
LINE
  5
3F5
330
1B
100
AcDbEntity
  8
4
100
AcDbLine
 10
427.2917608820944
 20
1803.801340605797
 30
0.0
 11
414.6522327864141
 21
1803.801340605797
 31
0.0
  0
LINE
  5
3F6
330
1B
100
AcDbEntity
  8
4
100
AcDbLine
 10
414.6522327864141
 20
1796.873137375522
 30
0.0
 11
423.2917608820944
 21
1796.873137375522
 31
0.0
  0
ARC
  5
3F7
330
1B
100
AcDbEntity
  8
4
100
AcDbCircle
 10
418.3822312396478
 20
1800.33723899066
 30
0.0
 40
5.090470357553002
100
AcDbArc
 50
137.1167115949141
 51
222.8832884050859
  0
LINE
  5
3F8
330
1B
100
AcDbEntity
  8
4
100
AcDbLine
 10
414.652232786415
 20
1927.545027313444
 30
0.0
 11
427.2917608820953
 21
1927.545027313444
 31
0.0
  0
LINE
  5
3F9
330
1B
100
AcDbEntity
  8
4
100
AcDbLine
 10
414.652232786415
 20
1920.616824083168
 30
0.0
 11
423.2917608820953
 21
1920.616824083168
 31
0.0
  0
LINE
  5
3FA
330
1B
100
AcDbEntity
  8
4
100
AcDbLine
 10
427.2917608820953
 20
1899.832214392342
 30
0.0
 11
414.652232786415
 21
1899.832214392342
 31
0.0
  0
LINE
  5
3FB
330
1B
100
AcDbEntity
  8
4
100
AcDbLine
 10
414.652232786415
 20
1906.760417622617
 30
0.0
 11
423.2917608820953
 21
1906.760417622617
 31
0.0
  0
LINE
  5
3FC
330
1B
100
AcDbEntity
  8
4
100
AcDbLine
 10
413.2917608820953
 20
1903.296316007479
 30
0.0
 11
413.2917608820953
 21
1924.080925698306
 31
0.0
  0
ARC
  5
3FD
330
1B
100
AcDbEntity
  8
4
100
AcDbCircle
 10
431.6129344558285
 20
1913.688620852892
 30
0.0
 40
18.32117357373317
100
AcDbArc
 50
157.7806898294711
 51
202.2193101705289
  0
ARC
  5
3FE
330
1B
100
AcDbEntity
  8
4
100
AcDbCircle
 10
418.3822312396487
 20
1924.080925698306
 30
0.0
 40
5.090470357553012
100
AcDbArc
 50
137.1167115949141
 51
222.8832884050859
  0
ARC
  5
3FF
330
1B
100
AcDbEntity
  8
4
100
AcDbCircle
 10
418.3822312396487
 20
1903.296316007479
 30
0.0
 40
5.090470357553002
100
AcDbArc
 50
137.1167115949141
 51
222.8832884050859
  0
LINE
  5
400
330
1B
100
AcDbEntity
  8
4
100
AcDbLine
 10
427.2917608820953
 20
1927.545027313444
 30
0.0
 11
427.2917608820953
 21
1899.832214392342
 31
0.0
  0
LINE
  5
401
330
1B
100
AcDbEntity
  8
4
100
AcDbLine
 10
423.2917608820953
 20
1927.545027313444
 30
0.0
 11
423.2917608820953
 21
1899.832214392342
 31
0.0
  0
ARC
  5
402
330
1B
100
AcDbEntity
  8
4
100
AcDbCircle
 10
428.2917618820966
 20
1940.816779499079
 30
0.0
 40
0.9999989999999999
100
AcDbArc
 50
90.0
 51
180.0
  0
LINE
  5
403
330
1B
100
AcDbEntity
  8
L-CENTER
100
AcDbLine
 10
411.6909210019903
 20
1789.944934145246
 30
0.0
 11
468.2334295945848
 21
1789.944934145245
 31
0.0
  0
LINE
  5
404
330
1B
100
AcDbEntity
  8
L-CENTER
100
AcDbLine
 10
411.6909210019912
 20
1913.688620852892
 30
0.0
 11
468.2334295945857
 21
1913.688620852892
 31
0.0
  0
CIRCLE
  5
405
330
1B
100
AcDbEntity
  8
4
100
AcDbCircle
 10
1005.662421244031
 20
1601.81677749907
 30
0.0
 40
60.000003
  0
LINE
  5
406
330
1B
100
AcDbEntity
  8
4
100
AcDbLine
 10
841.0737992440313
 20
2027.31677249907
 30
0.0
 11
872.2507982440325
 21
2027.31677249907
 31
0.0
  0
LINE
  5
407
330
1B
100
AcDbEntity
  8
4
100
AcDbLine
 10
839.6624172440329
 20
2018.81677749907
 30
0.0
 11
873.6624182440314
 21
2018.81677749907
 31
0.0
  0
LINE
  5
408
330
1B
100
AcDbEntity
  8
4
100
AcDbLine
 10
838.6624182440314
 20
2020.31677249907
 30
0.0
 11
874.6624172440329
 21
2020.31677249907
 31
0.0
  0
LINE
  5
409
330
1B
100
AcDbEntity
  8
4
100
AcDbLine
 10
838.6624182440314
 20
2022.31677749907
 30
0.0
 11
874.6624172440329
 21
2022.31677749907
 31
0.0
  0
LINE
  5
40A
330
1B
100
AcDbEntity
  8
4
 62
     3
100
AcDbLine
 10
876.6624212440324
 20
2018.81677749907
 30
0.0
 11
836.6624212440324
 21
2018.81677749907
 31
0.0
  0
LINE
  5
40B
330
1B
100
AcDbEntity
  8
4
100
AcDbLine
 10
874.6624172440329
 20
2020.31677249907
 30
0.0
 11
874.6624172440329
 21
2022.31677749907
 31
0.0
  0
LINE
  5
40C
330
1B
100
AcDbEntity
  8
4
100
AcDbLine
 10
873.6624182440314
 20
2018.81677749907
 30
0.0
 11
873.6624182440314
 21
2020.31677249907
 31
0.0
  0
LINE
  5
40D
330
1B
100
AcDbEntity
  8
4
 62
     3
100
AcDbLine
 10
876.6624212440324
 20
2016.318956820676
 30
0.0
 11
876.6624212440324
 21
2018.81677749907
 31
0.0
  0
LINE
  5
40E
330
1B
100
AcDbEntity
  8
4
100
AcDbLine
 10
838.6624182440314
 20
2020.31677249907
 30
0.0
 11
838.6624182440314
 21
2022.31677749907
 31
0.0
  0
LINE
  5
40F
330
1B
100
AcDbEntity
  8
4
100
AcDbLine
 10
839.6624172440329
 20
2020.31677249907
 30
0.0
 11
839.6624172440329
 21
2018.81677749907
 31
0.0
  0
LINE
  5
410
330
1B
100
AcDbEntity
  8
4
 62
     3
100
AcDbLine
 10
836.6624212440324
 20
2016.318956820676
 30
0.0
 11
836.6624212440324
 21
2018.81677749907
 31
0.0
  0
LINE
  5
411
330
1B
100
AcDbEntity
  8
4
100
AcDbLine
 10
872.2507982440325
 20
2022.31677749907
 30
0.0
 11
872.2507982440325
 21
2027.31677249907
 31
0.0
  0
LINE
  5
412
330
1B
100
AcDbEntity
  8
4
100
AcDbLine
 10
841.0737992440313
 20
2022.31677749907
 30
0.0
 11
841.0737992440313
 21
2027.31677249907
 31
0.0
  0
LINE
  5
413
330
1B
100
AcDbEntity
  8
4
100
AcDbLine
 10
608.4171730648136
 20
1872.859984649421
 30
0.0
 11
604.8308711761415
 21
1886.244245509225
 31
0.0
  0
CIRCLE
  5
414
330
1B
100
AcDbEntity
  8
4
100
AcDbCircle
 10
595.0329122050075
 20
1876.446286538092
 30
0.0
 40
12.0
  0
LINE
  5
415
330
1B
100
AcDbEntity
  8
4
100
AcDbLine
 10
585.2349532338753
 20
1866.64832756696
 30
0.0
 11
598.6192140936814
 21
1863.062025678287
 31
0.0
  0
LINE
  5
416
330
1B
100
AcDbEntity
  8
4
100
AcDbLine
 10
598.6192140936814
 20
1863.062025678287
 30
0.0
 11
608.4171730648136
 21
1872.859984649421
 31
0.0
  0
LINE
  5
417
330
1B
100
AcDbEntity
  8
4
100
AcDbLine
 10
604.8308711761415
 20
1886.244245509225
 30
0.0
 11
591.4466103163372
 21
1889.830547397897
 31
0.0
  0
LINE
  5
418
330
1B
100
AcDbEntity
  8
4
100
AcDbLine
 10
591.4466103163372
 20
1889.830547397897
 30
0.0
 11
581.6486513452032
 21
1880.032588426764
 31
0.0
  0
LINE
  5
419
330
1B
100
AcDbEntity
  8
4
100
AcDbLine
 10
581.6486513452032
 20
1880.032588426764
 30
0.0
 11
585.2349532338753
 21
1866.64832756696
 31
0.0
  0
LINE
  5
41A
330
1B
100
AcDbEntity
  8
4
100
AcDbLine
 10
1131.67619114286
 20
1880.032588426764
 30
0.0
 11
1128.089889254188
 21
1866.64832756696
 31
0.0
  0
LINE
  5
41B
330
1B
100
AcDbEntity
  8
4
100
AcDbLine
 10
1121.878232171728
 20
1889.830547397897
 30
0.0
 11
1131.67619114286
 21
1880.032588426764
 31
0.0
  0
LINE
  5
41C
330
1B
100
AcDbEntity
  8
4
100
AcDbLine
 10
1108.493971311923
 20
1886.244245509225
 30
0.0
 11
1121.878232171728
 21
1889.830547397897
 31
0.0
  0
LINE
  5
41D
330
1B
100
AcDbEntity
  8
4
100
AcDbLine
 10
1114.705628394383
 20
1863.062025678287
 30
0.0
 11
1104.907669423251
 21
1872.859984649421
 31
0.0
  0
LINE
  5
41E
330
1B
100
AcDbEntity
  8
4
100
AcDbLine
 10
1128.089889254188
 20
1866.64832756696
 30
0.0
 11
1114.705628394383
 21
1863.062025678287
 31
0.0
  0
CIRCLE
  5
41F
330
1B
100
AcDbEntity
  8
4
100
AcDbCircle
 10
1118.291930283056
 20
1876.446286538092
 30
0.0
 40
12.0
  0
LINE
  5
420
330
1B
100
AcDbEntity
  8
4
100
AcDbLine
 10
1104.907669423251
 20
1872.859984649421
 30
0.0
 11
1108.493971311923
 21
1886.244245509225
 31
0.0
  0
CIRCLE
  5
421
330
1B
100
AcDbEntity
  8
4
100
AcDbCircle
 10
1118.291930283056
 20
1353.187268460047
 30
0.0
 40
12.0
  0
LINE
  5
422
330
1B
100
AcDbEntity
  8
4
100
AcDbLine
 10
1128.089889254188
 20
1362.985227431179
 30
0.0
 11
1114.705628394383
 21
1366.571529319852
 31
0.0
  0
LINE
  5
423
330
1B
100
AcDbEntity
  8
4
100
AcDbLine
 10
1121.878232171728
 20
1339.803007600242
 30
0.0
 11
1131.67619114286
 21
1349.600966571375
 31
0.0
  0
LINE
  5
424
330
1B
100
AcDbEntity
  8
4
100
AcDbLine
 10
1104.907669423251
 20
1356.773570348719
 30
0.0
 11
1108.493971311923
 21
1343.389309488914
 31
0.0
  0
LINE
  5
425
330
1B
100
AcDbEntity
  8
4
100
AcDbLine
 10
1114.705628394383
 20
1366.571529319852
 30
0.0
 11
1104.907669423251
 21
1356.773570348719
 31
0.0
  0
LINE
  5
426
330
1B
100
AcDbEntity
  8
4
100
AcDbLine
 10
1108.493971311923
 20
1343.389309488914
 30
0.0
 11
1121.878232171728
 21
1339.803007600242
 31
0.0
  0
LINE
  5
427
330
1B
100
AcDbEntity
  8
4
100
AcDbLine
 10
1131.67619114286
 20
1349.600966571375
 30
0.0
 11
1128.089889254188
 21
1362.985227431179
 31
0.0
  0
LINE
  5
428
330
1B
100
AcDbEntity
  8
4
100
AcDbLine
 10
581.6486513452032
 20
1349.600966571375
 30
0.0
 11
585.2349532338753
 21
1362.985227431179
 31
0.0
  0
LINE
  5
429
330
1B
100
AcDbEntity
  8
4
100
AcDbLine
 10
591.4466103163372
 20
1339.803007600242
 30
0.0
 11
581.6486513452032
 21
1349.600966571375
 31
0.0
  0
LINE
  5
42A
330
1B
100
AcDbEntity
  8
4
100
AcDbLine
 10
604.8308711761415
 20
1343.389309488914
 30
0.0
 11
591.4466103163372
 21
1339.803007600242
 31
0.0
  0
LINE
  5
42B
330
1B
100
AcDbEntity
  8
4
100
AcDbLine
 10
598.6192140936814
 20
1366.571529319852
 30
0.0
 11
608.4171730648136
 21
1356.773570348719
 31
0.0
  0
LINE
  5
42C
330
1B
100
AcDbEntity
  8
4
100
AcDbLine
 10
585.2349532338753
 20
1362.985227431179
 30
0.0
 11
598.6192140936814
 21
1366.571529319852
 31
0.0
  0
CIRCLE
  5
42D
330
1B
100
AcDbEntity
  8
4
100
AcDbCircle
 10
595.0329122050075
 20
1353.187268460047
 30
0.0
 40
12.0
  0
LINE
  5
42E
330
1B
100
AcDbEntity
  8
4
100
AcDbLine
 10
608.4171730648136
 20
1356.773570348719
 30
0.0
 11
604.8308711761415
 21
1343.389309488914
 31
0.0
  0
CIRCLE
  5
42F
330
1B
100
AcDbEntity
  8
4
100
AcDbCircle
 10
856.6624212440324
 20
1984.816777499071
 30
0.0
 40
12.0
  0
LINE
  5
430
330
1B
100
AcDbEntity
  8
4
100
AcDbLine
 10
868.6624212440324
 20
1977.888574268796
 30
0.0
 11
856.6624212440324
 21
1970.96037103852
 31
0.0
  0
LINE
  5
431
330
1B
100
AcDbEntity
  8
4
100
AcDbLine
 10
856.6624212440324
 20
1998.673183959622
 30
0.0
 11
868.6624212440324
 21
1991.744980729346
 31
0.0
  0
LINE
  5
432
330
1B
100
AcDbEntity
  8
4
100
AcDbLine
 10
844.6624212440324
 20
1977.888574268796
 30
0.0
 11
844.6624212440324
 21
1991.744980729347
 31
0.0
  0
LINE
  5
433
330
1B
100
AcDbEntity
  8
4
100
AcDbLine
 10
856.6624212440324
 20
1970.96037103852
 30
0.0
 11
844.6624212440324
 21
1977.888574268796
 31
0.0
  0
LINE
  5
434
330
1B
100
AcDbEntity
  8
4
100
AcDbLine
 10
844.6624212440324
 20
1991.744980729347
 30
0.0
 11
856.6624212440324
 21
1998.673183959622
 31
0.0
  0
LINE
  5
435
330
1B
100
AcDbEntity
  8
4
100
AcDbLine
 10
868.6624212440324
 20
1991.744980729346
 30
0.0
 11
868.6624212440324
 21
1977.888574268796
 31
0.0
  0
LINE
  5
436
330
1B
100
AcDbEntity
  8
4
100
AcDbLine
 10
498.662421244032
 20
1621.744980729346
 30
0.0
 11
498.6624212440311
 21
1607.888574268796
 31
0.0
  0
LINE
  5
437
330
1B
100
AcDbEntity
  8
4
100
AcDbLine
 10
474.6624212440311
 20
1621.744980729346
 30
0.0
 11
486.662421244032
 21
1628.673183959622
 31
0.0
  0
LINE
  5
438
330
1B
100
AcDbEntity
  8
4
100
AcDbLine
 10
486.662421244032
 20
1600.960371038519
 30
0.0
 11
474.662421244032
 21
1607.888574268796
 31
0.0
  0
LINE
  5
439
330
1B
100
AcDbEntity
  8
4
100
AcDbLine
 10
474.662421244032
 20
1607.888574268796
 30
0.0
 11
474.6624212440311
 21
1621.744980729346
 31
0.0
  0
LINE
  5
43A
330
1B
100
AcDbEntity
  8
4
100
AcDbLine
 10
486.662421244032
 20
1628.673183959622
 30
0.0
 11
498.662421244032
 21
1621.744980729346
 31
0.0
  0
LINE
  5
43B
330
1B
100
AcDbEntity
  8
4
100
AcDbLine
 10
498.6624212440311
 20
1607.888574268796
 30
0.0
 11
486.662421244032
 21
1600.960371038519
 31
0.0
  0
CIRCLE
  5
43C
330
1B
100
AcDbEntity
  8
4
100
AcDbCircle
 10
486.662421244032
 20
1614.81677749907
 30
0.0
 40
12.0
  0
CIRCLE
  5
43D
330
1B
100
AcDbEntity
  8
4
100
AcDbCircle
 10
856.6624212440324
 20
1244.816777499071
 30
0.0
 40
12.0
  0
LINE
  5
43E
330
1B
100
AcDbEntity
  8
4
100
AcDbLine
 10
844.6624212440324
 20
1237.888574268796
 30
0.0
 11
844.6624212440324
 21
1251.744980729347
 31
0.0
  0
LINE
  5
43F
330
1B
100
AcDbEntity
  8
4
100
AcDbLine
 10
868.6624212440324
 20
1251.744980729346
 30
0.0
 11
868.6624212440324
 21
1237.888574268796
 31
0.0
  0
LINE
  5
440
330
1B
100
AcDbEntity
  8
4
100
AcDbLine
 10
868.6624212440324
 20
1237.888574268796
 30
0.0
 11
856.6624212440324
 21
1230.96037103852
 31
0.0
  0
LINE
  5
441
330
1B
100
AcDbEntity
  8
4
100
AcDbLine
 10
856.6624212440324
 20
1230.96037103852
 30
0.0
 11
844.6624212440324
 21
1237.888574268796
 31
0.0
  0
LINE
  5
442
330
1B
100
AcDbEntity
  8
4
100
AcDbLine
 10
856.6624212440324
 20
1258.673183959622
 30
0.0
 11
868.6624212440324
 21
1251.744980729346
 31
0.0
  0
LINE
  5
443
330
1B
100
AcDbEntity
  8
4
100
AcDbLine
 10
844.6624212440324
 20
1251.744980729347
 30
0.0
 11
856.6624212440324
 21
1258.673183959622
 31
0.0
  0
CIRCLE
  5
444
330
1B
100
AcDbEntity
  8
4
100
AcDbCircle
 10
1226.662421244032
 20
1614.81677749907
 30
0.0
 40
12.0
  0
LINE
  5
445
330
1B
100
AcDbEntity
  8
4
100
AcDbLine
 10
1214.662421244032
 20
1607.888574268796
 30
0.0
 11
1214.662421244031
 21
1621.744980729346
 31
0.0
  0
LINE
  5
446
330
1B
100
AcDbEntity
  8
4
100
AcDbLine
 10
1238.662421244032
 20
1621.744980729346
 30
0.0
 11
1238.662421244031
 21
1607.888574268796
 31
0.0
  0
LINE
  5
447
330
1B
100
AcDbEntity
  8
4
100
AcDbLine
 10
1238.662421244031
 20
1607.888574268796
 30
0.0
 11
1226.662421244032
 21
1600.960371038519
 31
0.0
  0
LINE
  5
448
330
1B
100
AcDbEntity
  8
4
100
AcDbLine
 10
1226.662421244032
 20
1600.960371038519
 30
0.0
 11
1214.662421244032
 21
1607.888574268796
 31
0.0
  0
LINE
  5
449
330
1B
100
AcDbEntity
  8
4
100
AcDbLine
 10
1226.662421244032
 20
1628.673183959622
 30
0.0
 11
1238.662421244032
 21
1621.744980729346
 31
0.0
  0
LINE
  5
44A
330
1B
100
AcDbEntity
  8
4
100
AcDbLine
 10
1214.662421244031
 20
1621.744980729346
 30
0.0
 11
1226.662421244032
 21
1628.673183959622
 31
0.0
  0
LINE
  5
44B
330
1B
100
AcDbEntity
  8
4
100
AcDbLine
 10
1212.80601478348
 20
492.8147941593693
 30
0.0
 11
1240.518827704583
 21
492.8147941593693
 31
0.0
  0
LINE
  5
44C
330
1B
100
AcDbEntity
  8
4
100
AcDbLine
 10
1212.80601478348
 20
488.8147941593693
 30
0.0
 11
1240.518827704583
 21
488.8147941593693
 31
0.0
  0
ARC
  5
44D
330
1B
100
AcDbEntity
  8
4
100
AcDbCircle
 10
1226.662421244032
 20
484.4936205856357
 30
0.0
 40
18.32117357373317
100
AcDbArc
 50
67.7806898294712
 51
112.219310170532
  0
LINE
  5
44E
330
1B
100
AcDbEntity
  8
4
100
AcDbLine
 10
1237.054726089445
 20
502.8147941593693
 30
0.0
 11
1216.270116398618
 21
502.8147941593693
 31
0.0
  0
LINE
  5
44F
330
1B
100
AcDbEntity
  8
4
100
AcDbLine
 10
1233.590624474307
 20
501.4543222550496
 30
0.0
 11
1233.590624474307
 21
492.8147941593693
 31
0.0
  0
ARC
  5
450
330
1B
100
AcDbEntity
  8
4
100
AcDbCircle
 10
1237.054726089445
 20
497.7243238018164
 30
0.0
 40
5.090470357553002
100
AcDbArc
 50
47.11671159490859
 51
132.8832884050787
  0
LINE
  5
451
330
1B
100
AcDbEntity
  8
4
100
AcDbLine
 10
1240.518827704583
 20
488.8147941593693
 30
0.0
 11
1240.518827704583
 21
501.4543222550496
 31
0.0
  0
LINE
  5
452
330
1B
100
AcDbEntity
  8
4
100
AcDbLine
 10
1219.734218013756
 20
501.4543222550496
 30
0.0
 11
1219.734218013756
 21
492.8147941593693
 31
0.0
  0
ARC
  5
453
330
1B
100
AcDbEntity
  8
4
100
AcDbCircle
 10
1216.270116398618
 20
497.7243238018164
 30
0.0
 40
5.090470357553012
100
AcDbArc
 50
47.11671159490859
 51
132.8832884050787
  0
LINE
  5
454
330
1B
100
AcDbEntity
  8
4
100
AcDbLine
 10
1212.80601478348
 20
501.4543222550496
 30
0.0
 11
1212.80601478348
 21
488.8147941593693
 31
0.0
  0
LINE
  5
455
330
1B
100
AcDbEntity
  8
4
100
AcDbLine
 10
1104.435523822503
 20
492.8147941593693
 30
0.0
 11
1132.148336743604
 21
492.8147941593693
 31
0.0
  0
LINE
  5
456
330
1B
100
AcDbEntity
  8
4
100
AcDbLine
 10
1104.435523822503
 20
488.8147941593693
 30
0.0
 11
1132.148336743604
 21
488.8147941593693
 31
0.0
  0
ARC
  5
457
330
1B
100
AcDbEntity
  8
4
100
AcDbCircle
 10
1118.291930283054
 20
484.4936205856357
 30
0.0
 40
18.32117357373317
100
AcDbArc
 50
67.78068982946803
 51
112.2193101705288
  0
LINE
  5
458
330
1B
100
AcDbEntity
  8
4
100
AcDbLine
 10
1128.684235128468
 20
502.8147941593693
 30
0.0
 11
1107.899625437641
 21
502.8147941593693
 31
0.0
  0
LINE
  5
459
330
1B
100
AcDbEntity
  8
4
100
AcDbLine
 10
1125.22013351333
 20
501.4543222550496
 30
0.0
 11
1125.22013351333
 21
492.8147941593693
 31
0.0
  0
ARC
  5
45A
330
1B
100
AcDbEntity
  8
4
100
AcDbCircle
 10
1128.684235128468
 20
497.7243238018164
 30
0.0
 40
5.090470357553002
100
AcDbArc
 50
47.11671159492132
 51
132.8832884050914
  0
LINE
  5
45B
330
1B
100
AcDbEntity
  8
4
100
AcDbLine
 10
1132.148336743604
 20
488.8147941593693
 30
0.0
 11
1132.148336743604
 21
501.4543222550496
 31
0.0
  0
LINE
  5
45C
330
1B
100
AcDbEntity
  8
4
100
AcDbLine
 10
1111.363727052779
 20
501.4543222550496
 30
0.0
 11
1111.363727052779
 21
492.8147941593693
 31
0.0
  0
ARC
  5
45D
330
1B
100
AcDbEntity
  8
4
100
AcDbCircle
 10
1107.899625437641
 20
497.7243238018164
 30
0.0
 40
5.090470357553012
100
AcDbArc
 50
47.11671159492132
 51
132.8832884050914
  0
LINE
  5
45E
330
1B
100
AcDbEntity
  8
4
100
AcDbLine
 10
1104.435523822503
 20
501.4543222550496
 30
0.0
 11
1104.435523822503
 21
488.8147941593693
 31
0.0
  0
LINE
  5
45F
330
1B
100
AcDbEntity
  8
CENTER
100
AcDbLine
 10
1118.291930283054
 20
509.2027087523234
 30
0.0
 11
1118.291930283054
 21
455.8147941593693
 31
0.0
  0
LINE
  5
460
330
1B
100
AcDbEntity
  8
4
100
AcDbLine
 10
842.8060147834799
 20
492.8147941593693
 30
0.0
 11
870.5188277045831
 21
492.8147941593693
 31
0.0
  0
LINE
  5
461
330
1B
100
AcDbEntity
  8
4
100
AcDbLine
 10
842.8060147834799
 20
488.8147941593693
 30
0.0
 11
870.5188277045831
 21
488.8147941593693
 31
0.0
  0
ARC
  5
462
330
1B
100
AcDbEntity
  8
4
100
AcDbCircle
 10
856.6624212440324
 20
484.4936205856357
 30
0.0
 40
18.32117357373317
100
AcDbArc
 50
67.7806898294712
 51
112.219310170532
  0
LINE
  5
463
330
1B
100
AcDbEntity
  8
4
100
AcDbLine
 10
867.054726089445
 20
502.8147941593693
 30
0.0
 11
846.270116398618
 21
502.8147941593693
 31
0.0
  0
LINE
  5
464
330
1B
100
AcDbEntity
  8
4
100
AcDbLine
 10
863.5906244743069
 20
501.4543222550496
 30
0.0
 11
863.5906244743069
 21
492.8147941593693
 31
0.0
  0
ARC
  5
465
330
1B
100
AcDbEntity
  8
4
100
AcDbCircle
 10
867.054726089445
 20
497.7243238018164
 30
0.0
 40
5.090470357553002
100
AcDbArc
 50
47.11671159490953
 51
132.8832884050787
  0
LINE
  5
466
330
1B
100
AcDbEntity
  8
4
100
AcDbLine
 10
870.5188277045831
 20
488.8147941593693
 30
0.0
 11
870.5188277045831
 21
501.4543222550496
 31
0.0
  0
LINE
  5
467
330
1B
100
AcDbEntity
  8
4
100
AcDbLine
 10
849.7342180137562
 20
501.4543222550496
 30
0.0
 11
849.7342180137562
 21
492.8147941593693
 31
0.0
  0
ARC
  5
468
330
1B
100
AcDbEntity
  8
4
100
AcDbCircle
 10
846.270116398618
 20
497.7243238018164
 30
0.0
 40
5.090470357553012
100
AcDbArc
 50
47.11671159490953
 51
132.8832884050787
  0
LINE
  5
469
330
1B
100
AcDbEntity
  8
4
100
AcDbLine
 10
842.8060147834799
 20
501.4543222550496
 30
0.0
 11
842.8060147834799
 21
488.8147941593693
 31
0.0
  0
ARC
  5
46A
330
1B
100
AcDbEntity
  8
4
100
AcDbCircle
 10
584.6406073595967
 20
497.7243238018164
 30
0.0
 40
5.090470357553002
100
AcDbArc
 50
47.11671159492132
 51
132.8832884050905
  0
LINE
  5
46B
330
1B
100
AcDbEntity
  8
4
100
AcDbLine
 10
584.6406073595967
 20
502.8147941593693
 30
0.0
 11
605.4252170504237
 21
502.8147941593693
 31
0.0
  0
LINE
  5
46C
330
1B
100
AcDbEntity
  8
4
100
AcDbLine
 10
608.8893186655619
 20
488.8147941593693
 30
0.0
 11
581.1765057444586
 21
488.8147941593693
 31
0.0
  0
LINE
  5
46D
330
1B
100
AcDbEntity
  8
4
100
AcDbLine
 10
608.8893186655619
 20
492.8147941593693
 30
0.0
 11
581.1765057444586
 21
492.8147941593693
 31
0.0
  0
LINE
  5
46E
330
1B
100
AcDbEntity
  8
CENTER
100
AcDbLine
 10
595.0329122050093
 20
509.2027087523234
 30
0.0
 11
595.0329122050093
 21
455.8147941593693
 31
0.0
  0
LINE
  5
46F
330
1B
100
AcDbEntity
  8
4
100
AcDbLine
 10
608.8893186655619
 20
501.4543222550496
 30
0.0
 11
608.8893186655619
 21
488.8147941593693
 31
0.0
  0
ARC
  5
470
330
1B
100
AcDbEntity
  8
4
100
AcDbCircle
 10
605.4252170504237
 20
497.7243238018164
 30
0.0
 40
5.090470357553012
100
AcDbArc
 50
47.11671159492038
 51
132.8832884050905
  0
LINE
  5
471
330
1B
100
AcDbEntity
  8
4
100
AcDbLine
 10
601.9611154352856
 20
501.4543222550496
 30
0.0
 11
601.9611154352856
 21
492.8147941593693
 31
0.0
  0
LINE
  5
472
330
1B
100
AcDbEntity
  8
4
100
AcDbLine
 10
588.1047089747349
 20
501.4543222550496
 30
0.0
 11
588.1047089747349
 21
492.8147941593693
 31
0.0
  0
ARC
  5
473
330
1B
100
AcDbEntity
  8
4
100
AcDbCircle
 10
595.0329122050093
 20
484.4936205856357
 30
0.0
 40
18.32117357373317
100
AcDbArc
 50
67.78068982946803
 51
112.2193101705259
  0
LINE
  5
474
330
1B
100
AcDbEntity
  8
4
100
AcDbLine
 10
581.1765057444586
 20
488.8147941593693
 30
0.0
 11
581.1765057444586
 21
501.4543222550496
 31
0.0
  0
LINE
  5
475
330
1B
100
AcDbEntity
  8
CENTER
100
AcDbLine
 10
486.662421244032
 20
509.2027087523234
 30
0.0
 11
486.662421244032
 21
455.8147941593693
 31
0.0
  0
LINE
  5
476
330
1B
100
AcDbEntity
  8
4
100
AcDbLine
 10
500.5188277045836
 20
492.8147941593693
 30
0.0
 11
472.8060147834813
 21
492.8147941593693
 31
0.0
  0
LINE
  5
477
330
1B
100
AcDbEntity
  8
4
100
AcDbLine
 10
500.5188277045836
 20
488.8147941593693
 30
0.0
 11
472.8060147834813
 21
488.8147941593693
 31
0.0
  0
ARC
  5
478
330
1B
100
AcDbEntity
  8
4
100
AcDbCircle
 10
486.662421244032
 20
484.4936205856357
 30
0.0
 40
18.32117357373317
100
AcDbArc
 50
67.7806898294712
 51
112.2193101705288
  0
LINE
  5
479
330
1B
100
AcDbEntity
  8
4
100
AcDbLine
 10
476.2701163986185
 20
502.8147941593693
 30
0.0
 11
497.0547260894455
 21
502.8147941593693
 31
0.0
  0
LINE
  5
47A
330
1B
100
AcDbEntity
  8
4
100
AcDbLine
 10
479.7342180137566
 20
501.4543222550496
 30
0.0
 11
479.7342180137566
 21
492.8147941593693
 31
0.0
  0
ARC
  5
47B
330
1B
100
AcDbEntity
  8
4
100
AcDbCircle
 10
476.2701163986185
 20
497.7243238018164
 30
0.0
 40
5.090470357553002
100
AcDbArc
 50
47.11671159491409
 51
132.8832884050859
  0
LINE
  5
47C
330
1B
100
AcDbEntity
  8
4
100
AcDbLine
 10
472.8060147834813
 20
488.8147941593693
 30
0.0
 11
472.8060147834813
 21
501.4543222550496
 31
0.0
  0
LINE
  5
47D
330
1B
100
AcDbEntity
  8
4
100
AcDbLine
 10
493.5906244743073
 20
501.4543222550496
 30
0.0
 11
493.5906244743073
 21
492.8147941593693
 31
0.0
  0
ARC
  5
47E
330
1B
100
AcDbEntity
  8
4
100
AcDbCircle
 10
497.0547260894455
 20
497.7243238018164
 30
0.0
 40
5.090470357553012
100
AcDbArc
 50
47.11671159491409
 51
132.8832884050859
  0
LINE
  5
47F
330
1B
100
AcDbEntity
  8
4
100
AcDbLine
 10
500.5188277045836
 20
501.4543222550496
 30
0.0
 11
500.5188277045836
 21
488.8147941593693
 31
0.0
  0
LINE
  5
480
330
1B
100
AcDbEntity
  8
4
100
AcDbLine
 10
1887.56385240688
 20
501.4543222550496
 30
0.0
 11
1887.56385240688
 21
488.8147941593693
 31
0.0
  0
ARC
  5
481
330
1B
100
AcDbEntity
  8
4
100
AcDbCircle
 10
1884.099750791741
 20
497.7243238018164
 30
0.0
 40
5.090470357553012
100
AcDbArc
 50
47.11671159491944
 51
132.8832884050914
  0
LINE
  5
482
330
1B
100
AcDbEntity
  8
4
100
AcDbLine
 10
1880.635649176603
 20
501.4543222550496
 30
0.0
 11
1880.635649176603
 21
492.8147941593693
 31
0.0
  0
LINE
  5
483
330
1B
100
AcDbEntity
  8
4
100
AcDbLine
 10
1859.851039485776
 20
488.8147941593693
 30
0.0
 11
1859.851039485776
 21
501.4543222550496
 31
0.0
  0
ARC
  5
484
330
1B
100
AcDbEntity
  8
4
100
AcDbCircle
 10
1863.315141100914
 20
497.7243238018164
 30
0.0
 40
5.090470357553002
100
AcDbArc
 50
47.11671159492132
 51
132.8832884050914
  0
LINE
  5
485
330
1B
100
AcDbEntity
  8
4
100
AcDbLine
 10
1866.779242716053
 20
501.4543222550496
 30
0.0
 11
1866.779242716053
 21
492.8147941593693
 31
0.0
  0
LINE
  5
486
330
1B
100
AcDbEntity
  8
4
100
AcDbLine
 10
1863.315141100914
 20
502.8147941593693
 30
0.0
 11
1884.099750791741
 21
502.8147941593693
 31
0.0
  0
ARC
  5
487
330
1B
100
AcDbEntity
  8
4
100
AcDbCircle
 10
1873.707445946327
 20
484.4936205856357
 30
0.0
 40
18.32117357373317
100
AcDbArc
 50
67.78068982946803
 51
112.2193101705288
  0
LINE
  5
488
330
1B
100
AcDbEntity
  8
4
100
AcDbLine
 10
1887.56385240688
 20
488.8147941593693
 30
0.0
 11
1859.851039485776
 21
488.8147941593693
 31
0.0
  0
LINE
  5
489
330
1B
100
AcDbEntity
  8
4
100
AcDbLine
 10
1887.56385240688
 20
492.8147941593693
 30
0.0
 11
1859.851039485776
 21
492.8147941593693
 31
0.0
  0
LINE
  5
48A
330
1B
100
AcDbEntity
  8
CENTER
100
AcDbLine
 10
1873.707445946327
 20
509.2027087523234
 30
0.0
 11
1873.707445946327
 21
455.8147941593693
 31
0.0
  0
LINE
  5
48B
330
1B
100
AcDbEntity
  8
4
100
AcDbLine
 10
1968.221530446755
 20
488.8147941593693
 30
0.0
 11
1968.221530446755
 21
501.4543222550496
 31
0.0
  0
ARC
  5
48C
330
1B
100
AcDbEntity
  8
4
100
AcDbCircle
 10
1982.077936907306
 20
484.4936205856357
 30
0.0
 40
18.32117357373317
100
AcDbArc
 50
67.7806898294712
 51
112.219310170532
  0
LINE
  5
48D
330
1B
100
AcDbEntity
  8
4
100
AcDbLine
 10
1975.149733677029
 20
501.4543222550496
 30
0.0
 11
1975.149733677029
 21
492.8147941593693
 31
0.0
  0
LINE
  5
48E
330
1B
100
AcDbEntity
  8
4
100
AcDbLine
 10
1989.00614013758
 20
501.4543222550496
 30
0.0
 11
1989.00614013758
 21
492.8147941593693
 31
0.0
  0
ARC
  5
48F
330
1B
100
AcDbEntity
  8
4
100
AcDbCircle
 10
1992.470241752718
 20
497.7243238018164
 30
0.0
 40
5.090470357553012
100
AcDbArc
 50
47.11671159490859
 51
132.8832884050805
  0
LINE
  5
490
330
1B
100
AcDbEntity
  8
4
100
AcDbLine
 10
1995.934343367856
 20
501.4543222550496
 30
0.0
 11
1995.934343367856
 21
488.8147941593693
 31
0.0
  0
LINE
  5
491
330
1B
100
AcDbEntity
  8
4
100
AcDbLine
 10
1995.934343367856
 20
492.8147941593693
 30
0.0
 11
1968.221530446755
 21
492.8147941593693
 31
0.0
  0
LINE
  5
492
330
1B
100
AcDbEntity
  8
4
100
AcDbLine
 10
1995.934343367856
 20
488.8147941593693
 30
0.0
 11
1968.221530446755
 21
488.8147941593693
 31
0.0
  0
LINE
  5
493
330
1B
100
AcDbEntity
  8
4
100
AcDbLine
 10
1971.685632061891
 20
502.8147941593693
 30
0.0
 11
1992.470241752718
 21
502.8147941593693
 31
0.0
  0
ARC
  5
494
330
1B
100
AcDbEntity
  8
4
100
AcDbCircle
 10
1971.685632061891
 20
497.7243238018164
 30
0.0
 40
5.090470357553002
100
AcDbArc
 50
47.11671159490859
 51
132.8832884050787
  0
LINE
  5
495
330
1B
100
AcDbEntity
  8
CENTER
100
AcDbLine
 10
1982.077936907306
 20
509.2027087523234
 30
0.0
 11
1982.077936907306
 21
455.8147941593693
 31
0.0
  0
LINE
  5
496
330
1B
100
AcDbEntity
  8
4
100
AcDbLine
 10
2229.851039485776
 20
501.4543222550496
 30
0.0
 11
2229.851039485776
 21
488.8147941593693
 31
0.0
  0
ARC
  5
497
330
1B
100
AcDbEntity
  8
4
100
AcDbCircle
 10
2233.315141100914
 20
497.7243238018164
 30
0.0
 40
5.090470357553012
100
AcDbArc
 50
47.11671159491583
 51
132.8832884050914
  0
LINE
  5
498
330
1B
100
AcDbEntity
  8
4
100
AcDbLine
 10
2236.779242716053
 20
501.4543222550496
 30
0.0
 11
2236.779242716053
 21
492.8147941593693
 31
0.0
  0
LINE
  5
499
330
1B
100
AcDbEntity
  8
4
100
AcDbLine
 10
2257.563852406878
 20
488.8147941593693
 30
0.0
 11
2257.563852406878
 21
501.4543222550496
 31
0.0
  0
ARC
  5
49A
330
1B
100
AcDbEntity
  8
4
100
AcDbCircle
 10
2254.099750791741
 20
497.7243238018164
 30
0.0
 40
5.090470357553002
100
AcDbArc
 50
47.11671159492132
 51
132.8832884050914
  0
LINE
  5
49B
330
1B
100
AcDbEntity
  8
4
100
AcDbLine
 10
2250.635649176603
 20
501.4543222550496
 30
0.0
 11
2250.635649176603
 21
492.8147941593693
 31
0.0
  0
LINE
  5
49C
330
1B
100
AcDbEntity
  8
4
100
AcDbLine
 10
2254.099750791741
 20
502.8147941593693
 30
0.0
 11
2233.315141100914
 21
502.8147941593693
 31
0.0
  0
ARC
  5
49D
330
1B
100
AcDbEntity
  8
4
100
AcDbCircle
 10
2243.707445946327
 20
484.4936205856357
 30
0.0
 40
18.32117357373317
100
AcDbArc
 50
67.78068982946803
 51
112.2193101705288
  0
LINE
  5
49E
330
1B
100
AcDbEntity
  8
4
100
AcDbLine
 10
2229.851039485776
 20
488.8147941593693
 30
0.0
 11
2257.563852406878
 21
488.8147941593693
 31
0.0
  0
LINE
  5
49F
330
1B
100
AcDbEntity
  8
4
100
AcDbLine
 10
2229.851039485776
 20
492.8147941593693
 30
0.0
 11
2257.563852406878
 21
492.8147941593693
 31
0.0
  0
ARC
  5
4A0
330
1B
100
AcDbEntity
  8
4
100
AcDbCircle
 10
2515.729259830763
 20
497.7243238018164
 30
0.0
 40
5.090470357553002
100
AcDbArc
 50
47.11671159490859
 51
132.8832884050787
  0
LINE
  5
4A1
330
1B
100
AcDbEntity
  8
4
100
AcDbLine
 10
2515.729259830763
 20
502.8147941593693
 30
0.0
 11
2494.944650139936
 21
502.8147941593693
 31
0.0
  0
LINE
  5
4A2
330
1B
100
AcDbEntity
  8
4
100
AcDbLine
 10
2491.480548524798
 20
488.8147941593693
 30
0.0
 11
2519.193361445901
 21
488.8147941593693
 31
0.0
  0
LINE
  5
4A3
330
1B
100
AcDbEntity
  8
4
100
AcDbLine
 10
2491.480548524798
 20
492.8147941593693
 30
0.0
 11
2519.193361445901
 21
492.8147941593693
 31
0.0
  0
LINE
  5
4A4
330
1B
100
AcDbEntity
  8
4
100
AcDbLine
 10
2491.480548524798
 20
501.4543222550496
 30
0.0
 11
2491.480548524798
 21
488.8147941593693
 31
0.0
  0
ARC
  5
4A5
330
1B
100
AcDbEntity
  8
4
100
AcDbCircle
 10
2494.944650139936
 20
497.7243238018164
 30
0.0
 40
5.090470357553012
100
AcDbArc
 50
47.11671159490859
 51
132.8832884050787
  0
LINE
  5
4A6
330
1B
100
AcDbEntity
  8
4
100
AcDbLine
 10
2498.408751755074
 20
501.4543222550496
 30
0.0
 11
2498.408751755074
 21
492.8147941593693
 31
0.0
  0
LINE
  5
4A7
330
1B
100
AcDbEntity
  8
4
100
AcDbLine
 10
2512.265158215625
 20
501.4543222550496
 30
0.0
 11
2512.265158215625
 21
492.8147941593693
 31
0.0
  0
ARC
  5
4A8
330
1B
100
AcDbEntity
  8
4
100
AcDbCircle
 10
2505.33695498535
 20
484.4936205856357
 30
0.0
 40
18.32117357373317
100
AcDbArc
 50
67.7806898294741
 51
112.219310170532
  0
LINE
  5
4A9
330
1B
100
AcDbEntity
  8
4
100
AcDbLine
 10
2519.193361445901
 20
488.8147941593693
 30
0.0
 11
2519.193361445901
 21
501.4543222550496
 31
0.0
  0
LINE
  5
4AA
330
1B
100
AcDbEntity
  8
CENTER
100
AcDbLine
 10
2505.33695498535
 20
509.2027087523234
 30
0.0
 11
2505.33695498535
 21
455.8147941593693
 31
0.0
  0
LINE
  5
4AB
330
1B
100
AcDbEntity
  8
4
100
AcDbLine
 10
2599.851039485776
 20
492.8147941593693
 30
0.0
 11
2627.563852406878
 21
492.8147941593693
 31
0.0
  0
LINE
  5
4AC
330
1B
100
AcDbEntity
  8
4
100
AcDbLine
 10
2599.851039485776
 20
488.8147941593693
 30
0.0
 11
2627.563852406878
 21
488.8147941593693
 31
0.0
  0
ARC
  5
4AD
330
1B
100
AcDbEntity
  8
4
100
AcDbCircle
 10
2613.707445946327
 20
484.4936205856357
 30
0.0
 40
18.32117357373317
100
AcDbArc
 50
67.78068982946803
 51
112.2193101705259
  0
LINE
  5
4AE
330
1B
100
AcDbEntity
  8
4
100
AcDbLine
 10
2624.099750791741
 20
502.8147941593693
 30
0.0
 11
2603.315141100914
 21
502.8147941593693
 31
0.0
  0
LINE
  5
4AF
330
1B
100
AcDbEntity
  8
4
100
AcDbLine
 10
2620.635649176603
 20
501.4543222550496
 30
0.0
 11
2620.635649176603
 21
492.8147941593693
 31
0.0
  0
ARC
  5
4B0
330
1B
100
AcDbEntity
  8
4
100
AcDbCircle
 10
2624.099750791741
 20
497.7243238018164
 30
0.0
 40
5.090470357553002
100
AcDbArc
 50
47.11671159492132
 51
132.8832884050914
  0
LINE
  5
4B1
330
1B
100
AcDbEntity
  8
4
100
AcDbLine
 10
2627.563852406878
 20
488.8147941593693
 30
0.0
 11
2627.563852406878
 21
501.4543222550496
 31
0.0
  0
LINE
  5
4B2
330
1B
100
AcDbEntity
  8
4
100
AcDbLine
 10
2606.779242716053
 20
501.4543222550496
 30
0.0
 11
2606.779242716053
 21
492.8147941593693
 31
0.0
  0
ARC
  5
4B3
330
1B
100
AcDbEntity
  8
4
100
AcDbCircle
 10
2603.315141100914
 20
497.7243238018164
 30
0.0
 40
5.090470357553012
100
AcDbArc
 50
47.11671159492132
 51
132.8832884050914
  0
LINE
  5
4B4
330
1B
100
AcDbEntity
  8
4
100
AcDbLine
 10
2599.851039485776
 20
501.4543222550496
 30
0.0
 11
2599.851039485776
 21
488.8147941593693
 31
0.0
  0
LINE
  5
4B5
330
1B
100
AcDbEntity
  8
CENTER
100
AcDbLine
 10
2613.707445946327
 20
509.2027087523234
 30
0.0
 11
2613.707445946327
 21
455.8147941593693
 31
0.0
  0
LINE
  5
4B6
330
1B
100
AcDbEntity
  8
L-CENTER
100
AcDbLine
 10
839.9954554823175
 20
136.2139542792645
 30
0.0
 11
839.9954554823175
 21
189.297488486405
 31
0.0
  0
LINE
  5
4FE
330
1B
100
AcDbEntity
  8
4
 62
     3
100
AcDbLine
 10
2612.707445946327
 20
154.8147941593695
 30
0.0
 11
2612.707445946327
 21
104.8147941593695
 31
0.0
  0
LINE
  5
4FF
330
1B
100
AcDbEntity
  8
4
 62
     3
100
AcDbLine
 10
2638.707445946327
 20
154.8147941593695
 30
0.0
 11
2638.707445946327
 21
104.8147941593695
 31
0.0
  0
LINE
  5
68C
330
1B
100
AcDbEntity
  8
4
100
AcDbLine
 10
2085.207445946327
 20
514.3147941593697
 30
0.0
 11
2040.207445946327
 21
514.3147941593697
 31
0.0
  0
LINE
  5
68D
330
1B
100
AcDbEntity
  8
4
100
AcDbLine
 10
2085.707445946327
 20
513.8147941593697
 30
0.0
 11
2085.707445946327
 21
505.3147941593697
 31
0.0
  0
LINE
  5
68E
330
1B
100
AcDbEntity
  8
4
100
AcDbLine
 10
2039.707445946327
 20
513.8147941593697
 30
0.0
 11
2039.707445946327
 21
505.3147941593697
 31
0.0
  0
ARC
  5
68F
330
1B
100
AcDbEntity
  8
4
100
AcDbCircle
 10
2085.207445946327
 20
513.8147941593697
 30
0.0
 40
0.5
100
AcDbArc
 50
0.0
 51
90.0
  0
ARC
  5
690
330
1B
100
AcDbEntity
  8
4
100
AcDbCircle
 10
2040.207445946327
 20
513.8147941593697
 30
0.0
 40
0.5
100
AcDbArc
 50
90.0
 51
180.0
  0
LINE
  5
691
330
1B
100
AcDbEntity
  8
4
100
AcDbLine
 10
2085.707445946327
 20
509.3147941593697
 30
0.0
 11
2039.707445946327
 21
509.3147941593697
 31
0.0
  0
LINE
  5
692
330
1B
100
AcDbEntity
  8
4
100
AcDbLine
 10
2085.707445946327
 20
505.3147941593697
 30
0.0
 11
2039.707445946327
 21
505.3147941593697
 31
0.0
  0
LINE
  5
693
330
1B
100
AcDbEntity
  8
4
100
AcDbLine
 10
2074.398788897417
 20
514.3147941593697
 30
0.0
 11
2074.398788897417
 21
509.3147941593697
 31
0.0
  0
LINE
  5
694
330
1B
100
AcDbEntity
  8
4
100
AcDbLine
 10
2085.207445946327
 20
503.8147941593697
 30
0.0
 11
2040.207445946327
 21
503.8147941593693
 31
0.0
  0
LINE
  5
695
330
1B
100
AcDbEntity
  8
4
100
AcDbLine
 10
2085.207445946327
 20
505.3147941593697
 30
0.0
 11
2085.207445946327
 21
503.8147941593697
 31
0.0
  0
LINE
  5
696
330
1B
100
AcDbEntity
  8
4
100
AcDbLine
 10
2040.207445946327
 20
505.3147941593697
 30
0.0
 11
2040.207445946327
 21
503.8147941593697
 31
0.0
  0
LINE
  5
697
330
1B
100
AcDbEntity
  8
4
100
AcDbLine
 10
2051.016102995237
 20
514.3147941593697
 30
0.0
 11
2051.016102995237
 21
509.3147941593697
 31
0.0
  0
LINE
  5
698
330
1B
100
AcDbEntity
  8
4
100
AcDbLine
 10
879.6624212440324
 20
509.3147941593697
 30
0.0
 11
879.6624212440324
 21
505.3147941593697
 31
0.0
  0
LINE
  5
699
330
1B
100
AcDbEntity
  8
4
100
AcDbLine
 10
833.6624212440324
 20
509.3147941593697
 30
0.0
 11
833.6624212440324
 21
505.3147941593697
 31
0.0
  0
LINE
  5
69A
330
1B
100
AcDbEntity
  8
4
100
AcDbLine
 10
879.6624212440324
 20
509.3147941593697
 30
0.0
 11
878.6812608315508
 21
509.3147941593697
 31
0.0
  0
LINE
  5
69B
330
1B
100
AcDbEntity
  8
4
100
AcDbLine
 10
834.6435795176235
 20
509.3147941593697
 30
0.0
 11
833.6624212440324
 21
509.3147941593697
 31
0.0
  0
LINE
  5
69C
330
1B
100
AcDbEntity
  8
4
100
AcDbLine
 10
879.6624212440324
 20
505.3147941593697
 30
0.0
 11
879.0311971315373
 21
505.3147941593697
 31
0.0
  0
LINE
  5
69D
330
1B
100
AcDbEntity
  8
4
100
AcDbLine
 10
834.2936447731931
 20
505.3147941593697
 30
0.0
 11
833.6624212440324
 21
505.3147941593697
 31
0.0
  0
LINE
  5
69E
330
1B
100
AcDbEntity
  8
4
100
AcDbLine
 10
879.1624212440324
 20
503.8147941593697
 30
0.0
 11
834.1624212440324
 21
503.8147941593693
 31
0.0
  0
LINE
  5
69F
330
1B
100
AcDbEntity
  8
4
100
AcDbLine
 10
879.1624212440324
 20
505.3147941593697
 30
0.0
 11
879.1624212440324
 21
503.8147941593697
 31
0.0
  0
LINE
  5
6A0
330
1B
100
AcDbEntity
  8
4
100
AcDbLine
 10
834.1624212440324
 20
505.3147941593697
 30
0.0
 11
834.1624212440324
 21
503.8147941593697
 31
0.0
  0
CIRCLE
  5
6A1
330
1B
100
AcDbEntity
  8
4
100
AcDbCircle
 10
856.6624212440324
 20
1433.81677749907
 30
0.0
 40
23.0
  0
LINE
  5
6A2
330
1B
100
AcDbEntity
  8
4
100
AcDbLine
 10
876.9124212440324
 20
1443.776069642591
 30
0.0
 11
876.9124212440324
 21
1423.857485355549
 31
0.0
  0
LINE
  5
6A3
330
1B
100
AcDbEntity
  8
4
100
AcDbLine
 10
836.4124212440324
 20
1443.776069642591
 30
0.0
 11
836.4124212440324
 21
1423.85748535064
 31
0.0
  0
LINE
  5
6A4
330
1B
100
AcDbEntity
  8
4
100
AcDbLine
 10
837.9124212434995
 20
1421.259409139594
 30
0.0
 11
855.1624212273678
 21
1411.300117000674
 31
0.0
  0
LINE
  5
6A5
330
1B
100
AcDbEntity
  8
4
100
AcDbLine
 10
858.1624212440324
 20
1456.333437997465
 30
0.0
 11
875.4124212440324
 21
1446.374145853944
 31
0.0
  0
LINE
  5
6A6
330
1B
100
AcDbEntity
  8
4
100
AcDbLine
 10
855.1624212440324
 20
1456.333437997465
 30
0.0
 11
837.9124212440324
 21
1446.374145853944
 31
0.0
  0
LINE
  5
6A7
330
1B
100
AcDbEntity
  8
4
100
AcDbLine
 10
875.4124212440324
 20
1421.259409144195
 30
0.0
 11
858.1624212273678
 21
1411.300117000674
 31
0.0
  0
ARC
  5
6A8
330
1B
100
AcDbEntity
  8
4
100
AcDbCircle
 10
856.6624212440324
 20
1453.735361786112
 30
0.0
 40
3.0
100
AcDbArc
 50
59.9999999999965
 51
120.000000000021
  0
ARC
  5
6A9
330
1B
100
AcDbEntity
  8
4
100
AcDbCircle
 10
873.9124212440324
 20
1443.776069642591
 30
0.0
 40
3.0
100
AcDbArc
 50
0.0
 51
59.9999999999965
  0
ARC
  5
6AA
330
1B
100
AcDbEntity
  8
4
100
AcDbCircle
 10
873.9124212440324
 20
1423.857485355549
 30
0.0
 40
3.0
100
AcDbArc
 50
299.9999999999838
 51
0.0
  0
ARC
  5
6AB
330
1B
100
AcDbEntity
  8
4
100
AcDbCircle
 10
856.6624212273678
 20
1413.898193212028
 30
0.0
 40
3.0
100
AcDbArc
 50
240.0000000000043
 51
299.9999999999957
  0
ARC
  5
6AC
330
1B
100
AcDbEntity
  8
4
100
AcDbCircle
 10
839.4124212440324
 20
1423.85748535064
 30
0.0
 40
3.0
100
AcDbArc
 50
180.0
 51
239.9999999882477
  0
ARC
  5
6AD
330
1B
100
AcDbEntity
  8
4
100
AcDbCircle
 10
839.4124212440324
 20
1443.776069642591
 30
0.0
 40
3.0
100
AcDbArc
 50
120.000000000021
 51
180.0
  0
CIRCLE
  5
6AE
330
1B
100
AcDbEntity
  8
4
100
AcDbCircle
 10
856.6624212440324
 20
1433.81677749907
 30
0.0
 40
1.5
  0
CIRCLE
  5
6AF
330
1B
100
AcDbEntity
  8
4
100
AcDbCircle
 10
856.6624212440324
 20
1433.81677749907
 30
0.0
 40
25.0
  0
LINE
  5
6DA
330
1B
100
AcDbEntity
  8
4
100
AcDbLine
 10
2286.677250490452
 20
525.8147991593692
 30
0.0
 11
2299.737491610196
 21
525.8147991593692
 31
0.0
  0
ENDSEC
  0
SECTION
  2
OBJECTS
  0
DICTIONARY
  5
9
330
0
100
AcDbDictionary
281
     1
  3
ACAD_COLOR
350
2F
  3
ACAD_GROUP
350
2D
  3
ACAD_LAYOUT
350
24
  3
ACAD_MATERIAL
350
B
  3
ACAD_MLEADERSTYLE
350
6BB
  3
ACAD_MLINESTYLE
350
19
  3
ACAD_PLOTSETTINGS
350
2E
  3
ACAD_PLOTSTYLENAME
350
8
  3
ACAD_SCALELIST
350
36
  3
ACAD_TABLESTYLE
350
6BA
  3
ACAD_VISUALSTYLE
350
30
  3
ACDBHEADERROUNDTRIPXREC
350
6DE
  3
AcDbVariableDictionary
350
6B8
  3
DWGPROPS
350
6E1
  0
DICTIONARY
  5
6E2
330
2C
100
AcDbDictionary
280
     1
281
     1
  3
ACAD_XREC_ROUNDTRIP
360
6E3
  0
DICTIONARY
  5
3
330
2
100
AcDbDictionary
280
     1
281
     1
  3
ACAD_LAYERSTATES
360
4
  0
DICTIONARY
  5
20
330
1F
100
AcDbDictionary
280
     1
281
     1
  3
ADSK_XREC_LAYER_RECONCILED
360
21
  0
DICTIONARY
  5
5BF
330
5BE
100
AcDbDictionary
280
     1
281
     1
  3
ADSK_XREC_LAYER_RECONCILED
360
5C0
  0
DICTIONARY
  5
5
330
1
100
AcDbDictionary
280
     1
281
     1
  3
ADSK_XREC_LAYER_RECONCILED
360
6
  0
DICTIONARY
  5
84
330
83
100
AcDbDictionary
280
     1
281
     1
  3
ADSK_XREC_LAYER_RECONCILED
360
85
  0
DICTIONARY
  5
7F
330
7E
100
AcDbDictionary
280
     1
281
     1
  3
ADSK_XREC_LAYER_RECONCILED
360
80
  0
DICTIONARY
  5
6D
330
6C
100
AcDbDictionary
280
     1
281
     1
  3
ADSK_XREC_LAYER_RECONCILED
360
6E
  0
DICTIONARY
  5
D1
330
D0
100
AcDbDictionary
280
     1
281
     1
  3
ADSK_XREC_LAYER_RECONCILED
360
D2
  0
DICTIONARY
  5
1C
330
1B
100
AcDbDictionary
280
     1
281
     1
  3
ACAD_SORTENTS
360
1D
  0
DICTIONARY
  5
2F
102
{ACAD_REACTORS
330
9
102
}
330
9
100
AcDbDictionary
281
     1
  0
DICTIONARY
  5
2D
102
{ACAD_REACTORS
330
9
102
}
330
9
100
AcDbDictionary
281
     1
  0
DICTIONARY
  5
24
102
{ACAD_REACTORS
330
9
102
}
330
9
100
AcDbDictionary
281
     1
  3
Model
350
23
  3
ﾚｲｱｳﾄ1
350
29
  0
DICTIONARY
  5
B
102
{ACAD_REACTORS
330
9
102
}
330
9
100
AcDbDictionary
281
     1
  3
ByBlock
350
69
  3
ByLayer
350
14
  3
Global
350
A
  0
DICTIONARY
  5
6BB
102
{ACAD_REACTORS
330
9
102
}
330
9
100
AcDbDictionary
281
     1
  3
Standard
350
6D5
  0
DICTIONARY
  5
19
102
{ACAD_REACTORS
330
9
102
}
330
9
100
AcDbDictionary
281
     1
  3
STANDARD
350
18
  0
DICTIONARY
  5
2E
102
{ACAD_REACTORS
330
9
102
}
330
9
100
AcDbDictionary
281
     1
  0
ACDBDICTIONARYWDFLT
  5
8
102
{ACAD_REACTORS
330
9
102
}
330
9
100
AcDbDictionary
281
     1
  3
Normal
350
7
100
AcDbDictionaryWithDefault
340
7
  0
DICTIONARY
  5
36
102
{ACAD_REACTORS
330
9
102
}
330
9
100
AcDbDictionary
281
     1
  3
*A1
350
58
  3
*A10
350
61
  3
*A11
350
62
  3
*A12
350
63
  3
*A13
350
64
  3
*A14
350
65
  3
*A15
350
66
  3
*A16
350
67
  3
*A17
350
68
  3
*A2
350
59
  3
*A3
350
5A
  3
*A4
350
5B
  3
*A5
350
5C
  3
*A6
350
5D
  3
*A7
350
5E
  3
*A8
350
5F
  3
*A9
350
60
  0
DICTIONARY
  5
6BA
102
{ACAD_REACTORS
330
9
102
}
330
9
100
AcDbDictionary
281
     1
  3
Standard
350
6D4
  0
DICTIONARY
  5
30
102
{ACAD_REACTORS
330
9
102
}
330
9
100
AcDbDictionary
281
     1
  3
2dWireframe
350
6C2
  3
Basic
350
6C4
  3
Brighten
350
6C7
  3
ColorChange
350
6CB
  3
Conceptual
350
6C5
  3
Dim
350
6C6
  3
EdgeColorOff
350
6CE
  3
Facepattern
350
6CA
  3
Flat
350
6BE
  3
FlatWithEdges
350
6BF
  3
Gouraud
350
6C0
  3
GouraudWithEdges
350
6C1
  3
Hidden
350
6C3
  3
JitterOff
350
6CC
  3
Linepattern
350
6C9
  3
OverhangOff
350
6CD
  3
Realistic
350
31
  3
Shaded
350
6D3
  3
Shaded with edges
350
6D2
  3
Shades of Gray
350
6CF
  3
Sketchy
350
6D0
  3
Thicken
350
6C8
  3
Wireframe
350
32
  3
X-Ray
350
6D1
  0
DICTIONARY
  5
6DE
102
{ACAD_REACTORS
330
9
102
}
330
9
100
AcDbDictionary
281
     1
  3
COLORDICT
350
6DF
  3
MATERIALDICT
350
6E0
  0
DICTIONARY
  5
6B8
102
{ACAD_REACTORS
330
9
102
}
330
9
100
AcDbDictionary
281
     1
  3
CANNOSCALE
350
6B9
  3
CMLEADERSTYLE
350
6D8
  3
CTABLESTYLE
350
6D7
  3
DIMASSOC
350
6DB
  3
HIDETEXT
350
6DD
  3
MSLTSCALE
350
6E4
  3
XCLIPFRAME
350
6DC
  0
XRECORD
  5
6E1
102
{ACAD_REACTORS
330
9
102
}
330
9
100
AcDbXrecord
280
     1
  1
DWGPROPS COOKIE
  2

  3

  4

  6

  7

  8
sg-d03
  9

300
=
301
=
302
=
303
=
304
=
305
=
306
=
307
=
308
=
309
=
 40
0.0
 41
2457464.080073333
 42
2458115.309001898
  1

 90
        0
  0
XRECORD
  5
6E3
102
{ACAD_REACTORS
330
6E2
102
}
330
6E2
100
AcDbXrecord
280
     1
102
VTR_0.000_0.000_1.000_1.000_VISUALSTYLE
340
6C2
102
VTR_0.000_0.000_1.000_1.000_GRIDDISPLAY
 70
     3
102
VTR_0.000_0.000_1.000_1.000_GRIDMAJOR
 70
     5
102
VTR_0.000_0.000_1.000_1.000_DEFAULTLIGHTING
280
     1
102
VTR_0.000_0.000_1.000_1.000_DEFAULTLIGHTINGTYPE
 70
     1
102
VTR_0.000_0.000_1.000_1.000_BRIGHTNESS
141
0.0
102
VTR_0.000_0.000_1.000_1.000_CONTRAST
142
0.0
  0
DICTIONARY
  5
4
102
{ACAD_REACTORS
330
3
102
}
330
3
100
AcDbDictionary
281
     1
  0
XRECORD
  5
21
102
{ACAD_REACTORS
330
20
102
}
330
20
100
AcDbXrecord
280
     1
290
     1
  0
XRECORD
  5
5C0
102
{ACAD_REACTORS
330
5BF
102
}
330
5BF
100
AcDbXrecord
280
     1
290
     1
  0
XRECORD
  5
6
102
{ACAD_REACTORS
330
5
102
}
330
5
100
AcDbXrecord
280
     1
290
     1
  0
XRECORD
  5
85
102
{ACAD_REACTORS
330
84
102
}
330
84
100
AcDbXrecord
280
     1
290
     1
  0
XRECORD
  5
80
102
{ACAD_REACTORS
330
7F
102
}
330
7F
100
AcDbXrecord
280
     1
290
     1
  0
XRECORD
  5
6E
102
{ACAD_REACTORS
330
6D
102
}
330
6D
100
AcDbXrecord
280
     1
290
     1
  0
XRECORD
  5
D2
102
{ACAD_REACTORS
330
D1
102
}
330
D1
100
AcDbXrecord
280
     1
290
     1
  0
SORTENTSTABLE
  5
1D
102
{ACAD_REACTORS
330
1C
102
}
330
1C
100
AcDbSortentsTable
330
1B
  0
LAYOUT
  5
23
102
{ACAD_REACTORS
330
24
102
}
330
24
100
AcDbPlotSettings
  1

  2
Bullzip PDF Printer.pc3
  4
A3
  6

 40
0.2
 41
0.0
 42
0.0
 43
0.0
 44
420.2
 45
297.1
 46
25.0
 47
12.0
 48
209.9999997783334
 49
10.0
140
2883.999993653333
141
1917.499995549166
142
1.0
143
7.0
 70
 11936
 72
     1
 73
     0
 74
     4
  7
monochrome.ctb
 75
     0
147
0.1428571428571428
148
-209.9999997783334
149
-10.0
100
AcDbLayout
  1
Model
 70
     0
 71
     0
 10
0.0
 20
0.0
 11
12.0
 21
9.0
 12
0.0
 22
0.0
 32
0.0
 14
406.468657988461
 24
94.81479415936951
 34
0.0
 15
2675.707445946327
 25
2046.81677749907
 35
0.0
146
0.0
 13
0.0
 23
0.0
 33
0.0
 16
1.0
 26
0.0
 36
0.0
 17
0.0
 27
1.0
 37
0.0
 76
     0
330
1B
331
33
1001
ACAD_PSEXT
1000
Bullzip PDF Printer.pc3
1000
Bullzip PDF Printer
1000
BULLZIP
1000
Bullzip PDF Printer 10.1.0.1871
1070
     0
  0
LAYOUT
  5
29
102
{ACAD_REACTORS
330
24
102
}
330
24
100
AcDbPlotSettings
  1

  2
SR-LP8300F
  4

  6

 40
0.0
 41
0.0
 42
0.0
 43
0.0
 44
0.0
 45
0.0
 46
0.0
 47
0.0
 48
0.0
 49
0.0
140
0.0
141
0.0
142
1.0
143
1.0
 70
   688
 72
     0
 73
     0
 74
     5
  7
monochrome.ctb
 75
    16
147
1.0
148
0.0
149
0.0
100
AcDbLayout
  1
ﾚｲｱｳﾄ1
 70
     0
 71
     1
 10
0.0
 20
0.0
 11
12.0
 21
9.0
 12
0.0
 22
0.0
 32
0.0
 14
1000000000000000E+20
 24
1000000000000000E+20
 34
1000000000000000E+20
 15
-1000000000000000E+20
 25
-1000000000000000E+20
 35
-1000000000000000E+20
146
0.0
 13
0.0
 23
0.0
 33
0.0
 16
1.0
 26
0.0
 36
0.0
 17
0.0
 27
1.0
 37
0.0
 76
     0
330
26
  0
MATERIAL
  5
69
102
{ACAD_REACTORS
330
B
102
}
102
{ACAD_XDICTIONARY
360
6E9
102
}
330
B
100
AcDbMaterial
  1
ByBlock
 72
     0
 73
     2
 43
0.0208333333333333
 43
0.0
 43
0.0
 43
0.0
 43
0.0
 43
0.0208333333333333
 43
0.0
 43
0.0
 43
0.0
 43
0.0
 43
1.0
 43
0.0
 43
0.0
 43
0.0
 43
0.0
 43
1.0
 77
     0
 78
     2
 47
0.0208333333333333
 47
0.0
 47
0.0
 47
0.0
 47
0.0
 47
0.0208333333333333
 47
0.0
 47
0.0
 47
0.0
 47
0.0
 47
1.0
 47
0.0
 47
0.0
 47
0.0
 47
0.0
 47
1.0
171
     0
172
     2
 49
0.0208333333333333
 49
0.0
 49
0.0
 49
0.0
 49
0.0
 49
0.0208333333333333
 49
0.0
 49
0.0
 49
0.0
 49
0.0
 49
1.0
 49
0.0
 49
0.0
 49
0.0
 49
0.0
 49
1.0
175
     0
176
     2
142
0.0208333333333333
142
0.0
142
0.0
142
0.0
142
0.0
142
0.0208333333333333
142
0.0
142
0.0
142
0.0
142
0.0
142
1.0
142
0.0
142
0.0
142
0.0
142
0.0
142
1.0
179
     0
270
     2
144
0.0208333333333333
144
0.0
144
0.0
144
0.0
144
0.0
144
0.0208333333333333
144
0.0
144
0.0
144
0.0
144
0.0
144
1.0
144
0.0
144
0.0
144
0.0
144
0.0
144
1.0
274
     2
147
0.0208333333333333
147
0.0
147
0.0
147
0.0
147
0.0
147
0.0208333333333333
147
0.0
147
0.0
147
0.0
147
0.0
147
1.0
147
0.0
147
0.0
147
0.0
147
0.0
147
1.0
  0
MATERIAL
  5
14
102
{ACAD_REACTORS
330
B
102
}
102
{ACAD_XDICTIONARY
360
6E5
102
}
330
B
100
AcDbMaterial
  1
ByLayer
 72
     0
 73
     2
 43
0.0208333333333333
 43
0.0
 43
0.0
 43
0.0
 43
0.0
 43
0.0208333333333333
 43
0.0
 43
0.0
 43
0.0
 43
0.0
 43
1.0
 43
0.0
 43
0.0
 43
0.0
 43
0.0
 43
1.0
 77
     0
 78
     2
 47
0.0208333333333333
 47
0.0
 47
0.0
 47
0.0
 47
0.0
 47
0.0208333333333333
 47
0.0
 47
0.0
 47
0.0
 47
0.0
 47
1.0
 47
0.0
 47
0.0
 47
0.0
 47
0.0
 47
1.0
171
     0
172
     2
 49
0.0208333333333333
 49
0.0
 49
0.0
 49
0.0
 49
0.0
 49
0.0208333333333333
 49
0.0
 49
0.0
 49
0.0
 49
0.0
 49
1.0
 49
0.0
 49
0.0
 49
0.0
 49
0.0
 49
1.0
175
     0
176
     2
142
0.0208333333333333
142
0.0
142
0.0
142
0.0
142
0.0
142
0.0208333333333333
142
0.0
142
0.0
142
0.0
142
0.0
142
1.0
142
0.0
142
0.0
142
0.0
142
0.0
142
1.0
179
     0
270
     2
144
0.0208333333333333
144
0.0
144
0.0
144
0.0
144
0.0
144
0.0208333333333333
144
0.0
144
0.0
144
0.0
144
0.0
144
1.0
144
0.0
144
0.0
144
0.0
144
0.0
144
1.0
274
     2
147
0.0208333333333333
147
0.0
147
0.0
147
0.0
147
0.0
147
0.0208333333333333
147
0.0
147
0.0
147
0.0
147
0.0
147
1.0
147
0.0
147
0.0
147
0.0
147
0.0
147
1.0
  0
MATERIAL
  5
A
102
{ACAD_REACTORS
330
B
102
}
102
{ACAD_XDICTIONARY
360
6E7
102
}
330
B
100
AcDbMaterial
  1
Global
 72
     0
 73
     2
 43
0.0208333333333333
 43
0.0
 43
0.0
 43
0.0
 43
0.0
 43
0.0208333333333333
 43
0.0
 43
0.0
 43
0.0
 43
0.0
 43
1.0
 43
0.0
 43
0.0
 43
0.0
 43
0.0
 43
1.0
 77
     0
 78
     2
 47
0.0208333333333333
 47
0.0
 47
0.0
 47
0.0
 47
0.0
 47
0.0208333333333333
 47
0.0
 47
0.0
 47
0.0
 47
0.0
 47
1.0
 47
0.0
 47
0.0
 47
0.0
 47
0.0
 47
1.0
171
     0
172
     2
 49
0.0208333333333333
 49
0.0
 49
0.0
 49
0.0
 49
0.0
 49
0.0208333333333333
 49
0.0
 49
0.0
 49
0.0
 49
0.0
 49
1.0
 49
0.0
 49
0.0
 49
0.0
 49
0.0
 49
1.0
175
     0
176
     2
142
0.0208333333333333
142
0.0
142
0.0
142
0.0
142
0.0
142
0.0208333333333333
142
0.0
142
0.0
142
0.0
142
0.0
142
1.0
142
0.0
142
0.0
142
0.0
142
0.0
142
1.0
179
     0
270
     2
144
0.0208333333333333
144
0.0
144
0.0
144
0.0
144
0.0
144
0.0208333333333333
144
0.0
144
0.0
144
0.0
144
0.0
144
1.0
144
0.0
144
0.0
144
0.0
144
0.0
144
1.0
274
     2
147
0.0208333333333333
147
0.0
147
0.0
147
0.0
147
0.0
147
0.0208333333333333
147
0.0
147
0.0
147
0.0
147
0.0
147
1.0
147
0.0
147
0.0
147
0.0
147
0.0
147
1.0
1001
ACAD
1070
    -1
1070
     3
1070
     0
1000

1071
        0
  0
MLEADERSTYLE
  5
6D5
102
{ACAD_REACTORS
330
6BB
102
}
102
{ACAD_XDICTIONARY
360
71B
102
}
330
6BB
100
AcDbMLeaderStyle
170
     2
171
     1
172
     0
 90
        2
 40
0.0
 41
0.0
173
     1
 91
-1056964608
340
11
 92
       -2
290
     1
 42
0.09
291
     1
 43
0.36
  3
Standard
341
0
 44
0.18
300

342
12
174
     1
178
     6
175
     1
176
     0
 93
-1056964608
 45
0.18
292
     0
297
     0
 46
0.18
343
0
 94
-1056964608
 47
1.0
 49
1.0
140
1.0
293
     1
141
0.0
294
     1
177
     0
142
1.0
295
     0
296
     0
143
0.125
1001
ACAD_MLEADERVER
1070
     2
  0
MLINESTYLE
  5
18
102
{ACAD_REACTORS
330
19
102
}
330
19
100
AcDbMlineStyle
  2
STANDARD
 70
     0
  3

 62
     0
 51
90.0
 52
90.0
 71
     2
 49
0.5
 62
   256
  6
BYLAYER
 49
-0.5
 62
   256
  6
BYLAYER
  0
ACDBPLACEHOLDER
  5
7
102
{ACAD_REACTORS
330
8
102
}
330
8
  0
SCALE
  5
58
102
{ACAD_REACTORS
330
36
102
}
330
36
100
AcDbScale
 70
     0
300
1:1
140
1.0
141
1.0
290
     1
  0
SCALE
  5
61
102
{ACAD_REACTORS
330
36
102
}
330
36
100
AcDbScale
 70
     0
300
3/8" = 1'-0"
140
0.375
141
12.0
290
     0
  0
SCALE
  5
62
102
{ACAD_REACTORS
330
36
102
}
330
36
100
AcDbScale
 70
     0
300
1/2" = 1'-0"
140
0.5
141
12.0
290
     0
  0
SCALE
  5
63
102
{ACAD_REACTORS
330
36
102
}
330
36
100
AcDbScale
 70
     0
300
3/4" = 1'-0"
140
0.75
141
12.0
290
     0
  0
SCALE
  5
64
102
{ACAD_REACTORS
330
36
102
}
330
36
100
AcDbScale
 70
     0
300
1" = 1'-0"
140
1.0
141
12.0
290
     0
  0
SCALE
  5
65
102
{ACAD_REACTORS
330
36
102
}
330
36
100
AcDbScale
 70
     0
300
1-1/2" = 1'-0"
140
1.5
141
12.0
290
     0
  0
SCALE
  5
66
102
{ACAD_REACTORS
330
36
102
}
330
36
100
AcDbScale
 70
     0
300
3" = 1'-0"
140
3.0
141
12.0
290
     0
  0
SCALE
  5
67
102
{ACAD_REACTORS
330
36
102
}
330
36
100
AcDbScale
 70
     0
300
6" = 1'-0"
140
6.0
141
12.0
290
     0
  0
SCALE
  5
68
102
{ACAD_REACTORS
330
36
102
}
330
36
100
AcDbScale
 70
     0
300
1'-0" = 1'-0"
140
12.0
141
12.0
290
     0
  0
SCALE
  5
59
102
{ACAD_REACTORS
330
36
102
}
330
36
100
AcDbScale
 70
     0
300
1/128" = 1'-0"
140
0.0078125
141
12.0
290
     0
  0
SCALE
  5
5A
102
{ACAD_REACTORS
330
36
102
}
330
36
100
AcDbScale
 70
     0
300
1/64" = 1'-0"
140
0.015625
141
12.0
290
     0
  0
SCALE
  5
5B
102
{ACAD_REACTORS
330
36
102
}
330
36
100
AcDbScale
 70
     0
300
1/32" = 1'-0"
140
0.03125
141
12.0
290
     0
  0
SCALE
  5
5C
102
{ACAD_REACTORS
330
36
102
}
330
36
100
AcDbScale
 70
     0
300
1/16" = 1'-0"
140
0.0625
141
12.0
290
     0
  0
SCALE
  5
5D
102
{ACAD_REACTORS
330
36
102
}
330
36
100
AcDbScale
 70
     0
300
3/32" = 1'-0"
140
0.09375
141
12.0
290
     0
  0
SCALE
  5
5E
102
{ACAD_REACTORS
330
36
102
}
330
36
100
AcDbScale
 70
     0
300
1/8" = 1'-0"
140
0.125
141
12.0
290
     0
  0
SCALE
  5
5F
102
{ACAD_REACTORS
330
36
102
}
330
36
100
AcDbScale
 70
     0
300
3/16" = 1'-0"
140
0.1875
141
12.0
290
     0
  0
SCALE
  5
60
102
{ACAD_REACTORS
330
36
102
}
330
36
100
AcDbScale
 70
     0
300
1/4" = 1'-0"
140
0.25
141
12.0
290
     0
  0
TABLESTYLE
  5
6D4
102
{ACAD_REACTORS
330
6BA
102
}
330
6BA
100
AcDbTableStyle
  3
Standard
 70
     0
 71
     0
 40
0.06
 41
0.06
280
     0
281
     0
  7
STANDARD
140
0.18
170
     2
 62
     0
 63
   257
283
     0
274
    -2
284
     1
 64
     0
275
    -2
285
     1
 65
     0
276
    -2
286
     1
 66
     0
277
    -2
287
     1
 67
     0
278
    -2
288
     1
 68
     0
279
    -2
289
     1
 69
     0
  7
STANDARD
140
0.25
170
     5
 62
     0
 63
   257
283
     0
274
    -2
284
     1
 64
     0
275
    -2
285
     1
 65
     0
276
    -2
286
     1
 66
     0
277
    -2
287
     1
 67
     0
278
    -2
288
     1
 68
     0
279
    -2
289
     1
 69
     0
  7
STANDARD
140
0.18
170
     5
 62
     0
 63
   257
283
     0
274
    -2
284
     1
 64
     0
275
    -2
285
     1
 65
     0
276
    -2
286
     1
 66
     0
277
    -2
287
     1
 67
     0
278
    -2
288
     1
 68
     0
279
    -2
289
     1
 69
     0
  0
VISUALSTYLE
  5
6C2
102
{ACAD_REACTORS
330
30
102
}
102
{ACAD_XDICTIONARY
360
6F7
102
}
330
30
100
AcDbVisualStyle
  2
2dWireframe
 70
     4
 71
     0
 72
     2
 73
     0
 90
        0
 40
0.6
 41
30.0
 62
     5
 63
     7
 74
     1
 91
        4
 64
     7
 65
   257
 75
     1
175
     1
 42
1.0
 92
        0
 66
   257
 43
1.0
 76
     1
 77
     6
 78
     2
 67
     7
 79
     5
170
     0
171
     0
290
     0
174
     0
 93
        1
 44
0.0
173
     0
291
     0
 45
0.0
1001
ACAD
1000
AcDbSavedByObjectVersion
1070
     0
  0
VISUALSTYLE
  5
6C4
102
{ACAD_REACTORS
330
30
102
}
102
{ACAD_XDICTIONARY
360
6FB
102
}
330
30
100
AcDbVisualStyle
  2
Basic
 70
     7
 71
     1
 72
     0
 73
     1
 90
        0
 40
0.6
 41
30.0
 62
     5
 63
     7
 74
     0
 91
        4
 64
     7
 65
   257
 75
     1
175
     1
 42
1.0
 92
        8
 66
     7
 43
1.0
 76
     1
 77
     6
 78
     2
 67
     7
 79
     5
170
     0
171
     0
290
     0
174
     0
 93
        1
 44
0.0
173
     0
291
     1
 45
0.0
1001
ACAD
1000
AcDbSavedByObjectVersion
1070
     0
  0
VISUALSTYLE
  5
6C7
102
{ACAD_REACTORS
330
30
102
}
102
{ACAD_XDICTIONARY
360
701
102
}
330
30
100
AcDbVisualStyle
  2
Brighten
 70
    12
 71
     2
 72
     2
 73
     0
 90
        0
 40
0.6
 41
30.0
 62
     5
 63
     7
 74
     1
 91
        4
 64
     7
 65
   257
 75
     1
175
     1
 42
1.0
 92
        8
 66
     7
 43
1.0
 76
     1
 77
     6
 78
     2
 67
     7
 79
     5
170
     0
171
     0
290
     0
174
     0
 93
        1
 44
50.0
173
     0
291
     1
 45
0.0
1001
ACAD
1000
AcDbSavedByObjectVersion
1070
     0
  0
VISUALSTYLE
  5
6CB
102
{ACAD_REACTORS
330
30
102
}
102
{ACAD_XDICTIONARY
360
709
102
}
330
30
100
AcDbVisualStyle
  2
ColorChange
 70
    16
 71
     2
 72
     2
 73
     3
 90
        0
 40
0.6
 41
30.0
 62
     5
 63
     8
 74
     1
 91
        4
 64
     7
 65
   257
 75
     1
175
     1
 42
1.0
 92
        8
 66
     8
 43
1.0
 76
     1
 77
     6
 78
     2
 67
     7
 79
     5
170
     0
171
     0
290
     0
174
     0
 93
        1
 44
0.0
173
     0
291
     1
 45
0.0
1001
ACAD
1000
AcDbSavedByObjectVersion
1070
     0
  0
VISUALSTYLE
  5
6C5
102
{ACAD_REACTORS
330
30
102
}
102
{ACAD_XDICTIONARY
360
6FD
102
}
330
30
100
AcDbVisualStyle
  2
Conceptual
 70
     9
 71
     3
 72
     2
 73
     0
 90
        0
 40
0.6
 41
30.0
 62
     5
 63
     7
 74
     2
 91
        2
 64
     7
 65
   257
 75
     1
175
     1
 42
40.0
 92
        8
 66
     7
 43
1.0
 76
     1
 77
     6
 78
     2
 67
     7
 79
     3
170
     0
171
     0
290
     0
174
     0
 93
        1
 44
0.0
173
     0
291
     0
 45
0.0
1001
ACAD
1000
AcDbSavedByObjectVersion
1070
     0
  0
VISUALSTYLE
  5
6C6
102
{ACAD_REACTORS
330
30
102
}
102
{ACAD_XDICTIONARY
360
6FF
102
}
330
30
100
AcDbVisualStyle
  2
Dim
 70
    11
 71
     2
 72
     2
 73
     0
 90
        0
 40
0.6
 41
30.0
 62
     5
 63
     7
 74
     1
 91
        4
 64
     7
 65
   257
 75
     1
175
     1
 42
1.0
 92
        8
 66
     7
 43
1.0
 76
     1
 77
     6
 78
     2
 67
     7
 79
     5
170
     0
171
     0
290
     0
174
     0
 93
        1
 44
-50.0
173
     0
291
     1
 45
0.0
1001
ACAD
1000
AcDbSavedByObjectVersion
1070
     0
  0
VISUALSTYLE
  5
6CE
102
{ACAD_REACTORS
330
30
102
}
102
{ACAD_XDICTIONARY
360
70F
102
}
330
30
100
AcDbVisualStyle
  2
EdgeColorOff
 70
    22
 71
     2
 72
     2
 73
     0
 90
        0
 40
0.6
 41
30.0
 62
     5
 63
     7
 74
     1
 91
        4
 64
     7
 65
   257
 75
     1
175
     1
 42
1.0
 92
        8
 66
     7
 43
1.0
 76
     1
 77
     6
 78
     2
 67
     7
 79
     5
170
     0
171
     0
290
     0
174
     0
 93
        1
 44
0.0
173
     0
291
     1
 45
0.0
1001
ACAD
1000
AcDbSavedByObjectVersion
1070
     0
  0
VISUALSTYLE
  5
6CA
102
{ACAD_REACTORS
330
30
102
}
102
{ACAD_XDICTIONARY
360
707
102
}
330
30
100
AcDbVisualStyle
  2
Facepattern
 70
    15
 71
     2
 72
     2
 73
     0
 90
        0
 40
0.6
 41
30.0
 62
     5
 63
     7
 74
     1
 91
        4
 64
     7
 65
   257
 75
     1
175
     1
 42
1.0
 92
        8
 66
     7
 43
1.0
 76
     1
 77
     6
 78
     2
 67
     7
 79
     5
170
     0
171
     0
290
     0
174
     0
 93
        1
 44
0.0
173
     0
291
     1
 45
0.0
1001
ACAD
1000
AcDbSavedByObjectVersion
1070
     0
  0
VISUALSTYLE
  5
6BE
102
{ACAD_REACTORS
330
30
102
}
102
{ACAD_XDICTIONARY
360
6EF
102
}
330
30
100
AcDbVisualStyle
  2
Flat
 70
     0
 71
     2
 72
     1
 73
     1
 90
        2
 40
0.6
 41
30.0
 62
     5
 63
     7
 74
     0
 91
        4
 64
     7
 65
   257
 75
     1
175
     1
 42
1.0
 92
        8
 66
     7
 43
1.0
 76
     1
 77
     6
 78
     2
 67
     7
 79
     5
170
     0
171
     0
290
     0
174
     0
 93
       13
 44
0.0
173
     0
291
     1
 45
0.0
1001
ACAD
1000
AcDbSavedByObjectVersion
1070
     0
  0
VISUALSTYLE
  5
6BF
102
{ACAD_REACTORS
330
30
102
}
102
{ACAD_XDICTIONARY
360
6F1
102
}
330
30
100
AcDbVisualStyle
  2
FlatWithEdges
 70
     1
 71
     2
 72
     1
 73
     1
 90
        2
 40
0.6
 41
30.0
 62
     5
 63
     7
 74
     1
 91
        4
 64
     7
 65
   257
 75
     1
175
     1
 42
1.0
 92
        0
 66
   257
 43
1.0
 76
     1
 77
     6
 78
     2
 67
     7
 79
     5
170
     0
171
     0
290
     0
174
     0
 93
       13
 44
0.0
173
     0
291
     1
 45
0.0
1001
ACAD
1000
AcDbSavedByObjectVersion
1070
     0
  0
VISUALSTYLE
  5
6C0
102
{ACAD_REACTORS
330
30
102
}
102
{ACAD_XDICTIONARY
360
6F3
102
}
330
30
100
AcDbVisualStyle
  2
Gouraud
 70
     2
 71
     2
 72
     2
 73
     1
 90
        2
 40
0.6
 41
30.0
 62
     5
 63
     7
 74
     0
 91
        4
 64
     7
 65
   257
 75
     1
175
     1
 42
1.0
 92
        0
 66
     7
 43
1.0
 76
     1
 77
     6
 78
     2
 67
     7
 79
     5
170
     0
171
     0
290
     0
174
     0
 93
       13
 44
0.0
173
     0
291
     1
 45
0.0
1001
ACAD
1000
AcDbSavedByObjectVersion
1070
     0
  0
VISUALSTYLE
  5
6C1
102
{ACAD_REACTORS
330
30
102
}
102
{ACAD_XDICTIONARY
360
6F5
102
}
330
30
100
AcDbVisualStyle
  2
GouraudWithEdges
 70
     3
 71
     2
 72
     2
 73
     1
 90
        2
 40
0.6
 41
30.0
 62
     5
 63
     7
 74
     1
 91
        4
 64
     7
 65
   257
 75
     1
175
     1
 42
1.0
 92
        0
 66
   257
 43
1.0
 76
     1
 77
     6
 78
     2
 67
     7
 79
     5
170
     0
171
     0
290
     0
174
     0
 93
       13
 44
0.0
173
     0
291
     1
 45
0.0
1001
ACAD
1000
AcDbSavedByObjectVersion
1070
     0
  0
VISUALSTYLE
  5
6C3
102
{ACAD_REACTORS
330
30
102
}
102
{ACAD_XDICTIONARY
360
6F9
102
}
330
30
100
AcDbVisualStyle
  2
Hidden
 70
     6
 71
     1
 72
     2
 73
     2
 90
        0
 40
0.6
 41
30.0
 62
     5
 63
     7
 74
     2
 91
        2
 64
     7
 65
   257
 75
     2
175
     1
 42
40.0
 92
        0
 66
   257
 43
1.0
 76
     1
 77
     6
 78
     2
 67
     7
 79
     3
170
     0
171
     0
290
     0
174
     0
 93
        1
 44
0.0
173
     0
291
     0
 45
0.0
1001
ACAD
1000
AcDbSavedByObjectVersion
1070
     0
  0
VISUALSTYLE
  5
6CC
102
{ACAD_REACTORS
330
30
102
}
102
{ACAD_XDICTIONARY
360
70B
102
}
330
30
100
AcDbVisualStyle
  2
JitterOff
 70
    20
 71
     2
 72
     2
 73
     0
 90
        0
 40
0.6
 41
30.0
 62
     5
 63
     7
 74
     1
 91
        4
 64
     7
 65
   257
 75
     1
175
     1
 42
1.0
 92
       10
 66
     7
 43
1.0
 76
     1
 77
     6
 78
     2
 67
     7
 79
     5
170
     0
171
     0
290
     0
174
     0
 93
        1
 44
0.0
173
     0
291
     1
 45
0.0
1001
ACAD
1000
AcDbSavedByObjectVersion
1070
     0
  0
VISUALSTYLE
  5
6C9
102
{ACAD_REACTORS
330
30
102
}
102
{ACAD_XDICTIONARY
360
705
102
}
330
30
100
AcDbVisualStyle
  2
Linepattern
 70
    14
 71
     2
 72
     2
 73
     0
 90
        0
 40
0.6
 41
30.0
 62
     5
 63
     7
 74
     1
 91
        4
 64
     7
 65
   257
 75
     7
175
     7
 42
1.0
 92
        8
 66
     7
 43
1.0
 76
     1
 77
     6
 78
     2
 67
     7
 79
     5
170
     0
171
     0
290
     0
174
     0
 93
        1
 44
0.0
173
     0
291
     1
 45
0.0
1001
ACAD
1000
AcDbSavedByObjectVersion
1070
     0
  0
VISUALSTYLE
  5
6CD
102
{ACAD_REACTORS
330
30
102
}
102
{ACAD_XDICTIONARY
360
70D
102
}
330
30
100
AcDbVisualStyle
  2
OverhangOff
 70
    21
 71
     2
 72
     2
 73
     0
 90
        0
 40
0.6
 41
30.0
 62
     5
 63
     7
 74
     1
 91
        4
 64
     7
 65
   257
 75
     1
175
     1
 42
1.0
 92
        9
 66
     7
 43
1.0
 76
     1
 77
     6
 78
     2
 67
     7
 79
     5
170
     0
171
     0
290
     0
174
     0
 93
        1
 44
0.0
173
     0
291
     1
 45
0.0
1001
ACAD
1000
AcDbSavedByObjectVersion
1070
     0
  0
VISUALSTYLE
  5
31
102
{ACAD_REACTORS
330
30
102
}
102
{ACAD_XDICTIONARY
360
6EB
102
}
330
30
100
AcDbVisualStyle
  2
Realistic
 70
     8
 71
     2
 72
     3
 73
     0
 90
        2
 40
0.6
 41
30.0
 62
     5
 63
     7
 74
     0
 91
        0
 64
     7
 65
   257
 75
     1
175
     1
 42
1.0
 92
        8
 66
   257
 43
1.0
 76
     1
 77
     6
 78
     2
 67
     7
 79
     3
170
     0
171
     0
290
     0
174
     0
 93
       13
 44
0.0
173
     0
291
     0
 45
0.0
1001
ACAD
1000
AcDbSavedByObjectVersion
1070
     0
  0
VISUALSTYLE
  5
6D3
102
{ACAD_REACTORS
330
30
102
}
102
{ACAD_XDICTIONARY
360
719
102
}
330
30
100
AcDbVisualStyle
  2
Shaded
 70
    27
 71
     2
 72
     2
 73
     1
 90
        2
 40
0.6
 41
30.0
 62
     5
 63
     7
 74
     0
 91
        4
 64
     7
 65
   257
 75
     1
175
     1
 42
1.0
 92
        8
 66
   257
 43
1.0
 76
     1
 77
     6
 78
     2
 67
   251
 79
     3
170
     0
171
     0
290
     0
174
     0
 93
        5
 44
0.0
173
     0
291
     0
 45
0.0
1001
ACAD
1000
AcDbSavedByObjectVersion
1070
     0
  0
VISUALSTYLE
  5
6D2
102
{ACAD_REACTORS
330
30
102
}
102
{ACAD_XDICTIONARY
360
717
102
}
330
30
100
AcDbVisualStyle
  2
Shaded with edges
 70
    26
 71
     2
 72
     2
 73
     1
 90
        2
 40
0.6
 41
30.0
 62
     5
 63
     7
 74
     1
 91
       10
 64
     7
 65
   257
 75
     2
175
     1
 42
1.0
 92
        8
 66
   257
 43
1.0
 76
     1
 77
     6
 78
     2
 67
     7
 79
     3
170
     0
171
     0
290
     0
174
     0
 93
        5
 44
0.0
173
     0
291
     0
 45
0.0
1001
ACAD
1000
AcDbSavedByObjectVersion
1070
     0
  0
VISUALSTYLE
  5
6CF
102
{ACAD_REACTORS
330
30
102
}
102
{ACAD_XDICTIONARY
360
711
102
}
330
30
100
AcDbVisualStyle
  2
Shades of Gray
 70
    23
 71
     2
 72
     2
 73
     3
 90
        0
 40
0.6
 41
30.0
 62
     5
 63
     7
 74
     2
 91
        2
 64
     7
 65
     7
 75
     1
175
     1
 42
40.0
 92
        8
 66
     7
 43
1.0
 76
     1
 77
     6
 78
     2
 67
     7
 79
     3
170
     0
171
     0
290
     0
174
     0
 93
        1
 44
0.0
173
     0
291
     0
 45
0.0
1001
ACAD
1000
AcDbSavedByObjectVersion
1070
     0
  0
VISUALSTYLE
  5
6D0
102
{ACAD_REACTORS
330
30
102
}
102
{ACAD_XDICTIONARY
360
713
102
}
330
30
100
AcDbVisualStyle
  2
Sketchy
 70
    24
 71
     1
 72
     2
 73
     2
 90
        0
 40
0.6
 41
30.0
 62
     5
 63
     7
 74
     2
 91
        2
 64
     7
 65
     7
 75
     1
175
     1
 42
40.0
 92
       11
 66
     7
 43
1.0
 76
     1
 77
     6
 78
     2
 67
     7
 79
     6
170
     0
171
     0
290
     0
174
     0
 93
        1
 44
0.0
173
     0
291
     0
 45
0.0
1001
ACAD
1000
AcDbSavedByObjectVersion
1070
     0
  0
VISUALSTYLE
  5
6C8
102
{ACAD_REACTORS
330
30
102
}
102
{ACAD_XDICTIONARY
360
703
102
}
330
30
100
AcDbVisualStyle
  2
Thicken
 70
    13
 71
     2
 72
     2
 73
     0
 90
        0
 40
0.6
 41
30.0
 62
     5
 63
     7
 74
     1
 91
        4
 64
     7
 65
   257
 75
     1
175
     1
 42
1.0
 92
       12
 66
     7
 43
1.0
 76
     1
 77
     6
 78
     2
 67
     7
 79
     5
170
     0
171
     0
290
     0
174
     0
 93
        1
 44
0.0
173
     0
291
     1
 45
0.0
1001
ACAD
1000
AcDbSavedByObjectVersion
1070
     0
  0
VISUALSTYLE
  5
32
102
{ACAD_REACTORS
330
30
102
}
102
{ACAD_XDICTIONARY
360
6ED
102
}
330
30
100
AcDbVisualStyle
  2
Wireframe
 70
     5
 71
     0
 72
     2
 73
     0
 90
        0
 40
0.6
 41
30.0
 62
     5
 63
     7
 74
     1
 91
        4
 64
     7
 65
   257
 75
     1
175
     1
 42
1.0
 92
        0
 66
   257
 43
1.0
 76
     1
 77
     6
 78
     2
 67
     7
 79
     3
170
     0
171
     0
290
     0
174
     0
 93
        1
 44
0.0
173
     0
291
     0
 45
0.0
1001
ACAD
1000
AcDbSavedByObjectVersion
1070
     0
  0
VISUALSTYLE
  5
6D1
102
{ACAD_REACTORS
330
30
102
}
102
{ACAD_XDICTIONARY
360
715
102
}
330
30
100
AcDbVisualStyle
  2
X-Ray
 70
    25
 71
     2
 72
     2
 73
     1
 90
        1
 40
0.5
 41
30.0
 62
     5
 63
     7
 74
     1
 91
        0
 64
     7
 65
   257
 75
     1
175
     1
 42
1.0
 92
        8
 66
     7
 43
1.0
 76
     1
 77
     6
 78
     2
 67
     7
 79
     3
170
     0
171
     0
290
     0
174
     0
 93
       13
 44
0.0
173
     0
291
     0
 45
0.0
1001
ACAD
1000
AcDbSavedByObjectVersion
1070
     0
  0
XRECORD
  5
6DF
102
{ACAD_REACTORS
330
6DE
102
}
330
6DE
100
AcDbXrecord
280
     1
340
2F
  0
XRECORD
  5
6E0
102
{ACAD_REACTORS
330
6DE
102
}
330
6DE
100
AcDbXrecord
280
     1
340
B
  0
DICTIONARYVAR
  5
6B9
102
{ACAD_REACTORS
330
6B8
102
}
330
6B8
100
DictionaryVariables
280
     0
  1
1:1
  0
DICTIONARYVAR
  5
6D8
102
{ACAD_REACTORS
330
6B8
102
}
330
6B8
100
DictionaryVariables
280
     0
  1
Standard
  0
DICTIONARYVAR
  5
6D7
102
{ACAD_REACTORS
330
6B8
102
}
330
6B8
100
DictionaryVariables
280
     0
  1
Standard
  0
DICTIONARYVAR
  5
6DB
102
{ACAD_REACTORS
330
6B8
102
}
330
6B8
100
DictionaryVariables
280
     0
  1
0
  0
DICTIONARYVAR
  5
6DD
102
{ACAD_REACTORS
330
6B8
102
}
330
6B8
100
DictionaryVariables
280
     0
  1
1
  0
DICTIONARYVAR
  5
6E4
102
{ACAD_REACTORS
330
6B8
102
}
330
6B8
100
DictionaryVariables
280
     0
  1
1
  0
DICTIONARYVAR
  5
6DC
102
{ACAD_REACTORS
330
6B8
102
}
330
6B8
100
DictionaryVariables
280
     0
  1
0
  0
DICTIONARY
  5
6E9
330
69
100
AcDbDictionary
280
     1
281
     1
  3
ACAD_XREC_ROUNDTRIP
360
6EA
  0
DICTIONARY
  5
6E5
330
14
100
AcDbDictionary
280
     1
281
     1
  3
ACAD_XREC_ROUNDTRIP
360
6E6
  0
DICTIONARY
  5
6E7
330
A
100
AcDbDictionary
280
     1
281
     1
  3
ACAD_XREC_ROUNDTRIP
360
6E8
  0
DICTIONARY
  5
71B
330
6D5
100
AcDbDictionary
280
     1
281
     1
  3
ACAD_XREC_ROUNDTRIP
360
71C
  0
DICTIONARY
  5
6F7
330
6C2
100
AcDbDictionary
280
     1
281
     1
  3
ACAD_XREC_ROUNDTRIP
360
6F8
  0
DICTIONARY
  5
6FB
330
6C4
100
AcDbDictionary
280
     1
281
     1
  3
ACAD_XREC_ROUNDTRIP
360
6FC
  0
DICTIONARY
  5
701
330
6C7
100
AcDbDictionary
280
     1
281
     1
  3
ACAD_XREC_ROUNDTRIP
360
702
  0
DICTIONARY
  5
709
330
6CB
100
AcDbDictionary
280
     1
281
     1
  3
ACAD_XREC_ROUNDTRIP
360
70A
  0
DICTIONARY
  5
6FD
330
6C5
100
AcDbDictionary
280
     1
281
     1
  3
ACAD_XREC_ROUNDTRIP
360
6FE
  0
DICTIONARY
  5
6FF
330
6C6
100
AcDbDictionary
280
     1
281
     1
  3
ACAD_XREC_ROUNDTRIP
360
700
  0
DICTIONARY
  5
70F
330
6CE
100
AcDbDictionary
280
     1
281
     1
  3
ACAD_XREC_ROUNDTRIP
360
710
  0
DICTIONARY
  5
707
330
6CA
100
AcDbDictionary
280
     1
281
     1
  3
ACAD_XREC_ROUNDTRIP
360
708
  0
DICTIONARY
  5
6EF
330
6BE
100
AcDbDictionary
280
     1
281
     1
  3
ACAD_XREC_ROUNDTRIP
360
6F0
  0
DICTIONARY
  5
6F1
330
6BF
100
AcDbDictionary
280
     1
281
     1
  3
ACAD_XREC_ROUNDTRIP
360
6F2
  0
DICTIONARY
  5
6F3
330
6C0
100
AcDbDictionary
280
     1
281
     1
  3
ACAD_XREC_ROUNDTRIP
360
6F4
  0
DICTIONARY
  5
6F5
330
6C1
100
AcDbDictionary
280
     1
281
     1
  3
ACAD_XREC_ROUNDTRIP
360
6F6
  0
DICTIONARY
  5
6F9
330
6C3
100
AcDbDictionary
280
     1
281
     1
  3
ACAD_XREC_ROUNDTRIP
360
6FA
  0
DICTIONARY
  5
70B
330
6CC
100
AcDbDictionary
280
     1
281
     1
  3
ACAD_XREC_ROUNDTRIP
360
70C
  0
DICTIONARY
  5
705
330
6C9
100
AcDbDictionary
280
     1
281
     1
  3
ACAD_XREC_ROUNDTRIP
360
706
  0
DICTIONARY
  5
70D
330
6CD
100
AcDbDictionary
280
     1
281
     1
  3
ACAD_XREC_ROUNDTRIP
360
70E
  0
DICTIONARY
  5
6EB
330
31
100
AcDbDictionary
280
     1
281
     1
  3
ACAD_XREC_ROUNDTRIP
360
6EC
  0
DICTIONARY
  5
719
330
6D3
100
AcDbDictionary
280
     1
281
     1
  3
ACAD_XREC_ROUNDTRIP
360
71A
  0
DICTIONARY
  5
717
330
6D2
100
AcDbDictionary
280
     1
281
     1
  3
ACAD_XREC_ROUNDTRIP
360
718
  0
DICTIONARY
  5
711
330
6CF
100
AcDbDictionary
280
     1
281
     1
  3
ACAD_XREC_ROUNDTRIP
360
712
  0
DICTIONARY
  5
713
330
6D0
100
AcDbDictionary
280
     1
281
     1
  3
ACAD_XREC_ROUNDTRIP
360
714
  0
DICTIONARY
  5
703
330
6C8
100
AcDbDictionary
280
     1
281
     1
  3
ACAD_XREC_ROUNDTRIP
360
704
  0
DICTIONARY
  5
6ED
330
32
100
AcDbDictionary
280
     1
281
     1
  3
ACAD_XREC_ROUNDTRIP
360
6EE
  0
DICTIONARY
  5
715
330
6D1
100
AcDbDictionary
280
     1
281
     1
  3
ACAD_XREC_ROUNDTRIP
360
716
  0
XRECORD
  5
6EA
102
{ACAD_REACTORS
330
6E9
102
}
330
6E9
100
AcDbXrecord
280
     1
102
MATERIAL
148
0.0
149
0.0
149
0.0
 93
        0
 94
      127
282
     0
 72
     0
 77
     0
171
     0
175
     0
179
     0
273
     0
  0
XRECORD
  5
6E6
102
{ACAD_REACTORS
330
6E5
102
}
330
6E5
100
AcDbXrecord
280
     1
102
MATERIAL
148
0.0
149
0.0
149
0.0
 93
        0
 94
      127
282
     0
 72
     0
 77
     0
171
     0
175
     0
179
     0
273
     0
  0
XRECORD
  5
6E8
102
{ACAD_REACTORS
330
6E7
102
}
330
6E7
100
AcDbXrecord
280
     1
102
MATERIAL
148
0.0
149
0.0
149
0.0
 93
        0
 94
      127
282
     0
 72
     0
 77
     0
171
     0
175
     0
179
     0
273
     0
  0
XRECORD
  5
71C
102
{ACAD_REACTORS
330
71B
102
}
330
71B
100
AcDbXrecord
280
     1
102
ACAD_ROUNDTRIP_2010_MLEADER_STYLE
  0
XRECORD
  5
6F8
102
{ACAD_REACTORS
330
6F7
102
}
330
6F7
100
AcDbXrecord
280
     1
102
RTVSPropertyOp0
 70
     1
102
RTVSPropertyOp1
 70
     1
102
RTVSPropertyOp2
 70
     1
102
RTVSPropertyOp3
 70
     1
102
RTVSPropertyOp4
 70
     1
102
RTVSPropertyOp5
 70
     1
102
RTVSPropertyOp6
 70
     1
102
RTVSPropertyOp7
 70
     1
102
RTVSPropertyOp8
 70
     1
102
RTVSPropertyOp9
 70
     1
102
RTVSPropertyOp10
 70
     1
102
RTVSPropertyOp11
 70
     1
102
RTVSPropertyOp12
 70
     1
102
RTVSPropertyOp13
 70
     1
102
RTVSPropertyOp14
 70
     1
102
RTVSPropertyOp15
 70
     1
102
RTVSPropertyOp16
 70
     1
102
RTVSPropertyOp17
 70
     1
102
RTVSPropertyOp18
 70
     1
102
RTVSPropertyOp19
 70
     1
102
RTVSPropertyOp20
 70
     1
102
RTVSPropertyOp21
 70
     1
102
RTVSPropertyOp22
 70
     1
102
RTVSPropertyOp23
 70
     1
102
RTVSPropertyOp24
 70
     1
102
RTVSPropertyOp25
 70
     1
102
RTVSPropertyOp26
 70
     1
102
RTVSPropertyOp27
 70
     1
102
RTVSPropertyOp28
 70
     1
102
RTVSPropertyOp29
 70
     1
102
RTVSPropertyOp30
 70
     1
102
RTVSPropertyOp31
 70
     1
102
RTVSPropertyOp32
 70
     1
102
RTVSPropertyOp33
 70
     1
102
RTVSPropertyOp34
 70
     1
102
RTVSPropertyOp35
 70
     1
102
RTVSPropertyOp36
 70
     1
102
RTVSPropertyOp37
 70
     1
102
RTVSPropertyOp38
 70
     1
102
RTVSPropertyOp39
 70
     1
102
RTVSPropertyOp40
 70
     1
102
RTVSPropertyOp41
 70
     1
102
RTVSPropertyOp42
 70
     1
102
RTVSPropertyOp43
 70
     1
102
RTVSPropertyOp44
 70
     1
102
RTVSPropertyOp45
 70
     1
102
RTVSPropertyOp46
 70
     1
102
RTVSPropertyOp47
 70
     1
102
RTVSPropertyOp48
 70
     1
102
RTVSPropertyOp49
 70
     1
102
RTVSPropertyOp50
 70
     1
102
RTVSPropertyOp51
 70
     0
102
RTVSPropertyOp52
 70
     0
102
RTVSPropertyOp53
 70
     1
102
RTVSPropertyOp54
 70
     1
102
RTVSPropertyOp55
 70
     1
102
RTVSPropertyOp56
 70
     1
102
RTVSPropertyOp57
 70
     1
102
RTVSPost2010Prop28
280
     1
102
RTVSPost2010PropOp28
 70
     1
102
RTVSPost2010Prop29
280
     1
102
RTVSPost2010PropOp29
 70
     1
102
RTVSPost2010Prop30
280
     0
102
RTVSPost2010PropOp30
 70
     1
102
RTVSPost2010Prop31
280
     0
102
RTVSPost2010PropOp31
 70
     1
102
RTVSPost2010Prop32
280
     0
102
RTVSPost2010PropOp32
 70
     1
102
RTVSPost2010Prop33
280
     0
102
RTVSPost2010PropOp33
 70
     1
102
RTVSPost2010Prop34
280
     0
102
RTVSPost2010PropOp34
 70
     1
102
RTVSPost2010Prop35
280
     0
102
RTVSPost2010PropOp35
 70
     1
102
RTVSPost2010Prop36
280
     0
102
RTVSPost2010PropOp36
 70
     1
102
RTVSPost2010Prop37
 90
       50
102
RTVSPost2010PropOp37
 70
     1
102
RTVSPost2010Prop38
140
0.0
102
RTVSPost2010PropOp38
 70
     1
102
RTVSPost2010Prop39
140
1.0
102
RTVSPost2010PropOp39
 70
     1
102
RTVSPost2010Prop40
 90
        0
102
RTVSPost2010PropOp40
 70
     1
102
RTVSPost2010Prop41ColorIndex
 90
       18
102
RTVSPost2010Prop41ColorRGB
 90
        0
102
RTVSPost2010PropOp41
 70
     1
102
RTVSPost2010Prop42
 90
       50
102
RTVSPost2010PropOp42
 70
     1
102
RTVSPost2010Prop43
 90
        3
102
RTVSPost2010PropOp43
 70
     1
102
RTVSPost2010Prop44ColorIndex
 90
        5
102
RTVSPost2010Prop44ColorRGB
 90
      255
102
RTVSPost2010PropOp44
 70
     1
102
RTVSPost2010Prop45
280
     0
102
RTVSPost2010PropOp45
 70
     1
102
RTVSPost2010Prop46
 90
       50
102
RTVSPost2010PropOp46
 70
     1
102
RTVSPost2010Prop47
 90
       50
102
RTVSPost2010PropOp47
 70
     1
102
RTVSPost2010Prop48
 90
       50
102
RTVSPost2010PropOp48
 70
     1
102
RTVSPost2010Prop49
280
     0
102
RTVSPost2010PropOp49
 70
     1
102
RTVSPost2010Prop50
 90
       50
102
RTVSPost2010PropOp50
 70
     1
102
RTVSPost2010Prop51ColorIndex
 90
      256
102
RTVSPost2010Prop51ColorRGB
 90
-16777216
102
RTVSPost2010PropOp51
 70
     0
102
RTVSPost2010Prop52
140
1.0
102
RTVSPost2010PropOp52
 70
     0
102
RTVSPost2010Prop53
 90
        2
102
RTVSPost2010PropOp53
 70
     1
102
RTVSPost2010Prop54
  1
strokes_ogs.tif
102
RTVSPost2010PropOp54
 70
     1
102
RTVSPost2010Prop55
280
     0
102
RTVSPost2010PropOp55
 70
     1
102
RTVSPost2010Prop56
140
1.0
102
RTVSPost2010PropOp56
 70
     1
102
RTVSPost2010Prop57
140
1.0
102
RTVSPost2010PropOp57
 70
     1
  0
XRECORD
  5
6FC
102
{ACAD_REACTORS
330
6FB
102
}
330
6FB
100
AcDbXrecord
280
     1
102
RTVSPropertyOp0
 70
     1
102
RTVSPropertyOp1
 70
     1
102
RTVSPropertyOp2
 70
     1
102
RTVSPropertyOp3
 70
     1
102
RTVSPropertyOp4
 70
     1
102
RTVSPropertyOp5
 70
     1
102
RTVSPropertyOp6
 70
     1
102
RTVSPropertyOp7
 70
     1
102
RTVSPropertyOp8
 70
     1
102
RTVSPropertyOp9
 70
     1
102
RTVSPropertyOp10
 70
     1
102
RTVSPropertyOp11
 70
     1
102
RTVSPropertyOp12
 70
     1
102
RTVSPropertyOp13
 70
     1
102
RTVSPropertyOp14
 70
     1
102
RTVSPropertyOp15
 70
     1
102
RTVSPropertyOp16
 70
     1
102
RTVSPropertyOp17
 70
     1
102
RTVSPropertyOp18
 70
     1
102
RTVSPropertyOp19
 70
     1
102
RTVSPropertyOp20
 70
     1
102
RTVSPropertyOp21
 70
     1
102
RTVSPropertyOp22
 70
     1
102
RTVSPropertyOp23
 70
     1
102
RTVSPropertyOp24
 70
     1
102
RTVSPropertyOp25
 70
     1
102
RTVSPropertyOp26
 70
     1
102
RTVSPropertyOp27
 70
     1
102
RTVSPropertyOp28
 70
     1
102
RTVSPropertyOp29
 70
     1
102
RTVSPropertyOp30
 70
     1
102
RTVSPropertyOp31
 70
     1
102
RTVSPropertyOp32
 70
     1
102
RTVSPropertyOp33
 70
     1
102
RTVSPropertyOp34
 70
     1
102
RTVSPropertyOp35
 70
     1
102
RTVSPropertyOp36
 70
     1
102
RTVSPropertyOp37
 70
     1
102
RTVSPropertyOp38
 70
     1
102
RTVSPropertyOp39
 70
     1
102
RTVSPropertyOp40
 70
     1
102
RTVSPropertyOp41
 70
     1
102
RTVSPropertyOp42
 70
     1
102
RTVSPropertyOp43
 70
     1
102
RTVSPropertyOp44
 70
     1
102
RTVSPropertyOp45
 70
     1
102
RTVSPropertyOp46
 70
     1
102
RTVSPropertyOp47
 70
     1
102
RTVSPropertyOp48
 70
     1
102
RTVSPropertyOp49
 70
     1
102
RTVSPropertyOp50
 70
     1
102
RTVSPropertyOp51
 70
     0
102
RTVSPropertyOp52
 70
     0
102
RTVSPropertyOp53
 70
     1
102
RTVSPropertyOp54
 70
     1
102
RTVSPropertyOp55
 70
     1
102
RTVSPropertyOp56
 70
     1
102
RTVSPropertyOp57
 70
     1
102
RTVSPost2010Prop28
280
     0
102
RTVSPost2010PropOp28
 70
     1
102
RTVSPost2010Prop29
280
     1
102
RTVSPost2010PropOp29
 70
     1
102
RTVSPost2010Prop30
280
     1
102
RTVSPost2010PropOp30
 70
     1
102
RTVSPost2010Prop31
280
     0
102
RTVSPost2010PropOp31
 70
     1
102
RTVSPost2010Prop32
280
     0
102
RTVSPost2010PropOp32
 70
     1
102
RTVSPost2010Prop33
280
     0
102
RTVSPost2010PropOp33
 70
     1
102
RTVSPost2010Prop34
280
     0
102
RTVSPost2010PropOp34
 70
     1
102
RTVSPost2010Prop35
280
     0
102
RTVSPost2010PropOp35
 70
     1
102
RTVSPost2010Prop36
280
     0
102
RTVSPost2010PropOp36
 70
     1
102
RTVSPost2010Prop37
 90
       50
102
RTVSPost2010PropOp37
 70
     1
102
RTVSPost2010Prop38
140
0.0
102
RTVSPost2010PropOp38
 70
     1
102
RTVSPost2010Prop39
140
1.0
102
RTVSPost2010PropOp39
 70
     1
102
RTVSPost2010Prop40
 90
        0
102
RTVSPost2010PropOp40
 70
     1
102
RTVSPost2010Prop41ColorIndex
 90
       18
102
RTVSPost2010Prop41ColorRGB
 90
        0
102
RTVSPost2010PropOp41
 70
     1
102
RTVSPost2010Prop42
 90
       50
102
RTVSPost2010PropOp42
 70
     1
102
RTVSPost2010Prop43
 90
        3
102
RTVSPost2010PropOp43
 70
     1
102
RTVSPost2010Prop44ColorIndex
 90
        5
102
RTVSPost2010Prop44ColorRGB
 90
      255
102
RTVSPost2010PropOp44
 70
     1
102
RTVSPost2010Prop45
280
     0
102
RTVSPost2010PropOp45
 70
     1
102
RTVSPost2010Prop46
 90
       50
102
RTVSPost2010PropOp46
 70
     1
102
RTVSPost2010Prop47
 90
       50
102
RTVSPost2010PropOp47
 70
     1
102
RTVSPost2010Prop48
 90
       50
102
RTVSPost2010PropOp48
 70
     1
102
RTVSPost2010Prop49
280
     0
102
RTVSPost2010PropOp49
 70
     1
102
RTVSPost2010Prop50
 90
       50
102
RTVSPost2010PropOp50
 70
     1
102
RTVSPost2010Prop51ColorIndex
 90
      256
102
RTVSPost2010Prop51ColorRGB
 90
-16777216
102
RTVSPost2010PropOp51
 70
     0
102
RTVSPost2010Prop52
140
1.0
102
RTVSPost2010PropOp52
 70
     0
102
RTVSPost2010Prop53
 90
        2
102
RTVSPost2010PropOp53
 70
     1
102
RTVSPost2010Prop54
  1
strokes_ogs.tif
102
RTVSPost2010PropOp54
 70
     1
102
RTVSPost2010Prop55
280
     0
102
RTVSPost2010PropOp55
 70
     1
102
RTVSPost2010Prop56
140
1.0
102
RTVSPost2010PropOp56
 70
     1
102
RTVSPost2010Prop57
140
1.0
102
RTVSPost2010PropOp57
 70
     1
  0
XRECORD
  5
702
102
{ACAD_REACTORS
330
701
102
}
330
701
100
AcDbXrecord
280
     1
102
RTVSPropertyOp0
 70
     1
102
RTVSPropertyOp1
 70
     1
102
RTVSPropertyOp2
 70
     1
102
RTVSPropertyOp3
 70
     1
102
RTVSPropertyOp4
 70
     1
102
RTVSPropertyOp5
 70
     1
102
RTVSPropertyOp6
 70
     1
102
RTVSPropertyOp7
 70
     1
102
RTVSPropertyOp8
 70
     1
102
RTVSPropertyOp9
 70
     1
102
RTVSPropertyOp10
 70
     1
102
RTVSPropertyOp11
 70
     1
102
RTVSPropertyOp12
 70
     1
102
RTVSPropertyOp13
 70
     1
102
RTVSPropertyOp14
 70
     1
102
RTVSPropertyOp15
 70
     1
102
RTVSPropertyOp16
 70
     1
102
RTVSPropertyOp17
 70
     1
102
RTVSPropertyOp18
 70
     1
102
RTVSPropertyOp19
 70
     1
102
RTVSPropertyOp20
 70
     1
102
RTVSPropertyOp21
 70
     1
102
RTVSPropertyOp22
 70
     1
102
RTVSPropertyOp23
 70
     1
102
RTVSPropertyOp24
 70
     1
102
RTVSPropertyOp25
 70
     1
102
RTVSPropertyOp26
 70
     1
102
RTVSPropertyOp27
 70
     1
102
RTVSPropertyOp28
 70
     1
102
RTVSPropertyOp29
 70
     1
102
RTVSPropertyOp30
 70
     1
102
RTVSPropertyOp31
 70
     1
102
RTVSPropertyOp32
 70
     1
102
RTVSPropertyOp33
 70
     1
102
RTVSPropertyOp34
 70
     1
102
RTVSPropertyOp35
 70
     1
102
RTVSPropertyOp36
 70
     1
102
RTVSPropertyOp37
 70
     1
102
RTVSPropertyOp38
 70
     1
102
RTVSPropertyOp39
 70
     1
102
RTVSPropertyOp40
 70
     1
102
RTVSPropertyOp41
 70
     1
102
RTVSPropertyOp42
 70
     1
102
RTVSPropertyOp43
 70
     1
102
RTVSPropertyOp44
 70
     1
102
RTVSPropertyOp45
 70
     1
102
RTVSPropertyOp46
 70
     1
102
RTVSPropertyOp47
 70
     1
102
RTVSPropertyOp48
 70
     1
102
RTVSPropertyOp49
 70
     1
102
RTVSPropertyOp50
 70
     1
102
RTVSPropertyOp51
 70
     0
102
RTVSPropertyOp52
 70
     0
102
RTVSPropertyOp53
 70
     1
102
RTVSPropertyOp54
 70
     1
102
RTVSPropertyOp55
 70
     1
102
RTVSPropertyOp56
 70
     1
102
RTVSPropertyOp57
 70
     1
102
RTVSPost2010Prop28
280
     0
102
RTVSPost2010PropOp28
 70
     1
102
RTVSPost2010Prop29
280
     1
102
RTVSPost2010PropOp29
 70
     1
102
RTVSPost2010Prop30
280
     1
102
RTVSPost2010PropOp30
 70
     1
102
RTVSPost2010Prop31
280
     0
102
RTVSPost2010PropOp31
 70
     1
102
RTVSPost2010Prop32
280
     0
102
RTVSPost2010PropOp32
 70
     1
102
RTVSPost2010Prop33
280
     0
102
RTVSPost2010PropOp33
 70
     1
102
RTVSPost2010Prop34
280
     0
102
RTVSPost2010PropOp34
 70
     1
102
RTVSPost2010Prop35
280
     0
102
RTVSPost2010PropOp35
 70
     1
102
RTVSPost2010Prop36
280
     0
102
RTVSPost2010PropOp36
 70
     1
102
RTVSPost2010Prop37
 90
       50
102
RTVSPost2010PropOp37
 70
     1
102
RTVSPost2010Prop38
140
0.0
102
RTVSPost2010PropOp38
 70
     1
102
RTVSPost2010Prop39
140
1.0
102
RTVSPost2010PropOp39
 70
     1
102
RTVSPost2010Prop40
 90
        0
102
RTVSPost2010PropOp40
 70
     1
102
RTVSPost2010Prop41ColorIndex
 90
       18
102
RTVSPost2010Prop41ColorRGB
 90
        0
102
RTVSPost2010PropOp41
 70
     1
102
RTVSPost2010Prop42
 90
       50
102
RTVSPost2010PropOp42
 70
     1
102
RTVSPost2010Prop43
 90
        3
102
RTVSPost2010PropOp43
 70
     1
102
RTVSPost2010Prop44ColorIndex
 90
        5
102
RTVSPost2010Prop44ColorRGB
 90
      255
102
RTVSPost2010PropOp44
 70
     1
102
RTVSPost2010Prop45
280
     0
102
RTVSPost2010PropOp45
 70
     1
102
RTVSPost2010Prop46
 90
       50
102
RTVSPost2010PropOp46
 70
     1
102
RTVSPost2010Prop47
 90
       50
102
RTVSPost2010PropOp47
 70
     1
102
RTVSPost2010Prop48
 90
       50
102
RTVSPost2010PropOp48
 70
     1
102
RTVSPost2010Prop49
280
     0
102
RTVSPost2010PropOp49
 70
     1
102
RTVSPost2010Prop50
 90
       50
102
RTVSPost2010PropOp50
 70
     1
102
RTVSPost2010Prop51ColorIndex
 90
      256
102
RTVSPost2010Prop51ColorRGB
 90
-16777216
102
RTVSPost2010PropOp51
 70
     0
102
RTVSPost2010Prop52
140
1.0
102
RTVSPost2010PropOp52
 70
     0
102
RTVSPost2010Prop53
 90
        2
102
RTVSPost2010PropOp53
 70
     1
102
RTVSPost2010Prop54
  1
strokes_ogs.tif
102
RTVSPost2010PropOp54
 70
     1
102
RTVSPost2010Prop55
280
     0
102
RTVSPost2010PropOp55
 70
     1
102
RTVSPost2010Prop56
140
1.0
102
RTVSPost2010PropOp56
 70
     1
102
RTVSPost2010Prop57
140
1.0
102
RTVSPost2010PropOp57
 70
     1
  0
XRECORD
  5
70A
102
{ACAD_REACTORS
330
709
102
}
330
709
100
AcDbXrecord
280
     1
102
RTVSPropertyOp0
 70
     1
102
RTVSPropertyOp1
 70
     1
102
RTVSPropertyOp2
 70
     1
102
RTVSPropertyOp3
 70
     1
102
RTVSPropertyOp4
 70
     1
102
RTVSPropertyOp5
 70
     1
102
RTVSPropertyOp6
 70
     1
102
RTVSPropertyOp7
 70
     1
102
RTVSPropertyOp8
 70
     1
102
RTVSPropertyOp9
 70
     1
102
RTVSPropertyOp10
 70
     1
102
RTVSPropertyOp11
 70
     1
102
RTVSPropertyOp12
 70
     1
102
RTVSPropertyOp13
 70
     1
102
RTVSPropertyOp14
 70
     1
102
RTVSPropertyOp15
 70
     1
102
RTVSPropertyOp16
 70
     1
102
RTVSPropertyOp17
 70
     1
102
RTVSPropertyOp18
 70
     1
102
RTVSPropertyOp19
 70
     1
102
RTVSPropertyOp20
 70
     1
102
RTVSPropertyOp21
 70
     1
102
RTVSPropertyOp22
 70
     1
102
RTVSPropertyOp23
 70
     1
102
RTVSPropertyOp24
 70
     1
102
RTVSPropertyOp25
 70
     1
102
RTVSPropertyOp26
 70
     1
102
RTVSPropertyOp27
 70
     1
102
RTVSPropertyOp28
 70
     1
102
RTVSPropertyOp29
 70
     1
102
RTVSPropertyOp30
 70
     1
102
RTVSPropertyOp31
 70
     1
102
RTVSPropertyOp32
 70
     1
102
RTVSPropertyOp33
 70
     1
102
RTVSPropertyOp34
 70
     1
102
RTVSPropertyOp35
 70
     1
102
RTVSPropertyOp36
 70
     1
102
RTVSPropertyOp37
 70
     1
102
RTVSPropertyOp38
 70
     1
102
RTVSPropertyOp39
 70
     1
102
RTVSPropertyOp40
 70
     1
102
RTVSPropertyOp41
 70
     1
102
RTVSPropertyOp42
 70
     1
102
RTVSPropertyOp43
 70
     1
102
RTVSPropertyOp44
 70
     1
102
RTVSPropertyOp45
 70
     1
102
RTVSPropertyOp46
 70
     1
102
RTVSPropertyOp47
 70
     1
102
RTVSPropertyOp48
 70
     1
102
RTVSPropertyOp49
 70
     1
102
RTVSPropertyOp50
 70
     1
102
RTVSPropertyOp51
 70
     0
102
RTVSPropertyOp52
 70
     0
102
RTVSPropertyOp53
 70
     1
102
RTVSPropertyOp54
 70
     1
102
RTVSPropertyOp55
 70
     1
102
RTVSPropertyOp56
 70
     1
102
RTVSPropertyOp57
 70
     1
102
RTVSPost2010Prop28
280
     0
102
RTVSPost2010PropOp28
 70
     1
102
RTVSPost2010Prop29
280
     1
102
RTVSPost2010PropOp29
 70
     1
102
RTVSPost2010Prop30
280
     1
102
RTVSPost2010PropOp30
 70
     1
102
RTVSPost2010Prop31
280
     0
102
RTVSPost2010PropOp31
 70
     1
102
RTVSPost2010Prop32
280
     0
102
RTVSPost2010PropOp32
 70
     1
102
RTVSPost2010Prop33
280
     0
102
RTVSPost2010PropOp33
 70
     1
102
RTVSPost2010Prop34
280
     0
102
RTVSPost2010PropOp34
 70
     1
102
RTVSPost2010Prop35
280
     0
102
RTVSPost2010PropOp35
 70
     1
102
RTVSPost2010Prop36
280
     0
102
RTVSPost2010PropOp36
 70
     1
102
RTVSPost2010Prop37
 90
       50
102
RTVSPost2010PropOp37
 70
     1
102
RTVSPost2010Prop38
140
0.0
102
RTVSPost2010PropOp38
 70
     1
102
RTVSPost2010Prop39
140
1.0
102
RTVSPost2010PropOp39
 70
     1
102
RTVSPost2010Prop40
 90
        0
102
RTVSPost2010PropOp40
 70
     1
102
RTVSPost2010Prop41ColorIndex
 90
       18
102
RTVSPost2010Prop41ColorRGB
 90
        0
102
RTVSPost2010PropOp41
 70
     1
102
RTVSPost2010Prop42
 90
       50
102
RTVSPost2010PropOp42
 70
     1
102
RTVSPost2010Prop43
 90
        3
102
RTVSPost2010PropOp43
 70
     1
102
RTVSPost2010Prop44ColorIndex
 90
        5
102
RTVSPost2010Prop44ColorRGB
 90
      255
102
RTVSPost2010PropOp44
 70
     1
102
RTVSPost2010Prop45
280
     0
102
RTVSPost2010PropOp45
 70
     1
102
RTVSPost2010Prop46
 90
       50
102
RTVSPost2010PropOp46
 70
     1
102
RTVSPost2010Prop47
 90
       50
102
RTVSPost2010PropOp47
 70
     1
102
RTVSPost2010Prop48
 90
       50
102
RTVSPost2010PropOp48
 70
     1
102
RTVSPost2010Prop49
280
     0
102
RTVSPost2010PropOp49
 70
     1
102
RTVSPost2010Prop50
 90
       50
102
RTVSPost2010PropOp50
 70
     1
102
RTVSPost2010Prop51ColorIndex
 90
      256
102
RTVSPost2010Prop51ColorRGB
 90
-16777216
102
RTVSPost2010PropOp51
 70
     0
102
RTVSPost2010Prop52
140
1.0
102
RTVSPost2010PropOp52
 70
     0
102
RTVSPost2010Prop53
 90
        2
102
RTVSPost2010PropOp53
 70
     1
102
RTVSPost2010Prop54
  1
strokes_ogs.tif
102
RTVSPost2010PropOp54
 70
     1
102
RTVSPost2010Prop55
280
     0
102
RTVSPost2010PropOp55
 70
     1
102
RTVSPost2010Prop56
140
1.0
102
RTVSPost2010PropOp56
 70
     1
102
RTVSPost2010Prop57
140
1.0
102
RTVSPost2010PropOp57
 70
     1
  0
XRECORD
  5
6FE
102
{ACAD_REACTORS
330
6FD
102
}
330
6FD
100
AcDbXrecord
280
     1
102
RTVSPropertyOp0
 70
     1
102
RTVSPropertyOp1
 70
     1
102
RTVSPropertyOp2
 70
     1
102
RTVSPropertyOp3
 70
     1
102
RTVSPropertyOp4
 70
     1
102
RTVSPropertyOp5
 70
     1
102
RTVSPropertyOp6
 70
     1
102
RTVSPropertyOp7
 70
     1
102
RTVSPropertyOp8
 70
     1
102
RTVSPropertyOp9
 70
     1
102
RTVSPropertyOp10
 70
     1
102
RTVSPropertyOp11
 70
     1
102
RTVSPropertyOp12
 70
     1
102
RTVSPropertyOp13
 70
     1
102
RTVSPropertyOp14
 70
     1
102
RTVSPropertyOp15
 70
     1
102
RTVSPropertyOp16
 70
     1
102
RTVSPropertyOp17
 70
     1
102
RTVSPropertyOp18
 70
     1
102
RTVSPropertyOp19
 70
     1
102
RTVSPropertyOp20
 70
     1
102
RTVSPropertyOp21
 70
     1
102
RTVSPropertyOp22
 70
     1
102
RTVSPropertyOp23
 70
     1
102
RTVSPropertyOp24
 70
     1
102
RTVSPropertyOp25
 70
     1
102
RTVSPropertyOp26
 70
     1
102
RTVSPropertyOp27
 70
     1
102
RTVSPropertyOp28
 70
     1
102
RTVSPropertyOp29
 70
     1
102
RTVSPropertyOp30
 70
     1
102
RTVSPropertyOp31
 70
     1
102
RTVSPropertyOp32
 70
     1
102
RTVSPropertyOp33
 70
     1
102
RTVSPropertyOp34
 70
     1
102
RTVSPropertyOp35
 70
     1
102
RTVSPropertyOp36
 70
     1
102
RTVSPropertyOp37
 70
     1
102
RTVSPropertyOp38
 70
     1
102
RTVSPropertyOp39
 70
     1
102
RTVSPropertyOp40
 70
     1
102
RTVSPropertyOp41
 70
     1
102
RTVSPropertyOp42
 70
     1
102
RTVSPropertyOp43
 70
     1
102
RTVSPropertyOp44
 70
     1
102
RTVSPropertyOp45
 70
     1
102
RTVSPropertyOp46
 70
     1
102
RTVSPropertyOp47
 70
     1
102
RTVSPropertyOp48
 70
     1
102
RTVSPropertyOp49
 70
     1
102
RTVSPropertyOp50
 70
     1
102
RTVSPropertyOp51
 70
     0
102
RTVSPropertyOp52
 70
     0
102
RTVSPropertyOp53
 70
     1
102
RTVSPropertyOp54
 70
     1
102
RTVSPropertyOp55
 70
     1
102
RTVSPropertyOp56
 70
     1
102
RTVSPropertyOp57
 70
     1
102
RTVSPost2010Prop28
280
     0
102
RTVSPost2010PropOp28
 70
     1
102
RTVSPost2010Prop29
280
     1
102
RTVSPost2010PropOp29
 70
     1
102
RTVSPost2010Prop30
280
     1
102
RTVSPost2010PropOp30
 70
     1
102
RTVSPost2010Prop31
280
     0
102
RTVSPost2010PropOp31
 70
     1
102
RTVSPost2010Prop32
280
     0
102
RTVSPost2010PropOp32
 70
     1
102
RTVSPost2010Prop33
280
     0
102
RTVSPost2010PropOp33
 70
     1
102
RTVSPost2010Prop34
280
     0
102
RTVSPost2010PropOp34
 70
     1
102
RTVSPost2010Prop35
280
     0
102
RTVSPost2010PropOp35
 70
     1
102
RTVSPost2010Prop36
280
     0
102
RTVSPost2010PropOp36
 70
     1
102
RTVSPost2010Prop37
 90
       50
102
RTVSPost2010PropOp37
 70
     1
102
RTVSPost2010Prop38
140
0.0
102
RTVSPost2010PropOp38
 70
     1
102
RTVSPost2010Prop39
140
1.0
102
RTVSPost2010PropOp39
 70
     1
102
RTVSPost2010Prop40
 90
        0
102
RTVSPost2010PropOp40
 70
     1
102
RTVSPost2010Prop41ColorIndex
 90
       18
102
RTVSPost2010Prop41ColorRGB
 90
        0
102
RTVSPost2010PropOp41
 70
     1
102
RTVSPost2010Prop42
 90
       50
102
RTVSPost2010PropOp42
 70
     1
102
RTVSPost2010Prop43
 90
        3
102
RTVSPost2010PropOp43
 70
     1
102
RTVSPost2010Prop44ColorIndex
 90
        5
102
RTVSPost2010Prop44ColorRGB
 90
      255
102
RTVSPost2010PropOp44
 70
     1
102
RTVSPost2010Prop45
280
     0
102
RTVSPost2010PropOp45
 70
     1
102
RTVSPost2010Prop46
 90
       50
102
RTVSPost2010PropOp46
 70
     1
102
RTVSPost2010Prop47
 90
       50
102
RTVSPost2010PropOp47
 70
     1
102
RTVSPost2010Prop48
 90
       50
102
RTVSPost2010PropOp48
 70
     1
102
RTVSPost2010Prop49
280
     0
102
RTVSPost2010PropOp49
 70
     1
102
RTVSPost2010Prop50
 90
       50
102
RTVSPost2010PropOp50
 70
     1
102
RTVSPost2010Prop51ColorIndex
 90
      256
102
RTVSPost2010Prop51ColorRGB
 90
-16777216
102
RTVSPost2010PropOp51
 70
     0
102
RTVSPost2010Prop52
140
1.0
102
RTVSPost2010PropOp52
 70
     0
102
RTVSPost2010Prop53
 90
        2
102
RTVSPost2010PropOp53
 70
     1
102
RTVSPost2010Prop54
  1
strokes_ogs.tif
102
RTVSPost2010PropOp54
 70
     1
102
RTVSPost2010Prop55
280
     0
102
RTVSPost2010PropOp55
 70
     1
102
RTVSPost2010Prop56
140
1.0
102
RTVSPost2010PropOp56
 70
     1
102
RTVSPost2010Prop57
140
1.0
102
RTVSPost2010PropOp57
 70
     1
  0
XRECORD
  5
700
102
{ACAD_REACTORS
330
6FF
102
}
330
6FF
100
AcDbXrecord
280
     1
102
RTVSPropertyOp0
 70
     1
102
RTVSPropertyOp1
 70
     1
102
RTVSPropertyOp2
 70
     1
102
RTVSPropertyOp3
 70
     1
102
RTVSPropertyOp4
 70
     1
102
RTVSPropertyOp5
 70
     1
102
RTVSPropertyOp6
 70
     1
102
RTVSPropertyOp7
 70
     1
102
RTVSPropertyOp8
 70
     1
102
RTVSPropertyOp9
 70
     1
102
RTVSPropertyOp10
 70
     1
102
RTVSPropertyOp11
 70
     1
102
RTVSPropertyOp12
 70
     1
102
RTVSPropertyOp13
 70
     1
102
RTVSPropertyOp14
 70
     1
102
RTVSPropertyOp15
 70
     1
102
RTVSPropertyOp16
 70
     1
102
RTVSPropertyOp17
 70
     1
102
RTVSPropertyOp18
 70
     1
102
RTVSPropertyOp19
 70
     1
102
RTVSPropertyOp20
 70
     1
102
RTVSPropertyOp21
 70
     1
102
RTVSPropertyOp22
 70
     1
102
RTVSPropertyOp23
 70
     1
102
RTVSPropertyOp24
 70
     1
102
RTVSPropertyOp25
 70
     1
102
RTVSPropertyOp26
 70
     1
102
RTVSPropertyOp27
 70
     1
102
RTVSPropertyOp28
 70
     1
102
RTVSPropertyOp29
 70
     1
102
RTVSPropertyOp30
 70
     1
102
RTVSPropertyOp31
 70
     1
102
RTVSPropertyOp32
 70
     1
102
RTVSPropertyOp33
 70
     1
102
RTVSPropertyOp34
 70
     1
102
RTVSPropertyOp35
 70
     1
102
RTVSPropertyOp36
 70
     1
102
RTVSPropertyOp37
 70
     1
102
RTVSPropertyOp38
 70
     1
102
RTVSPropertyOp39
 70
     1
102
RTVSPropertyOp40
 70
     1
102
RTVSPropertyOp41
 70
     1
102
RTVSPropertyOp42
 70
     1
102
RTVSPropertyOp43
 70
     1
102
RTVSPropertyOp44
 70
     1
102
RTVSPropertyOp45
 70
     1
102
RTVSPropertyOp46
 70
     1
102
RTVSPropertyOp47
 70
     1
102
RTVSPropertyOp48
 70
     1
102
RTVSPropertyOp49
 70
     1
102
RTVSPropertyOp50
 70
     1
102
RTVSPropertyOp51
 70
     0
102
RTVSPropertyOp52
 70
     0
102
RTVSPropertyOp53
 70
     1
102
RTVSPropertyOp54
 70
     1
102
RTVSPropertyOp55
 70
     1
102
RTVSPropertyOp56
 70
     1
102
RTVSPropertyOp57
 70
     1
102
RTVSPost2010Prop28
280
     0
102
RTVSPost2010PropOp28
 70
     1
102
RTVSPost2010Prop29
280
     1
102
RTVSPost2010PropOp29
 70
     1
102
RTVSPost2010Prop30
280
     1
102
RTVSPost2010PropOp30
 70
     1
102
RTVSPost2010Prop31
280
     0
102
RTVSPost2010PropOp31
 70
     1
102
RTVSPost2010Prop32
280
     0
102
RTVSPost2010PropOp32
 70
     1
102
RTVSPost2010Prop33
280
     0
102
RTVSPost2010PropOp33
 70
     1
102
RTVSPost2010Prop34
280
     0
102
RTVSPost2010PropOp34
 70
     1
102
RTVSPost2010Prop35
280
     0
102
RTVSPost2010PropOp35
 70
     1
102
RTVSPost2010Prop36
280
     0
102
RTVSPost2010PropOp36
 70
     1
102
RTVSPost2010Prop37
 90
       50
102
RTVSPost2010PropOp37
 70
     1
102
RTVSPost2010Prop38
140
0.0
102
RTVSPost2010PropOp38
 70
     1
102
RTVSPost2010Prop39
140
1.0
102
RTVSPost2010PropOp39
 70
     1
102
RTVSPost2010Prop40
 90
        0
102
RTVSPost2010PropOp40
 70
     1
102
RTVSPost2010Prop41ColorIndex
 90
       18
102
RTVSPost2010Prop41ColorRGB
 90
        0
102
RTVSPost2010PropOp41
 70
     1
102
RTVSPost2010Prop42
 90
       50
102
RTVSPost2010PropOp42
 70
     1
102
RTVSPost2010Prop43
 90
        3
102
RTVSPost2010PropOp43
 70
     1
102
RTVSPost2010Prop44ColorIndex
 90
        5
102
RTVSPost2010Prop44ColorRGB
 90
      255
102
RTVSPost2010PropOp44
 70
     1
102
RTVSPost2010Prop45
280
     0
102
RTVSPost2010PropOp45
 70
     1
102
RTVSPost2010Prop46
 90
       50
102
RTVSPost2010PropOp46
 70
     1
102
RTVSPost2010Prop47
 90
       50
102
RTVSPost2010PropOp47
 70
     1
102
RTVSPost2010Prop48
 90
       50
102
RTVSPost2010PropOp48
 70
     1
102
RTVSPost2010Prop49
280
     0
102
RTVSPost2010PropOp49
 70
     1
102
RTVSPost2010Prop50
 90
       50
102
RTVSPost2010PropOp50
 70
     1
102
RTVSPost2010Prop51ColorIndex
 90
      256
102
RTVSPost2010Prop51ColorRGB
 90
-16777216
102
RTVSPost2010PropOp51
 70
     0
102
RTVSPost2010Prop52
140
1.0
102
RTVSPost2010PropOp52
 70
     0
102
RTVSPost2010Prop53
 90
        2
102
RTVSPost2010PropOp53
 70
     1
102
RTVSPost2010Prop54
  1
strokes_ogs.tif
102
RTVSPost2010PropOp54
 70
     1
102
RTVSPost2010Prop55
280
     0
102
RTVSPost2010PropOp55
 70
     1
102
RTVSPost2010Prop56
140
1.0
102
RTVSPost2010PropOp56
 70
     1
102
RTVSPost2010Prop57
140
1.0
102
RTVSPost2010PropOp57
 70
     1
  0
XRECORD
  5
710
102
{ACAD_REACTORS
330
70F
102
}
330
70F
100
AcDbXrecord
280
     1
102
RTVSPropertyOp0
 70
     0
102
RTVSPropertyOp1
 70
     0
102
RTVSPropertyOp2
 70
     0
102
RTVSPropertyOp3
 70
     0
102
RTVSPropertyOp4
 70
     0
102
RTVSPropertyOp5
 70
     0
102
RTVSPropertyOp6
 70
     0
102
RTVSPropertyOp7
 70
     0
102
RTVSPropertyOp8
 70
     0
102
RTVSPropertyOp9
 70
     0
102
RTVSPropertyOp10
 70
     0
102
RTVSPropertyOp11
 70
     0
102
RTVSPropertyOp12
 70
     0
102
RTVSPropertyOp13
 70
     0
102
RTVSPropertyOp14
 70
     0
102
RTVSPropertyOp15
 70
     0
102
RTVSPropertyOp16
 70
     0
102
RTVSPropertyOp17
 70
     0
102
RTVSPropertyOp18
 70
     0
102
RTVSPropertyOp19
 70
     0
102
RTVSPropertyOp20
 70
     0
102
RTVSPropertyOp21
 70
     0
102
RTVSPropertyOp22
 70
     0
102
RTVSPropertyOp23
 70
     0
102
RTVSPropertyOp24
 70
     0
102
RTVSPropertyOp25
 70
     0
102
RTVSPropertyOp26
 70
     0
102
RTVSPropertyOp27
 70
     0
102
RTVSPropertyOp28
 70
     1
102
RTVSPropertyOp29
 70
     1
102
RTVSPropertyOp30
 70
     1
102
RTVSPropertyOp31
 70
     1
102
RTVSPropertyOp32
 70
     1
102
RTVSPropertyOp33
 70
     1
102
RTVSPropertyOp34
 70
     1
102
RTVSPropertyOp35
 70
     1
102
RTVSPropertyOp36
 70
     1
102
RTVSPropertyOp37
 70
     1
102
RTVSPropertyOp38
 70
     1
102
RTVSPropertyOp39
 70
     1
102
RTVSPropertyOp40
 70
     1
102
RTVSPropertyOp41
 70
     1
102
RTVSPropertyOp42
 70
     1
102
RTVSPropertyOp43
 70
     1
102
RTVSPropertyOp44
 70
     1
102
RTVSPropertyOp45
 70
     1
102
RTVSPropertyOp46
 70
     1
102
RTVSPropertyOp47
 70
     1
102
RTVSPropertyOp48
 70
     1
102
RTVSPropertyOp49
 70
     1
102
RTVSPropertyOp50
 70
     1
102
RTVSPropertyOp51
 70
     0
102
RTVSPropertyOp52
 70
     0
102
RTVSPropertyOp53
 70
     1
102
RTVSPropertyOp54
 70
     1
102
RTVSPropertyOp55
 70
     1
102
RTVSPropertyOp56
 70
     1
102
RTVSPropertyOp57
 70
     1
102
RTVSPost2010Prop28
280
     0
102
RTVSPost2010PropOp28
 70
     1
102
RTVSPost2010Prop29
280
     1
102
RTVSPost2010PropOp29
 70
     1
102
RTVSPost2010Prop30
280
     1
102
RTVSPost2010PropOp30
 70
     1
102
RTVSPost2010Prop31
280
     0
102
RTVSPost2010PropOp31
 70
     1
102
RTVSPost2010Prop32
280
     0
102
RTVSPost2010PropOp32
 70
     1
102
RTVSPost2010Prop33
280
     0
102
RTVSPost2010PropOp33
 70
     1
102
RTVSPost2010Prop34
280
     0
102
RTVSPost2010PropOp34
 70
     1
102
RTVSPost2010Prop35
280
     0
102
RTVSPost2010PropOp35
 70
     1
102
RTVSPost2010Prop36
280
     0
102
RTVSPost2010PropOp36
 70
     1
102
RTVSPost2010Prop37
 90
       50
102
RTVSPost2010PropOp37
 70
     1
102
RTVSPost2010Prop38
140
0.0
102
RTVSPost2010PropOp38
 70
     1
102
RTVSPost2010Prop39
140
1.0
102
RTVSPost2010PropOp39
 70
     1
102
RTVSPost2010Prop40
 90
        0
102
RTVSPost2010PropOp40
 70
     1
102
RTVSPost2010Prop41ColorIndex
 90
       18
102
RTVSPost2010Prop41ColorRGB
 90
        0
102
RTVSPost2010PropOp41
 70
     1
102
RTVSPost2010Prop42
 90
       50
102
RTVSPost2010PropOp42
 70
     1
102
RTVSPost2010Prop43
 90
        3
102
RTVSPost2010PropOp43
 70
     1
102
RTVSPost2010Prop44ColorIndex
 90
        5
102
RTVSPost2010Prop44ColorRGB
 90
      255
102
RTVSPost2010PropOp44
 70
     1
102
RTVSPost2010Prop45
280
     0
102
RTVSPost2010PropOp45
 70
     1
102
RTVSPost2010Prop46
 90
       50
102
RTVSPost2010PropOp46
 70
     1
102
RTVSPost2010Prop47
 90
       50
102
RTVSPost2010PropOp47
 70
     1
102
RTVSPost2010Prop48
 90
       50
102
RTVSPost2010PropOp48
 70
     1
102
RTVSPost2010Prop49
280
     0
102
RTVSPost2010PropOp49
 70
     1
102
RTVSPost2010Prop50
 90
       50
102
RTVSPost2010PropOp50
 70
     1
102
RTVSPost2010Prop51ColorIndex
 90
      256
102
RTVSPost2010Prop51ColorRGB
 90
-16777216
102
RTVSPost2010PropOp51
 70
     0
102
RTVSPost2010Prop52
140
1.0
102
RTVSPost2010PropOp52
 70
     0
102
RTVSPost2010Prop53
 90
        2
102
RTVSPost2010PropOp53
 70
     1
102
RTVSPost2010Prop54
  1
strokes_ogs.tif
102
RTVSPost2010PropOp54
 70
     1
102
RTVSPost2010Prop55
280
     0
102
RTVSPost2010PropOp55
 70
     1
102
RTVSPost2010Prop56
140
1.0
102
RTVSPost2010PropOp56
 70
     1
102
RTVSPost2010Prop57
140
1.0
102
RTVSPost2010PropOp57
 70
     1
  0
XRECORD
  5
708
102
{ACAD_REACTORS
330
707
102
}
330
707
100
AcDbXrecord
280
     1
102
RTVSPropertyOp0
 70
     1
102
RTVSPropertyOp1
 70
     1
102
RTVSPropertyOp2
 70
     1
102
RTVSPropertyOp3
 70
     1
102
RTVSPropertyOp4
 70
     1
102
RTVSPropertyOp5
 70
     1
102
RTVSPropertyOp6
 70
     1
102
RTVSPropertyOp7
 70
     1
102
RTVSPropertyOp8
 70
     1
102
RTVSPropertyOp9
 70
     1
102
RTVSPropertyOp10
 70
     1
102
RTVSPropertyOp11
 70
     1
102
RTVSPropertyOp12
 70
     1
102
RTVSPropertyOp13
 70
     1
102
RTVSPropertyOp14
 70
     1
102
RTVSPropertyOp15
 70
     1
102
RTVSPropertyOp16
 70
     1
102
RTVSPropertyOp17
 70
     1
102
RTVSPropertyOp18
 70
     1
102
RTVSPropertyOp19
 70
     1
102
RTVSPropertyOp20
 70
     1
102
RTVSPropertyOp21
 70
     1
102
RTVSPropertyOp22
 70
     1
102
RTVSPropertyOp23
 70
     1
102
RTVSPropertyOp24
 70
     1
102
RTVSPropertyOp25
 70
     1
102
RTVSPropertyOp26
 70
     1
102
RTVSPropertyOp27
 70
     1
102
RTVSPropertyOp28
 70
     1
102
RTVSPropertyOp29
 70
     1
102
RTVSPropertyOp30
 70
     1
102
RTVSPropertyOp31
 70
     1
102
RTVSPropertyOp32
 70
     1
102
RTVSPropertyOp33
 70
     1
102
RTVSPropertyOp34
 70
     1
102
RTVSPropertyOp35
 70
     1
102
RTVSPropertyOp36
 70
     1
102
RTVSPropertyOp37
 70
     1
102
RTVSPropertyOp38
 70
     1
102
RTVSPropertyOp39
 70
     1
102
RTVSPropertyOp40
 70
     1
102
RTVSPropertyOp41
 70
     1
102
RTVSPropertyOp42
 70
     1
102
RTVSPropertyOp43
 70
     1
102
RTVSPropertyOp44
 70
     1
102
RTVSPropertyOp45
 70
     1
102
RTVSPropertyOp46
 70
     1
102
RTVSPropertyOp47
 70
     1
102
RTVSPropertyOp48
 70
     1
102
RTVSPropertyOp49
 70
     1
102
RTVSPropertyOp50
 70
     1
102
RTVSPropertyOp51
 70
     0
102
RTVSPropertyOp52
 70
     0
102
RTVSPropertyOp53
 70
     1
102
RTVSPropertyOp54
 70
     1
102
RTVSPropertyOp55
 70
     1
102
RTVSPropertyOp56
 70
     1
102
RTVSPropertyOp57
 70
     1
102
RTVSPost2010Prop28
280
     0
102
RTVSPost2010PropOp28
 70
     1
102
RTVSPost2010Prop29
280
     1
102
RTVSPost2010PropOp29
 70
     1
102
RTVSPost2010Prop30
280
     1
102
RTVSPost2010PropOp30
 70
     1
102
RTVSPost2010Prop31
280
     0
102
RTVSPost2010PropOp31
 70
     1
102
RTVSPost2010Prop32
280
     0
102
RTVSPost2010PropOp32
 70
     1
102
RTVSPost2010Prop33
280
     0
102
RTVSPost2010PropOp33
 70
     1
102
RTVSPost2010Prop34
280
     0
102
RTVSPost2010PropOp34
 70
     1
102
RTVSPost2010Prop35
280
     0
102
RTVSPost2010PropOp35
 70
     1
102
RTVSPost2010Prop36
280
     0
102
RTVSPost2010PropOp36
 70
     1
102
RTVSPost2010Prop37
 90
       50
102
RTVSPost2010PropOp37
 70
     1
102
RTVSPost2010Prop38
140
0.0
102
RTVSPost2010PropOp38
 70
     1
102
RTVSPost2010Prop39
140
1.0
102
RTVSPost2010PropOp39
 70
     1
102
RTVSPost2010Prop40
 90
        0
102
RTVSPost2010PropOp40
 70
     1
102
RTVSPost2010Prop41ColorIndex
 90
       18
102
RTVSPost2010Prop41ColorRGB
 90
        0
102
RTVSPost2010PropOp41
 70
     1
102
RTVSPost2010Prop42
 90
       50
102
RTVSPost2010PropOp42
 70
     1
102
RTVSPost2010Prop43
 90
        3
102
RTVSPost2010PropOp43
 70
     1
102
RTVSPost2010Prop44ColorIndex
 90
        5
102
RTVSPost2010Prop44ColorRGB
 90
      255
102
RTVSPost2010PropOp44
 70
     1
102
RTVSPost2010Prop45
280
     0
102
RTVSPost2010PropOp45
 70
     1
102
RTVSPost2010Prop46
 90
       50
102
RTVSPost2010PropOp46
 70
     1
102
RTVSPost2010Prop47
 90
       50
102
RTVSPost2010PropOp47
 70
     1
102
RTVSPost2010Prop48
 90
       50
102
RTVSPost2010PropOp48
 70
     1
102
RTVSPost2010Prop49
280
     0
102
RTVSPost2010PropOp49
 70
     1
102
RTVSPost2010Prop50
 90
       50
102
RTVSPost2010PropOp50
 70
     1
102
RTVSPost2010Prop51ColorIndex
 90
      256
102
RTVSPost2010Prop51ColorRGB
 90
-16777216
102
RTVSPost2010PropOp51
 70
     0
102
RTVSPost2010Prop52
140
1.0
102
RTVSPost2010PropOp52
 70
     0
102
RTVSPost2010Prop53
 90
        2
102
RTVSPost2010PropOp53
 70
     1
102
RTVSPost2010Prop54
  1
strokes_ogs.tif
102
RTVSPost2010PropOp54
 70
     1
102
RTVSPost2010Prop55
280
     0
102
RTVSPost2010PropOp55
 70
     1
102
RTVSPost2010Prop56
140
1.0
102
RTVSPost2010PropOp56
 70
     1
102
RTVSPost2010Prop57
140
1.0
102
RTVSPost2010PropOp57
 70
     1
  0
XRECORD
  5
6F0
102
{ACAD_REACTORS
330
6EF
102
}
330
6EF
100
AcDbXrecord
280
     1
102
RTVSPropertyOp0
 70
     1
102
RTVSPropertyOp1
 70
     1
102
RTVSPropertyOp2
 70
     1
102
RTVSPropertyOp3
 70
     1
102
RTVSPropertyOp4
 70
     1
102
RTVSPropertyOp5
 70
     1
102
RTVSPropertyOp6
 70
     1
102
RTVSPropertyOp7
 70
     1
102
RTVSPropertyOp8
 70
     1
102
RTVSPropertyOp9
 70
     1
102
RTVSPropertyOp10
 70
     1
102
RTVSPropertyOp11
 70
     1
102
RTVSPropertyOp12
 70
     1
102
RTVSPropertyOp13
 70
     1
102
RTVSPropertyOp14
 70
     1
102
RTVSPropertyOp15
 70
     1
102
RTVSPropertyOp16
 70
     1
102
RTVSPropertyOp17
 70
     1
102
RTVSPropertyOp18
 70
     1
102
RTVSPropertyOp19
 70
     1
102
RTVSPropertyOp20
 70
     1
102
RTVSPropertyOp21
 70
     1
102
RTVSPropertyOp22
 70
     1
102
RTVSPropertyOp23
 70
     1
102
RTVSPropertyOp24
 70
     1
102
RTVSPropertyOp25
 70
     1
102
RTVSPropertyOp26
 70
     1
102
RTVSPropertyOp27
 70
     1
102
RTVSPropertyOp28
 70
     1
102
RTVSPropertyOp29
 70
     1
102
RTVSPropertyOp30
 70
     1
102
RTVSPropertyOp31
 70
     1
102
RTVSPropertyOp32
 70
     1
102
RTVSPropertyOp33
 70
     1
102
RTVSPropertyOp34
 70
     1
102
RTVSPropertyOp35
 70
     1
102
RTVSPropertyOp36
 70
     1
102
RTVSPropertyOp37
 70
     1
102
RTVSPropertyOp38
 70
     1
102
RTVSPropertyOp39
 70
     1
102
RTVSPropertyOp40
 70
     1
102
RTVSPropertyOp41
 70
     1
102
RTVSPropertyOp42
 70
     1
102
RTVSPropertyOp43
 70
     1
102
RTVSPropertyOp44
 70
     1
102
RTVSPropertyOp45
 70
     1
102
RTVSPropertyOp46
 70
     1
102
RTVSPropertyOp47
 70
     1
102
RTVSPropertyOp48
 70
     1
102
RTVSPropertyOp49
 70
     1
102
RTVSPropertyOp50
 70
     1
102
RTVSPropertyOp51
 70
     0
102
RTVSPropertyOp52
 70
     0
102
RTVSPropertyOp53
 70
     1
102
RTVSPropertyOp54
 70
     1
102
RTVSPropertyOp55
 70
     1
102
RTVSPropertyOp56
 70
     1
102
RTVSPropertyOp57
 70
     1
102
RTVSPost2010Prop28
280
     0
102
RTVSPost2010PropOp28
 70
     1
102
RTVSPost2010Prop29
280
     1
102
RTVSPost2010PropOp29
 70
     1
102
RTVSPost2010Prop30
280
     1
102
RTVSPost2010PropOp30
 70
     1
102
RTVSPost2010Prop31
280
     0
102
RTVSPost2010PropOp31
 70
     1
102
RTVSPost2010Prop32
280
     0
102
RTVSPost2010PropOp32
 70
     1
102
RTVSPost2010Prop33
280
     0
102
RTVSPost2010PropOp33
 70
     1
102
RTVSPost2010Prop34
280
     0
102
RTVSPost2010PropOp34
 70
     1
102
RTVSPost2010Prop35
280
     0
102
RTVSPost2010PropOp35
 70
     1
102
RTVSPost2010Prop36
280
     0
102
RTVSPost2010PropOp36
 70
     1
102
RTVSPost2010Prop37
 90
       50
102
RTVSPost2010PropOp37
 70
     1
102
RTVSPost2010Prop38
140
0.0
102
RTVSPost2010PropOp38
 70
     1
102
RTVSPost2010Prop39
140
1.0
102
RTVSPost2010PropOp39
 70
     1
102
RTVSPost2010Prop40
 90
        0
102
RTVSPost2010PropOp40
 70
     1
102
RTVSPost2010Prop41ColorIndex
 90
       18
102
RTVSPost2010Prop41ColorRGB
 90
        0
102
RTVSPost2010PropOp41
 70
     1
102
RTVSPost2010Prop42
 90
       50
102
RTVSPost2010PropOp42
 70
     1
102
RTVSPost2010Prop43
 90
        3
102
RTVSPost2010PropOp43
 70
     1
102
RTVSPost2010Prop44ColorIndex
 90
        5
102
RTVSPost2010Prop44ColorRGB
 90
      255
102
RTVSPost2010PropOp44
 70
     1
102
RTVSPost2010Prop45
280
     0
102
RTVSPost2010PropOp45
 70
     1
102
RTVSPost2010Prop46
 90
       50
102
RTVSPost2010PropOp46
 70
     1
102
RTVSPost2010Prop47
 90
       50
102
RTVSPost2010PropOp47
 70
     1
102
RTVSPost2010Prop48
 90
       50
102
RTVSPost2010PropOp48
 70
     1
102
RTVSPost2010Prop49
280
     0
102
RTVSPost2010PropOp49
 70
     1
102
RTVSPost2010Prop50
 90
       50
102
RTVSPost2010PropOp50
 70
     1
102
RTVSPost2010Prop51ColorIndex
 90
      256
102
RTVSPost2010Prop51ColorRGB
 90
-16777216
102
RTVSPost2010PropOp51
 70
     0
102
RTVSPost2010Prop52
140
1.0
102
RTVSPost2010PropOp52
 70
     0
102
RTVSPost2010Prop53
 90
        2
102
RTVSPost2010PropOp53
 70
     1
102
RTVSPost2010Prop54
  1
strokes_ogs.tif
102
RTVSPost2010PropOp54
 70
     1
102
RTVSPost2010Prop55
280
     0
102
RTVSPost2010PropOp55
 70
     1
102
RTVSPost2010Prop56
140
1.0
102
RTVSPost2010PropOp56
 70
     1
102
RTVSPost2010Prop57
140
1.0
102
RTVSPost2010PropOp57
 70
     1
  0
XRECORD
  5
6F2
102
{ACAD_REACTORS
330
6F1
102
}
330
6F1
100
AcDbXrecord
280
     1
102
RTVSPropertyOp0
 70
     1
102
RTVSPropertyOp1
 70
     1
102
RTVSPropertyOp2
 70
     1
102
RTVSPropertyOp3
 70
     1
102
RTVSPropertyOp4
 70
     1
102
RTVSPropertyOp5
 70
     1
102
RTVSPropertyOp6
 70
     1
102
RTVSPropertyOp7
 70
     1
102
RTVSPropertyOp8
 70
     1
102
RTVSPropertyOp9
 70
     1
102
RTVSPropertyOp10
 70
     1
102
RTVSPropertyOp11
 70
     1
102
RTVSPropertyOp12
 70
     1
102
RTVSPropertyOp13
 70
     1
102
RTVSPropertyOp14
 70
     1
102
RTVSPropertyOp15
 70
     1
102
RTVSPropertyOp16
 70
     1
102
RTVSPropertyOp17
 70
     1
102
RTVSPropertyOp18
 70
     1
102
RTVSPropertyOp19
 70
     1
102
RTVSPropertyOp20
 70
     1
102
RTVSPropertyOp21
 70
     1
102
RTVSPropertyOp22
 70
     1
102
RTVSPropertyOp23
 70
     1
102
RTVSPropertyOp24
 70
     1
102
RTVSPropertyOp25
 70
     1
102
RTVSPropertyOp26
 70
     1
102
RTVSPropertyOp27
 70
     1
102
RTVSPropertyOp28
 70
     1
102
RTVSPropertyOp29
 70
     1
102
RTVSPropertyOp30
 70
     1
102
RTVSPropertyOp31
 70
     1
102
RTVSPropertyOp32
 70
     1
102
RTVSPropertyOp33
 70
     1
102
RTVSPropertyOp34
 70
     1
102
RTVSPropertyOp35
 70
     1
102
RTVSPropertyOp36
 70
     1
102
RTVSPropertyOp37
 70
     1
102
RTVSPropertyOp38
 70
     1
102
RTVSPropertyOp39
 70
     1
102
RTVSPropertyOp40
 70
     1
102
RTVSPropertyOp41
 70
     1
102
RTVSPropertyOp42
 70
     1
102
RTVSPropertyOp43
 70
     1
102
RTVSPropertyOp44
 70
     1
102
RTVSPropertyOp45
 70
     1
102
RTVSPropertyOp46
 70
     1
102
RTVSPropertyOp47
 70
     1
102
RTVSPropertyOp48
 70
     1
102
RTVSPropertyOp49
 70
     1
102
RTVSPropertyOp50
 70
     1
102
RTVSPropertyOp51
 70
     0
102
RTVSPropertyOp52
 70
     0
102
RTVSPropertyOp53
 70
     1
102
RTVSPropertyOp54
 70
     1
102
RTVSPropertyOp55
 70
     1
102
RTVSPropertyOp56
 70
     1
102
RTVSPropertyOp57
 70
     1
102
RTVSPost2010Prop28
280
     0
102
RTVSPost2010PropOp28
 70
     1
102
RTVSPost2010Prop29
280
     1
102
RTVSPost2010PropOp29
 70
     1
102
RTVSPost2010Prop30
280
     1
102
RTVSPost2010PropOp30
 70
     1
102
RTVSPost2010Prop31
280
     0
102
RTVSPost2010PropOp31
 70
     1
102
RTVSPost2010Prop32
280
     0
102
RTVSPost2010PropOp32
 70
     1
102
RTVSPost2010Prop33
280
     0
102
RTVSPost2010PropOp33
 70
     1
102
RTVSPost2010Prop34
280
     0
102
RTVSPost2010PropOp34
 70
     1
102
RTVSPost2010Prop35
280
     0
102
RTVSPost2010PropOp35
 70
     1
102
RTVSPost2010Prop36
280
     0
102
RTVSPost2010PropOp36
 70
     1
102
RTVSPost2010Prop37
 90
       50
102
RTVSPost2010PropOp37
 70
     1
102
RTVSPost2010Prop38
140
0.0
102
RTVSPost2010PropOp38
 70
     1
102
RTVSPost2010Prop39
140
1.0
102
RTVSPost2010PropOp39
 70
     1
102
RTVSPost2010Prop40
 90
        0
102
RTVSPost2010PropOp40
 70
     1
102
RTVSPost2010Prop41ColorIndex
 90
       18
102
RTVSPost2010Prop41ColorRGB
 90
        0
102
RTVSPost2010PropOp41
 70
     1
102
RTVSPost2010Prop42
 90
       50
102
RTVSPost2010PropOp42
 70
     1
102
RTVSPost2010Prop43
 90
        3
102
RTVSPost2010PropOp43
 70
     1
102
RTVSPost2010Prop44ColorIndex
 90
        5
102
RTVSPost2010Prop44ColorRGB
 90
      255
102
RTVSPost2010PropOp44
 70
     1
102
RTVSPost2010Prop45
280
     0
102
RTVSPost2010PropOp45
 70
     1
102
RTVSPost2010Prop46
 90
       50
102
RTVSPost2010PropOp46
 70
     1
102
RTVSPost2010Prop47
 90
       50
102
RTVSPost2010PropOp47
 70
     1
102
RTVSPost2010Prop48
 90
       50
102
RTVSPost2010PropOp48
 70
     1
102
RTVSPost2010Prop49
280
     0
102
RTVSPost2010PropOp49
 70
     1
102
RTVSPost2010Prop50
 90
       50
102
RTVSPost2010PropOp50
 70
     1
102
RTVSPost2010Prop51ColorIndex
 90
      256
102
RTVSPost2010Prop51ColorRGB
 90
-16777216
102
RTVSPost2010PropOp51
 70
     0
102
RTVSPost2010Prop52
140
1.0
102
RTVSPost2010PropOp52
 70
     0
102
RTVSPost2010Prop53
 90
        2
102
RTVSPost2010PropOp53
 70
     1
102
RTVSPost2010Prop54
  1
strokes_ogs.tif
102
RTVSPost2010PropOp54
 70
     1
102
RTVSPost2010Prop55
280
     0
102
RTVSPost2010PropOp55
 70
     1
102
RTVSPost2010Prop56
140
1.0
102
RTVSPost2010PropOp56
 70
     1
102
RTVSPost2010Prop57
140
1.0
102
RTVSPost2010PropOp57
 70
     1
  0
XRECORD
  5
6F4
102
{ACAD_REACTORS
330
6F3
102
}
330
6F3
100
AcDbXrecord
280
     1
102
RTVSPropertyOp0
 70
     1
102
RTVSPropertyOp1
 70
     1
102
RTVSPropertyOp2
 70
     1
102
RTVSPropertyOp3
 70
     1
102
RTVSPropertyOp4
 70
     1
102
RTVSPropertyOp5
 70
     1
102
RTVSPropertyOp6
 70
     1
102
RTVSPropertyOp7
 70
     1
102
RTVSPropertyOp8
 70
     1
102
RTVSPropertyOp9
 70
     1
102
RTVSPropertyOp10
 70
     1
102
RTVSPropertyOp11
 70
     1
102
RTVSPropertyOp12
 70
     1
102
RTVSPropertyOp13
 70
     1
102
RTVSPropertyOp14
 70
     1
102
RTVSPropertyOp15
 70
     1
102
RTVSPropertyOp16
 70
     1
102
RTVSPropertyOp17
 70
     1
102
RTVSPropertyOp18
 70
     1
102
RTVSPropertyOp19
 70
     1
102
RTVSPropertyOp20
 70
     1
102
RTVSPropertyOp21
 70
     1
102
RTVSPropertyOp22
 70
     1
102
RTVSPropertyOp23
 70
     1
102
RTVSPropertyOp24
 70
     1
102
RTVSPropertyOp25
 70
     1
102
RTVSPropertyOp26
 70
     1
102
RTVSPropertyOp27
 70
     1
102
RTVSPropertyOp28
 70
     1
102
RTVSPropertyOp29
 70
     1
102
RTVSPropertyOp30
 70
     1
102
RTVSPropertyOp31
 70
     1
102
RTVSPropertyOp32
 70
     1
102
RTVSPropertyOp33
 70
     1
102
RTVSPropertyOp34
 70
     1
102
RTVSPropertyOp35
 70
     1
102
RTVSPropertyOp36
 70
     1
102
RTVSPropertyOp37
 70
     1
102
RTVSPropertyOp38
 70
     1
102
RTVSPropertyOp39
 70
     1
102
RTVSPropertyOp40
 70
     1
102
RTVSPropertyOp41
 70
     1
102
RTVSPropertyOp42
 70
     1
102
RTVSPropertyOp43
 70
     1
102
RTVSPropertyOp44
 70
     1
102
RTVSPropertyOp45
 70
     1
102
RTVSPropertyOp46
 70
     1
102
RTVSPropertyOp47
 70
     1
102
RTVSPropertyOp48
 70
     1
102
RTVSPropertyOp49
 70
     1
102
RTVSPropertyOp50
 70
     1
102
RTVSPropertyOp51
 70
     0
102
RTVSPropertyOp52
 70
     0
102
RTVSPropertyOp53
 70
     1
102
RTVSPropertyOp54
 70
     1
102
RTVSPropertyOp55
 70
     1
102
RTVSPropertyOp56
 70
     1
102
RTVSPropertyOp57
 70
     1
102
RTVSPost2010Prop28
280
     0
102
RTVSPost2010PropOp28
 70
     1
102
RTVSPost2010Prop29
280
     1
102
RTVSPost2010PropOp29
 70
     1
102
RTVSPost2010Prop30
280
     1
102
RTVSPost2010PropOp30
 70
     1
102
RTVSPost2010Prop31
280
     0
102
RTVSPost2010PropOp31
 70
     1
102
RTVSPost2010Prop32
280
     0
102
RTVSPost2010PropOp32
 70
     1
102
RTVSPost2010Prop33
280
     0
102
RTVSPost2010PropOp33
 70
     1
102
RTVSPost2010Prop34
280
     0
102
RTVSPost2010PropOp34
 70
     1
102
RTVSPost2010Prop35
280
     0
102
RTVSPost2010PropOp35
 70
     1
102
RTVSPost2010Prop36
280
     0
102
RTVSPost2010PropOp36
 70
     1
102
RTVSPost2010Prop37
 90
       50
102
RTVSPost2010PropOp37
 70
     1
102
RTVSPost2010Prop38
140
0.0
102
RTVSPost2010PropOp38
 70
     1
102
RTVSPost2010Prop39
140
1.0
102
RTVSPost2010PropOp39
 70
     1
102
RTVSPost2010Prop40
 90
        0
102
RTVSPost2010PropOp40
 70
     1
102
RTVSPost2010Prop41ColorIndex
 90
       18
102
RTVSPost2010Prop41ColorRGB
 90
        0
102
RTVSPost2010PropOp41
 70
     1
102
RTVSPost2010Prop42
 90
       50
102
RTVSPost2010PropOp42
 70
     1
102
RTVSPost2010Prop43
 90
        3
102
RTVSPost2010PropOp43
 70
     1
102
RTVSPost2010Prop44ColorIndex
 90
        5
102
RTVSPost2010Prop44ColorRGB
 90
      255
102
RTVSPost2010PropOp44
 70
     1
102
RTVSPost2010Prop45
280
     0
102
RTVSPost2010PropOp45
 70
     1
102
RTVSPost2010Prop46
 90
       50
102
RTVSPost2010PropOp46
 70
     1
102
RTVSPost2010Prop47
 90
       50
102
RTVSPost2010PropOp47
 70
     1
102
RTVSPost2010Prop48
 90
       50
102
RTVSPost2010PropOp48
 70
     1
102
RTVSPost2010Prop49
280
     0
102
RTVSPost2010PropOp49
 70
     1
102
RTVSPost2010Prop50
 90
       50
102
RTVSPost2010PropOp50
 70
     1
102
RTVSPost2010Prop51ColorIndex
 90
      256
102
RTVSPost2010Prop51ColorRGB
 90
-16777216
102
RTVSPost2010PropOp51
 70
     0
102
RTVSPost2010Prop52
140
1.0
102
RTVSPost2010PropOp52
 70
     0
102
RTVSPost2010Prop53
 90
        2
102
RTVSPost2010PropOp53
 70
     1
102
RTVSPost2010Prop54
  1
strokes_ogs.tif
102
RTVSPost2010PropOp54
 70
     1
102
RTVSPost2010Prop55
280
     0
102
RTVSPost2010PropOp55
 70
     1
102
RTVSPost2010Prop56
140
1.0
102
RTVSPost2010PropOp56
 70
     1
102
RTVSPost2010Prop57
140
1.0
102
RTVSPost2010PropOp57
 70
     1
  0
XRECORD
  5
6F6
102
{ACAD_REACTORS
330
6F5
102
}
330
6F5
100
AcDbXrecord
280
     1
102
RTVSPropertyOp0
 70
     1
102
RTVSPropertyOp1
 70
     1
102
RTVSPropertyOp2
 70
     1
102
RTVSPropertyOp3
 70
     1
102
RTVSPropertyOp4
 70
     1
102
RTVSPropertyOp5
 70
     1
102
RTVSPropertyOp6
 70
     1
102
RTVSPropertyOp7
 70
     1
102
RTVSPropertyOp8
 70
     1
102
RTVSPropertyOp9
 70
     1
102
RTVSPropertyOp10
 70
     1
102
RTVSPropertyOp11
 70
     1
102
RTVSPropertyOp12
 70
     1
102
RTVSPropertyOp13
 70
     1
102
RTVSPropertyOp14
 70
     1
102
RTVSPropertyOp15
 70
     1
102
RTVSPropertyOp16
 70
     1
102
RTVSPropertyOp17
 70
     1
102
RTVSPropertyOp18
 70
     1
102
RTVSPropertyOp19
 70
     1
102
RTVSPropertyOp20
 70
     1
102
RTVSPropertyOp21
 70
     1
102
RTVSPropertyOp22
 70
     1
102
RTVSPropertyOp23
 70
     1
102
RTVSPropertyOp24
 70
     1
102
RTVSPropertyOp25
 70
     1
102
RTVSPropertyOp26
 70
     1
102
RTVSPropertyOp27
 70
     1
102
RTVSPropertyOp28
 70
     1
102
RTVSPropertyOp29
 70
     1
102
RTVSPropertyOp30
 70
     1
102
RTVSPropertyOp31
 70
     1
102
RTVSPropertyOp32
 70
     1
102
RTVSPropertyOp33
 70
     1
102
RTVSPropertyOp34
 70
     1
102
RTVSPropertyOp35
 70
     1
102
RTVSPropertyOp36
 70
     1
102
RTVSPropertyOp37
 70
     1
102
RTVSPropertyOp38
 70
     1
102
RTVSPropertyOp39
 70
     1
102
RTVSPropertyOp40
 70
     1
102
RTVSPropertyOp41
 70
     1
102
RTVSPropertyOp42
 70
     1
102
RTVSPropertyOp43
 70
     1
102
RTVSPropertyOp44
 70
     1
102
RTVSPropertyOp45
 70
     1
102
RTVSPropertyOp46
 70
     1
102
RTVSPropertyOp47
 70
     1
102
RTVSPropertyOp48
 70
     1
102
RTVSPropertyOp49
 70
     1
102
RTVSPropertyOp50
 70
     1
102
RTVSPropertyOp51
 70
     0
102
RTVSPropertyOp52
 70
     0
102
RTVSPropertyOp53
 70
     1
102
RTVSPropertyOp54
 70
     1
102
RTVSPropertyOp55
 70
     1
102
RTVSPropertyOp56
 70
     1
102
RTVSPropertyOp57
 70
     1
102
RTVSPost2010Prop28
280
     0
102
RTVSPost2010PropOp28
 70
     1
102
RTVSPost2010Prop29
280
     1
102
RTVSPost2010PropOp29
 70
     1
102
RTVSPost2010Prop30
280
     1
102
RTVSPost2010PropOp30
 70
     1
102
RTVSPost2010Prop31
280
     0
102
RTVSPost2010PropOp31
 70
     1
102
RTVSPost2010Prop32
280
     0
102
RTVSPost2010PropOp32
 70
     1
102
RTVSPost2010Prop33
280
     0
102
RTVSPost2010PropOp33
 70
     1
102
RTVSPost2010Prop34
280
     0
102
RTVSPost2010PropOp34
 70
     1
102
RTVSPost2010Prop35
280
     0
102
RTVSPost2010PropOp35
 70
     1
102
RTVSPost2010Prop36
280
     0
102
RTVSPost2010PropOp36
 70
     1
102
RTVSPost2010Prop37
 90
       50
102
RTVSPost2010PropOp37
 70
     1
102
RTVSPost2010Prop38
140
0.0
102
RTVSPost2010PropOp38
 70
     1
102
RTVSPost2010Prop39
140
1.0
102
RTVSPost2010PropOp39
 70
     1
102
RTVSPost2010Prop40
 90
        0
102
RTVSPost2010PropOp40
 70
     1
102
RTVSPost2010Prop41ColorIndex
 90
       18
102
RTVSPost2010Prop41ColorRGB
 90
        0
102
RTVSPost2010PropOp41
 70
     1
102
RTVSPost2010Prop42
 90
       50
102
RTVSPost2010PropOp42
 70
     1
102
RTVSPost2010Prop43
 90
        3
102
RTVSPost2010PropOp43
 70
     1
102
RTVSPost2010Prop44ColorIndex
 90
        5
102
RTVSPost2010Prop44ColorRGB
 90
      255
102
RTVSPost2010PropOp44
 70
     1
102
RTVSPost2010Prop45
280
     0
102
RTVSPost2010PropOp45
 70
     1
102
RTVSPost2010Prop46
 90
       50
102
RTVSPost2010PropOp46
 70
     1
102
RTVSPost2010Prop47
 90
       50
102
RTVSPost2010PropOp47
 70
     1
102
RTVSPost2010Prop48
 90
       50
102
RTVSPost2010PropOp48
 70
     1
102
RTVSPost2010Prop49
280
     0
102
RTVSPost2010PropOp49
 70
     1
102
RTVSPost2010Prop50
 90
       50
102
RTVSPost2010PropOp50
 70
     1
102
RTVSPost2010Prop51ColorIndex
 90
      256
102
RTVSPost2010Prop51ColorRGB
 90
-16777216
102
RTVSPost2010PropOp51
 70
     0
102
RTVSPost2010Prop52
140
1.0
102
RTVSPost2010PropOp52
 70
     0
102
RTVSPost2010Prop53
 90
        2
102
RTVSPost2010PropOp53
 70
     1
102
RTVSPost2010Prop54
  1
strokes_ogs.tif
102
RTVSPost2010PropOp54
 70
     1
102
RTVSPost2010Prop55
280
     0
102
RTVSPost2010PropOp55
 70
     1
102
RTVSPost2010Prop56
140
1.0
102
RTVSPost2010PropOp56
 70
     1
102
RTVSPost2010Prop57
140
1.0
102
RTVSPost2010PropOp57
 70
     1
  0
XRECORD
  5
6FA
102
{ACAD_REACTORS
330
6F9
102
}
330
6F9
100
AcDbXrecord
280
     1
102
RTVSPropertyOp0
 70
     1
102
RTVSPropertyOp1
 70
     1
102
RTVSPropertyOp2
 70
     1
102
RTVSPropertyOp3
 70
     1
102
RTVSPropertyOp4
 70
     1
102
RTVSPropertyOp5
 70
     1
102
RTVSPropertyOp6
 70
     1
102
RTVSPropertyOp7
 70
     1
102
RTVSPropertyOp8
 70
     1
102
RTVSPropertyOp9
 70
     1
102
RTVSPropertyOp10
 70
     1
102
RTVSPropertyOp11
 70
     1
102
RTVSPropertyOp12
 70
     1
102
RTVSPropertyOp13
 70
     1
102
RTVSPropertyOp14
 70
     1
102
RTVSPropertyOp15
 70
     1
102
RTVSPropertyOp16
 70
     1
102
RTVSPropertyOp17
 70
     1
102
RTVSPropertyOp18
 70
     1
102
RTVSPropertyOp19
 70
     1
102
RTVSPropertyOp20
 70
     1
102
RTVSPropertyOp21
 70
     1
102
RTVSPropertyOp22
 70
     1
102
RTVSPropertyOp23
 70
     1
102
RTVSPropertyOp24
 70
     1
102
RTVSPropertyOp25
 70
     1
102
RTVSPropertyOp26
 70
     1
102
RTVSPropertyOp27
 70
     1
102
RTVSPropertyOp28
 70
     1
102
RTVSPropertyOp29
 70
     1
102
RTVSPropertyOp30
 70
     1
102
RTVSPropertyOp31
 70
     1
102
RTVSPropertyOp32
 70
     1
102
RTVSPropertyOp33
 70
     1
102
RTVSPropertyOp34
 70
     1
102
RTVSPropertyOp35
 70
     1
102
RTVSPropertyOp36
 70
     1
102
RTVSPropertyOp37
 70
     1
102
RTVSPropertyOp38
 70
     1
102
RTVSPropertyOp39
 70
     1
102
RTVSPropertyOp40
 70
     1
102
RTVSPropertyOp41
 70
     1
102
RTVSPropertyOp42
 70
     1
102
RTVSPropertyOp43
 70
     1
102
RTVSPropertyOp44
 70
     1
102
RTVSPropertyOp45
 70
     1
102
RTVSPropertyOp46
 70
     1
102
RTVSPropertyOp47
 70
     1
102
RTVSPropertyOp48
 70
     1
102
RTVSPropertyOp49
 70
     1
102
RTVSPropertyOp50
 70
     1
102
RTVSPropertyOp51
 70
     0
102
RTVSPropertyOp52
 70
     0
102
RTVSPropertyOp53
 70
     1
102
RTVSPropertyOp54
 70
     1
102
RTVSPropertyOp55
 70
     1
102
RTVSPropertyOp56
 70
     1
102
RTVSPropertyOp57
 70
     1
102
RTVSPost2010Prop28
280
     0
102
RTVSPost2010PropOp28
 70
     1
102
RTVSPost2010Prop29
280
     1
102
RTVSPost2010PropOp29
 70
     1
102
RTVSPost2010Prop30
280
     1
102
RTVSPost2010PropOp30
 70
     1
102
RTVSPost2010Prop31
280
     0
102
RTVSPost2010PropOp31
 70
     1
102
RTVSPost2010Prop32
280
     0
102
RTVSPost2010PropOp32
 70
     1
102
RTVSPost2010Prop33
280
     0
102
RTVSPost2010PropOp33
 70
     1
102
RTVSPost2010Prop34
280
     0
102
RTVSPost2010PropOp34
 70
     1
102
RTVSPost2010Prop35
280
     0
102
RTVSPost2010PropOp35
 70
     1
102
RTVSPost2010Prop36
280
     0
102
RTVSPost2010PropOp36
 70
     1
102
RTVSPost2010Prop37
 90
       50
102
RTVSPost2010PropOp37
 70
     1
102
RTVSPost2010Prop38
140
0.0
102
RTVSPost2010PropOp38
 70
     1
102
RTVSPost2010Prop39
140
1.0
102
RTVSPost2010PropOp39
 70
     1
102
RTVSPost2010Prop40
 90
        0
102
RTVSPost2010PropOp40
 70
     1
102
RTVSPost2010Prop41ColorIndex
 90
       18
102
RTVSPost2010Prop41ColorRGB
 90
        0
102
RTVSPost2010PropOp41
 70
     1
102
RTVSPost2010Prop42
 90
       50
102
RTVSPost2010PropOp42
 70
     1
102
RTVSPost2010Prop43
 90
        3
102
RTVSPost2010PropOp43
 70
     1
102
RTVSPost2010Prop44ColorIndex
 90
        5
102
RTVSPost2010Prop44ColorRGB
 90
      255
102
RTVSPost2010PropOp44
 70
     1
102
RTVSPost2010Prop45
280
     0
102
RTVSPost2010PropOp45
 70
     1
102
RTVSPost2010Prop46
 90
       50
102
RTVSPost2010PropOp46
 70
     1
102
RTVSPost2010Prop47
 90
       50
102
RTVSPost2010PropOp47
 70
     1
102
RTVSPost2010Prop48
 90
       50
102
RTVSPost2010PropOp48
 70
     1
102
RTVSPost2010Prop49
280
     0
102
RTVSPost2010PropOp49
 70
     1
102
RTVSPost2010Prop50
 90
       50
102
RTVSPost2010PropOp50
 70
     1
102
RTVSPost2010Prop51ColorIndex
 90
      256
102
RTVSPost2010Prop51ColorRGB
 90
-16777216
102
RTVSPost2010PropOp51
 70
     0
102
RTVSPost2010Prop52
140
1.0
102
RTVSPost2010PropOp52
 70
     0
102
RTVSPost2010Prop53
 90
        2
102
RTVSPost2010PropOp53
 70
     1
102
RTVSPost2010Prop54
  1
strokes_ogs.tif
102
RTVSPost2010PropOp54
 70
     1
102
RTVSPost2010Prop55
280
     0
102
RTVSPost2010PropOp55
 70
     1
102
RTVSPost2010Prop56
140
1.0
102
RTVSPost2010PropOp56
 70
     1
102
RTVSPost2010Prop57
140
1.0
102
RTVSPost2010PropOp57
 70
     1
  0
XRECORD
  5
70C
102
{ACAD_REACTORS
330
70B
102
}
330
70B
100
AcDbXrecord
280
     1
102
RTVSPropertyOp0
 70
     0
102
RTVSPropertyOp1
 70
     0
102
RTVSPropertyOp2
 70
     0
102
RTVSPropertyOp3
 70
     0
102
RTVSPropertyOp4
 70
     0
102
RTVSPropertyOp5
 70
     0
102
RTVSPropertyOp6
 70
     0
102
RTVSPropertyOp7
 70
     0
102
RTVSPropertyOp8
 70
     0
102
RTVSPropertyOp9
 70
     0
102
RTVSPropertyOp10
 70
     0
102
RTVSPropertyOp11
 70
     0
102
RTVSPropertyOp12
 70
     0
102
RTVSPropertyOp13
 70
     0
102
RTVSPropertyOp14
 70
     0
102
RTVSPropertyOp15
 70
     0
102
RTVSPropertyOp16
 70
     0
102
RTVSPropertyOp17
 70
     0
102
RTVSPropertyOp18
 70
     0
102
RTVSPropertyOp19
 70
     0
102
RTVSPropertyOp20
 70
     0
102
RTVSPropertyOp21
 70
     0
102
RTVSPropertyOp22
 70
     0
102
RTVSPropertyOp23
 70
     0
102
RTVSPropertyOp24
 70
     0
102
RTVSPropertyOp25
 70
     0
102
RTVSPropertyOp26
 70
     0
102
RTVSPropertyOp27
 70
     0
102
RTVSPropertyOp28
 70
     1
102
RTVSPropertyOp29
 70
     1
102
RTVSPropertyOp30
 70
     1
102
RTVSPropertyOp31
 70
     1
102
RTVSPropertyOp32
 70
     1
102
RTVSPropertyOp33
 70
     1
102
RTVSPropertyOp34
 70
     1
102
RTVSPropertyOp35
 70
     1
102
RTVSPropertyOp36
 70
     1
102
RTVSPropertyOp37
 70
     1
102
RTVSPropertyOp38
 70
     1
102
RTVSPropertyOp39
 70
     1
102
RTVSPropertyOp40
 70
     1
102
RTVSPropertyOp41
 70
     1
102
RTVSPropertyOp42
 70
     1
102
RTVSPropertyOp43
 70
     1
102
RTVSPropertyOp44
 70
     1
102
RTVSPropertyOp45
 70
     1
102
RTVSPropertyOp46
 70
     1
102
RTVSPropertyOp47
 70
     1
102
RTVSPropertyOp48
 70
     1
102
RTVSPropertyOp49
 70
     1
102
RTVSPropertyOp50
 70
     1
102
RTVSPropertyOp51
 70
     0
102
RTVSPropertyOp52
 70
     0
102
RTVSPropertyOp53
 70
     1
102
RTVSPropertyOp54
 70
     1
102
RTVSPropertyOp55
 70
     1
102
RTVSPropertyOp56
 70
     1
102
RTVSPropertyOp57
 70
     1
102
RTVSPost2010Prop28
280
     0
102
RTVSPost2010PropOp28
 70
     1
102
RTVSPost2010Prop29
280
     1
102
RTVSPost2010PropOp29
 70
     1
102
RTVSPost2010Prop30
280
     1
102
RTVSPost2010PropOp30
 70
     1
102
RTVSPost2010Prop31
280
     0
102
RTVSPost2010PropOp31
 70
     1
102
RTVSPost2010Prop32
280
     0
102
RTVSPost2010PropOp32
 70
     1
102
RTVSPost2010Prop33
280
     0
102
RTVSPost2010PropOp33
 70
     1
102
RTVSPost2010Prop34
280
     0
102
RTVSPost2010PropOp34
 70
     1
102
RTVSPost2010Prop35
280
     0
102
RTVSPost2010PropOp35
 70
     1
102
RTVSPost2010Prop36
280
     0
102
RTVSPost2010PropOp36
 70
     1
102
RTVSPost2010Prop37
 90
       50
102
RTVSPost2010PropOp37
 70
     1
102
RTVSPost2010Prop38
140
0.0
102
RTVSPost2010PropOp38
 70
     1
102
RTVSPost2010Prop39
140
1.0
102
RTVSPost2010PropOp39
 70
     1
102
RTVSPost2010Prop40
 90
        0
102
RTVSPost2010PropOp40
 70
     1
102
RTVSPost2010Prop41ColorIndex
 90
       18
102
RTVSPost2010Prop41ColorRGB
 90
        0
102
RTVSPost2010PropOp41
 70
     1
102
RTVSPost2010Prop42
 90
       50
102
RTVSPost2010PropOp42
 70
     1
102
RTVSPost2010Prop43
 90
        3
102
RTVSPost2010PropOp43
 70
     1
102
RTVSPost2010Prop44ColorIndex
 90
        5
102
RTVSPost2010Prop44ColorRGB
 90
      255
102
RTVSPost2010PropOp44
 70
     1
102
RTVSPost2010Prop45
280
     0
102
RTVSPost2010PropOp45
 70
     1
102
RTVSPost2010Prop46
 90
       50
102
RTVSPost2010PropOp46
 70
     1
102
RTVSPost2010Prop47
 90
       50
102
RTVSPost2010PropOp47
 70
     1
102
RTVSPost2010Prop48
 90
       50
102
RTVSPost2010PropOp48
 70
     1
102
RTVSPost2010Prop49
280
     0
102
RTVSPost2010PropOp49
 70
     1
102
RTVSPost2010Prop50
 90
       50
102
RTVSPost2010PropOp50
 70
     1
102
RTVSPost2010Prop51ColorIndex
 90
      256
102
RTVSPost2010Prop51ColorRGB
 90
-16777216
102
RTVSPost2010PropOp51
 70
     0
102
RTVSPost2010Prop52
140
1.0
102
RTVSPost2010PropOp52
 70
     0
102
RTVSPost2010Prop53
 90
        2
102
RTVSPost2010PropOp53
 70
     1
102
RTVSPost2010Prop54
  1
strokes_ogs.tif
102
RTVSPost2010PropOp54
 70
     1
102
RTVSPost2010Prop55
280
     0
102
RTVSPost2010PropOp55
 70
     1
102
RTVSPost2010Prop56
140
1.0
102
RTVSPost2010PropOp56
 70
     1
102
RTVSPost2010Prop57
140
1.0
102
RTVSPost2010PropOp57
 70
     1
  0
XRECORD
  5
706
102
{ACAD_REACTORS
330
705
102
}
330
705
100
AcDbXrecord
280
     1
102
RTVSPropertyOp0
 70
     1
102
RTVSPropertyOp1
 70
     1
102
RTVSPropertyOp2
 70
     1
102
RTVSPropertyOp3
 70
     1
102
RTVSPropertyOp4
 70
     1
102
RTVSPropertyOp5
 70
     1
102
RTVSPropertyOp6
 70
     1
102
RTVSPropertyOp7
 70
     1
102
RTVSPropertyOp8
 70
     1
102
RTVSPropertyOp9
 70
     1
102
RTVSPropertyOp10
 70
     1
102
RTVSPropertyOp11
 70
     1
102
RTVSPropertyOp12
 70
     1
102
RTVSPropertyOp13
 70
     1
102
RTVSPropertyOp14
 70
     1
102
RTVSPropertyOp15
 70
     1
102
RTVSPropertyOp16
 70
     1
102
RTVSPropertyOp17
 70
     1
102
RTVSPropertyOp18
 70
     1
102
RTVSPropertyOp19
 70
     1
102
RTVSPropertyOp20
 70
     1
102
RTVSPropertyOp21
 70
     1
102
RTVSPropertyOp22
 70
     1
102
RTVSPropertyOp23
 70
     1
102
RTVSPropertyOp24
 70
     1
102
RTVSPropertyOp25
 70
     1
102
RTVSPropertyOp26
 70
     1
102
RTVSPropertyOp27
 70
     1
102
RTVSPropertyOp28
 70
     1
102
RTVSPropertyOp29
 70
     1
102
RTVSPropertyOp30
 70
     1
102
RTVSPropertyOp31
 70
     1
102
RTVSPropertyOp32
 70
     1
102
RTVSPropertyOp33
 70
     1
102
RTVSPropertyOp34
 70
     1
102
RTVSPropertyOp35
 70
     1
102
RTVSPropertyOp36
 70
     1
102
RTVSPropertyOp37
 70
     1
102
RTVSPropertyOp38
 70
     1
102
RTVSPropertyOp39
 70
     1
102
RTVSPropertyOp40
 70
     1
102
RTVSPropertyOp41
 70
     1
102
RTVSPropertyOp42
 70
     1
102
RTVSPropertyOp43
 70
     1
102
RTVSPropertyOp44
 70
     1
102
RTVSPropertyOp45
 70
     1
102
RTVSPropertyOp46
 70
     1
102
RTVSPropertyOp47
 70
     1
102
RTVSPropertyOp48
 70
     1
102
RTVSPropertyOp49
 70
     1
102
RTVSPropertyOp50
 70
     1
102
RTVSPropertyOp51
 70
     0
102
RTVSPropertyOp52
 70
     0
102
RTVSPropertyOp53
 70
     1
102
RTVSPropertyOp54
 70
     1
102
RTVSPropertyOp55
 70
     1
102
RTVSPropertyOp56
 70
     1
102
RTVSPropertyOp57
 70
     1
102
RTVSPost2010Prop28
280
     0
102
RTVSPost2010PropOp28
 70
     1
102
RTVSPost2010Prop29
280
     1
102
RTVSPost2010PropOp29
 70
     1
102
RTVSPost2010Prop30
280
     1
102
RTVSPost2010PropOp30
 70
     1
102
RTVSPost2010Prop31
280
     0
102
RTVSPost2010PropOp31
 70
     1
102
RTVSPost2010Prop32
280
     0
102
RTVSPost2010PropOp32
 70
     1
102
RTVSPost2010Prop33
280
     0
102
RTVSPost2010PropOp33
 70
     1
102
RTVSPost2010Prop34
280
     0
102
RTVSPost2010PropOp34
 70
     1
102
RTVSPost2010Prop35
280
     0
102
RTVSPost2010PropOp35
 70
     1
102
RTVSPost2010Prop36
280
     0
102
RTVSPost2010PropOp36
 70
     1
102
RTVSPost2010Prop37
 90
       50
102
RTVSPost2010PropOp37
 70
     1
102
RTVSPost2010Prop38
140
0.0
102
RTVSPost2010PropOp38
 70
     1
102
RTVSPost2010Prop39
140
1.0
102
RTVSPost2010PropOp39
 70
     1
102
RTVSPost2010Prop40
 90
        0
102
RTVSPost2010PropOp40
 70
     1
102
RTVSPost2010Prop41ColorIndex
 90
       18
102
RTVSPost2010Prop41ColorRGB
 90
        0
102
RTVSPost2010PropOp41
 70
     1
102
RTVSPost2010Prop42
 90
       50
102
RTVSPost2010PropOp42
 70
     1
102
RTVSPost2010Prop43
 90
        3
102
RTVSPost2010PropOp43
 70
     1
102
RTVSPost2010Prop44ColorIndex
 90
        5
102
RTVSPost2010Prop44ColorRGB
 90
      255
102
RTVSPost2010PropOp44
 70
     1
102
RTVSPost2010Prop45
280
     0
102
RTVSPost2010PropOp45
 70
     1
102
RTVSPost2010Prop46
 90
       50
102
RTVSPost2010PropOp46
 70
     1
102
RTVSPost2010Prop47
 90
       50
102
RTVSPost2010PropOp47
 70
     1
102
RTVSPost2010Prop48
 90
       50
102
RTVSPost2010PropOp48
 70
     1
102
RTVSPost2010Prop49
280
     0
102
RTVSPost2010PropOp49
 70
     1
102
RTVSPost2010Prop50
 90
       50
102
RTVSPost2010PropOp50
 70
     1
102
RTVSPost2010Prop51ColorIndex
 90
      256
102
RTVSPost2010Prop51ColorRGB
 90
-16777216
102
RTVSPost2010PropOp51
 70
     0
102
RTVSPost2010Prop52
140
1.0
102
RTVSPost2010PropOp52
 70
     0
102
RTVSPost2010Prop53
 90
        2
102
RTVSPost2010PropOp53
 70
     1
102
RTVSPost2010Prop54
  1
strokes_ogs.tif
102
RTVSPost2010PropOp54
 70
     1
102
RTVSPost2010Prop55
280
     0
102
RTVSPost2010PropOp55
 70
     1
102
RTVSPost2010Prop56
140
1.0
102
RTVSPost2010PropOp56
 70
     1
102
RTVSPost2010Prop57
140
1.0
102
RTVSPost2010PropOp57
 70
     1
  0
XRECORD
  5
70E
102
{ACAD_REACTORS
330
70D
102
}
330
70D
100
AcDbXrecord
280
     1
102
RTVSPropertyOp0
 70
     0
102
RTVSPropertyOp1
 70
     0
102
RTVSPropertyOp2
 70
     0
102
RTVSPropertyOp3
 70
     0
102
RTVSPropertyOp4
 70
     0
102
RTVSPropertyOp5
 70
     0
102
RTVSPropertyOp6
 70
     0
102
RTVSPropertyOp7
 70
     0
102
RTVSPropertyOp8
 70
     0
102
RTVSPropertyOp9
 70
     0
102
RTVSPropertyOp10
 70
     0
102
RTVSPropertyOp11
 70
     0
102
RTVSPropertyOp12
 70
     0
102
RTVSPropertyOp13
 70
     0
102
RTVSPropertyOp14
 70
     0
102
RTVSPropertyOp15
 70
     0
102
RTVSPropertyOp16
 70
     0
102
RTVSPropertyOp17
 70
     0
102
RTVSPropertyOp18
 70
     0
102
RTVSPropertyOp19
 70
     0
102
RTVSPropertyOp20
 70
     0
102
RTVSPropertyOp21
 70
     0
102
RTVSPropertyOp22
 70
     0
102
RTVSPropertyOp23
 70
     0
102
RTVSPropertyOp24
 70
     0
102
RTVSPropertyOp25
 70
     0
102
RTVSPropertyOp26
 70
     0
102
RTVSPropertyOp27
 70
     0
102
RTVSPropertyOp28
 70
     1
102
RTVSPropertyOp29
 70
     1
102
RTVSPropertyOp30
 70
     1
102
RTVSPropertyOp31
 70
     1
102
RTVSPropertyOp32
 70
     1
102
RTVSPropertyOp33
 70
     1
102
RTVSPropertyOp34
 70
     1
102
RTVSPropertyOp35
 70
     1
102
RTVSPropertyOp36
 70
     1
102
RTVSPropertyOp37
 70
     1
102
RTVSPropertyOp38
 70
     1
102
RTVSPropertyOp39
 70
     1
102
RTVSPropertyOp40
 70
     1
102
RTVSPropertyOp41
 70
     1
102
RTVSPropertyOp42
 70
     1
102
RTVSPropertyOp43
 70
     1
102
RTVSPropertyOp44
 70
     1
102
RTVSPropertyOp45
 70
     1
102
RTVSPropertyOp46
 70
     1
102
RTVSPropertyOp47
 70
     1
102
RTVSPropertyOp48
 70
     1
102
RTVSPropertyOp49
 70
     1
102
RTVSPropertyOp50
 70
     1
102
RTVSPropertyOp51
 70
     0
102
RTVSPropertyOp52
 70
     0
102
RTVSPropertyOp53
 70
     1
102
RTVSPropertyOp54
 70
     1
102
RTVSPropertyOp55
 70
     1
102
RTVSPropertyOp56
 70
     1
102
RTVSPropertyOp57
 70
     1
102
RTVSPost2010Prop28
280
     0
102
RTVSPost2010PropOp28
 70
     1
102
RTVSPost2010Prop29
280
     1
102
RTVSPost2010PropOp29
 70
     1
102
RTVSPost2010Prop30
280
     1
102
RTVSPost2010PropOp30
 70
     1
102
RTVSPost2010Prop31
280
     0
102
RTVSPost2010PropOp31
 70
     1
102
RTVSPost2010Prop32
280
     0
102
RTVSPost2010PropOp32
 70
     1
102
RTVSPost2010Prop33
280
     0
102
RTVSPost2010PropOp33
 70
     1
102
RTVSPost2010Prop34
280
     0
102
RTVSPost2010PropOp34
 70
     1
102
RTVSPost2010Prop35
280
     0
102
RTVSPost2010PropOp35
 70
     1
102
RTVSPost2010Prop36
280
     0
102
RTVSPost2010PropOp36
 70
     1
102
RTVSPost2010Prop37
 90
       50
102
RTVSPost2010PropOp37
 70
     1
102
RTVSPost2010Prop38
140
0.0
102
RTVSPost2010PropOp38
 70
     1
102
RTVSPost2010Prop39
140
1.0
102
RTVSPost2010PropOp39
 70
     1
102
RTVSPost2010Prop40
 90
        0
102
RTVSPost2010PropOp40
 70
     1
102
RTVSPost2010Prop41ColorIndex
 90
       18
102
RTVSPost2010Prop41ColorRGB
 90
        0
102
RTVSPost2010PropOp41
 70
     1
102
RTVSPost2010Prop42
 90
       50
102
RTVSPost2010PropOp42
 70
     1
102
RTVSPost2010Prop43
 90
        3
102
RTVSPost2010PropOp43
 70
     1
102
RTVSPost2010Prop44ColorIndex
 90
        5
102
RTVSPost2010Prop44ColorRGB
 90
      255
102
RTVSPost2010PropOp44
 70
     1
102
RTVSPost2010Prop45
280
     0
102
RTVSPost2010PropOp45
 70
     1
102
RTVSPost2010Prop46
 90
       50
102
RTVSPost2010PropOp46
 70
     1
102
RTVSPost2010Prop47
 90
       50
102
RTVSPost2010PropOp47
 70
     1
102
RTVSPost2010Prop48
 90
       50
102
RTVSPost2010PropOp48
 70
     1
102
RTVSPost2010Prop49
280
     0
102
RTVSPost2010PropOp49
 70
     1
102
RTVSPost2010Prop50
 90
       50
102
RTVSPost2010PropOp50
 70
     1
102
RTVSPost2010Prop51ColorIndex
 90
      256
102
RTVSPost2010Prop51ColorRGB
 90
-16777216
102
RTVSPost2010PropOp51
 70
     0
102
RTVSPost2010Prop52
140
1.0
102
RTVSPost2010PropOp52
 70
     0
102
RTVSPost2010Prop53
 90
        2
102
RTVSPost2010PropOp53
 70
     1
102
RTVSPost2010Prop54
  1
strokes_ogs.tif
102
RTVSPost2010PropOp54
 70
     1
102
RTVSPost2010Prop55
280
     0
102
RTVSPost2010PropOp55
 70
     1
102
RTVSPost2010Prop56
140
1.0
102
RTVSPost2010PropOp56
 70
     1
102
RTVSPost2010Prop57
140
1.0
102
RTVSPost2010PropOp57
 70
     1
  0
XRECORD
  5
6EC
102
{ACAD_REACTORS
330
6EB
102
}
330
6EB
100
AcDbXrecord
280
     1
102
RTVSPropertyOp0
 70
     1
102
RTVSPropertyOp1
 70
     1
102
RTVSPropertyOp2
 70
     1
102
RTVSPropertyOp3
 70
     1
102
RTVSPropertyOp4
 70
     1
102
RTVSPropertyOp5
 70
     1
102
RTVSPropertyOp6
 70
     1
102
RTVSPropertyOp7
 70
     1
102
RTVSPropertyOp8
 70
     1
102
RTVSPropertyOp9
 70
     1
102
RTVSPropertyOp10
 70
     1
102
RTVSPropertyOp11
 70
     1
102
RTVSPropertyOp12
 70
     1
102
RTVSPropertyOp13
 70
     1
102
RTVSPropertyOp14
 70
     1
102
RTVSPropertyOp15
 70
     1
102
RTVSPropertyOp16
 70
     1
102
RTVSPropertyOp17
 70
     1
102
RTVSPropertyOp18
 70
     1
102
RTVSPropertyOp19
 70
     1
102
RTVSPropertyOp20
 70
     1
102
RTVSPropertyOp21
 70
     1
102
RTVSPropertyOp22
 70
     1
102
RTVSPropertyOp23
 70
     1
102
RTVSPropertyOp24
 70
     1
102
RTVSPropertyOp25
 70
     1
102
RTVSPropertyOp26
 70
     1
102
RTVSPropertyOp27
 70
     1
102
RTVSPropertyOp28
 70
     1
102
RTVSPropertyOp29
 70
     1
102
RTVSPropertyOp30
 70
     1
102
RTVSPropertyOp31
 70
     1
102
RTVSPropertyOp32
 70
     1
102
RTVSPropertyOp33
 70
     1
102
RTVSPropertyOp34
 70
     1
102
RTVSPropertyOp35
 70
     1
102
RTVSPropertyOp36
 70
     1
102
RTVSPropertyOp37
 70
     1
102
RTVSPropertyOp38
 70
     1
102
RTVSPropertyOp39
 70
     1
102
RTVSPropertyOp40
 70
     1
102
RTVSPropertyOp41
 70
     1
102
RTVSPropertyOp42
 70
     1
102
RTVSPropertyOp43
 70
     1
102
RTVSPropertyOp44
 70
     1
102
RTVSPropertyOp45
 70
     1
102
RTVSPropertyOp46
 70
     1
102
RTVSPropertyOp47
 70
     1
102
RTVSPropertyOp48
 70
     1
102
RTVSPropertyOp49
 70
     1
102
RTVSPropertyOp50
 70
     1
102
RTVSPropertyOp51
 70
     0
102
RTVSPropertyOp52
 70
     0
102
RTVSPropertyOp53
 70
     1
102
RTVSPropertyOp54
 70
     1
102
RTVSPropertyOp55
 70
     1
102
RTVSPropertyOp56
 70
     1
102
RTVSPropertyOp57
 70
     1
102
RTVSPost2010Prop28
280
     0
102
RTVSPost2010PropOp28
 70
     1
102
RTVSPost2010Prop29
280
     1
102
RTVSPost2010PropOp29
 70
     1
102
RTVSPost2010Prop30
280
     1
102
RTVSPost2010PropOp30
 70
     1
102
RTVSPost2010Prop31
280
     0
102
RTVSPost2010PropOp31
 70
     1
102
RTVSPost2010Prop32
280
     0
102
RTVSPost2010PropOp32
 70
     1
102
RTVSPost2010Prop33
280
     0
102
RTVSPost2010PropOp33
 70
     1
102
RTVSPost2010Prop34
280
     0
102
RTVSPost2010PropOp34
 70
     1
102
RTVSPost2010Prop35
280
     0
102
RTVSPost2010PropOp35
 70
     1
102
RTVSPost2010Prop36
280
     0
102
RTVSPost2010PropOp36
 70
     1
102
RTVSPost2010Prop37
 90
       50
102
RTVSPost2010PropOp37
 70
     1
102
RTVSPost2010Prop38
140
0.0
102
RTVSPost2010PropOp38
 70
     1
102
RTVSPost2010Prop39
140
1.0
102
RTVSPost2010PropOp39
 70
     1
102
RTVSPost2010Prop40
 90
        0
102
RTVSPost2010PropOp40
 70
     1
102
RTVSPost2010Prop41ColorIndex
 90
       18
102
RTVSPost2010Prop41ColorRGB
 90
        0
102
RTVSPost2010PropOp41
 70
     1
102
RTVSPost2010Prop42
 90
       50
102
RTVSPost2010PropOp42
 70
     1
102
RTVSPost2010Prop43
 90
        3
102
RTVSPost2010PropOp43
 70
     1
102
RTVSPost2010Prop44ColorIndex
 90
        5
102
RTVSPost2010Prop44ColorRGB
 90
      255
102
RTVSPost2010PropOp44
 70
     1
102
RTVSPost2010Prop45
280
     0
102
RTVSPost2010PropOp45
 70
     1
102
RTVSPost2010Prop46
 90
       50
102
RTVSPost2010PropOp46
 70
     1
102
RTVSPost2010Prop47
 90
       50
102
RTVSPost2010PropOp47
 70
     1
102
RTVSPost2010Prop48
 90
       50
102
RTVSPost2010PropOp48
 70
     1
102
RTVSPost2010Prop49
280
     0
102
RTVSPost2010PropOp49
 70
     1
102
RTVSPost2010Prop50
 90
       50
102
RTVSPost2010PropOp50
 70
     1
102
RTVSPost2010Prop51ColorIndex
 90
      256
102
RTVSPost2010Prop51ColorRGB
 90
-16777216
102
RTVSPost2010PropOp51
 70
     0
102
RTVSPost2010Prop52
140
1.0
102
RTVSPost2010PropOp52
 70
     0
102
RTVSPost2010Prop53
 90
        2
102
RTVSPost2010PropOp53
 70
     1
102
RTVSPost2010Prop54
  1
strokes_ogs.tif
102
RTVSPost2010PropOp54
 70
     1
102
RTVSPost2010Prop55
280
     0
102
RTVSPost2010PropOp55
 70
     1
102
RTVSPost2010Prop56
140
1.0
102
RTVSPost2010PropOp56
 70
     1
102
RTVSPost2010Prop57
140
1.0
102
RTVSPost2010PropOp57
 70
     1
  0
XRECORD
  5
71A
102
{ACAD_REACTORS
330
719
102
}
330
719
100
AcDbXrecord
280
     1
102
RTVSPropertyOp0
 70
     1
102
RTVSPropertyOp1
 70
     1
102
RTVSPropertyOp2
 70
     1
102
RTVSPropertyOp3
 70
     1
102
RTVSPropertyOp4
 70
     1
102
RTVSPropertyOp5
 70
     1
102
RTVSPropertyOp6
 70
     1
102
RTVSPropertyOp7
 70
     1
102
RTVSPropertyOp8
 70
     1
102
RTVSPropertyOp9
 70
     1
102
RTVSPropertyOp10
 70
     1
102
RTVSPropertyOp11
 70
     1
102
RTVSPropertyOp12
 70
     1
102
RTVSPropertyOp13
 70
     1
102
RTVSPropertyOp14
 70
     1
102
RTVSPropertyOp15
 70
     1
102
RTVSPropertyOp16
 70
     1
102
RTVSPropertyOp17
 70
     1
102
RTVSPropertyOp18
 70
     1
102
RTVSPropertyOp19
 70
     1
102
RTVSPropertyOp20
 70
     1
102
RTVSPropertyOp21
 70
     1
102
RTVSPropertyOp22
 70
     1
102
RTVSPropertyOp23
 70
     1
102
RTVSPropertyOp24
 70
     1
102
RTVSPropertyOp25
 70
     1
102
RTVSPropertyOp26
 70
     1
102
RTVSPropertyOp27
 70
     1
102
RTVSPropertyOp28
 70
     1
102
RTVSPropertyOp29
 70
     1
102
RTVSPropertyOp30
 70
     1
102
RTVSPropertyOp31
 70
     1
102
RTVSPropertyOp32
 70
     1
102
RTVSPropertyOp33
 70
     1
102
RTVSPropertyOp34
 70
     1
102
RTVSPropertyOp35
 70
     1
102
RTVSPropertyOp36
 70
     1
102
RTVSPropertyOp37
 70
     1
102
RTVSPropertyOp38
 70
     1
102
RTVSPropertyOp39
 70
     1
102
RTVSPropertyOp40
 70
     1
102
RTVSPropertyOp41
 70
     1
102
RTVSPropertyOp42
 70
     1
102
RTVSPropertyOp43
 70
     1
102
RTVSPropertyOp44
 70
     1
102
RTVSPropertyOp45
 70
     1
102
RTVSPropertyOp46
 70
     1
102
RTVSPropertyOp47
 70
     1
102
RTVSPropertyOp48
 70
     1
102
RTVSPropertyOp49
 70
     1
102
RTVSPropertyOp50
 70
     1
102
RTVSPropertyOp51
 70
     0
102
RTVSPropertyOp52
 70
     0
102
RTVSPropertyOp53
 70
     1
102
RTVSPropertyOp54
 70
     1
102
RTVSPropertyOp55
 70
     1
102
RTVSPropertyOp56
 70
     1
102
RTVSPropertyOp57
 70
     1
102
RTVSPost2010Prop28
280
     0
102
RTVSPost2010PropOp28
 70
     1
102
RTVSPost2010Prop29
280
     1
102
RTVSPost2010PropOp29
 70
     1
102
RTVSPost2010Prop30
280
     1
102
RTVSPost2010PropOp30
 70
     1
102
RTVSPost2010Prop31
280
     0
102
RTVSPost2010PropOp31
 70
     1
102
RTVSPost2010Prop32
280
     0
102
RTVSPost2010PropOp32
 70
     1
102
RTVSPost2010Prop33
280
     0
102
RTVSPost2010PropOp33
 70
     1
102
RTVSPost2010Prop34
280
     0
102
RTVSPost2010PropOp34
 70
     1
102
RTVSPost2010Prop35
280
     0
102
RTVSPost2010PropOp35
 70
     1
102
RTVSPost2010Prop36
280
     0
102
RTVSPost2010PropOp36
 70
     1
102
RTVSPost2010Prop37
 90
       50
102
RTVSPost2010PropOp37
 70
     1
102
RTVSPost2010Prop38
140
0.0
102
RTVSPost2010PropOp38
 70
     1
102
RTVSPost2010Prop39
140
1.0
102
RTVSPost2010PropOp39
 70
     1
102
RTVSPost2010Prop40
 90
        0
102
RTVSPost2010PropOp40
 70
     1
102
RTVSPost2010Prop41ColorIndex
 90
       18
102
RTVSPost2010Prop41ColorRGB
 90
        0
102
RTVSPost2010PropOp41
 70
     1
102
RTVSPost2010Prop42
 90
       50
102
RTVSPost2010PropOp42
 70
     1
102
RTVSPost2010Prop43
 90
        3
102
RTVSPost2010PropOp43
 70
     1
102
RTVSPost2010Prop44ColorIndex
 90
        5
102
RTVSPost2010Prop44ColorRGB
 90
      255
102
RTVSPost2010PropOp44
 70
     1
102
RTVSPost2010Prop45
280
     0
102
RTVSPost2010PropOp45
 70
     1
102
RTVSPost2010Prop46
 90
       50
102
RTVSPost2010PropOp46
 70
     1
102
RTVSPost2010Prop47
 90
       50
102
RTVSPost2010PropOp47
 70
     1
102
RTVSPost2010Prop48
 90
       50
102
RTVSPost2010PropOp48
 70
     1
102
RTVSPost2010Prop49
280
     0
102
RTVSPost2010PropOp49
 70
     1
102
RTVSPost2010Prop50
 90
       50
102
RTVSPost2010PropOp50
 70
     1
102
RTVSPost2010Prop51ColorIndex
 90
      256
102
RTVSPost2010Prop51ColorRGB
 90
-16777216
102
RTVSPost2010PropOp51
 70
     0
102
RTVSPost2010Prop52
140
1.0
102
RTVSPost2010PropOp52
 70
     0
102
RTVSPost2010Prop53
 90
        2
102
RTVSPost2010PropOp53
 70
     1
102
RTVSPost2010Prop54
  1
strokes_ogs.tif
102
RTVSPost2010PropOp54
 70
     1
102
RTVSPost2010Prop55
280
     0
102
RTVSPost2010PropOp55
 70
     1
102
RTVSPost2010Prop56
140
1.0
102
RTVSPost2010PropOp56
 70
     1
102
RTVSPost2010Prop57
140
1.0
102
RTVSPost2010PropOp57
 70
     1
  0
XRECORD
  5
718
102
{ACAD_REACTORS
330
717
102
}
330
717
100
AcDbXrecord
280
     1
102
RTVSPropertyOp0
 70
     1
102
RTVSPropertyOp1
 70
     1
102
RTVSPropertyOp2
 70
     1
102
RTVSPropertyOp3
 70
     1
102
RTVSPropertyOp4
 70
     1
102
RTVSPropertyOp5
 70
     1
102
RTVSPropertyOp6
 70
     1
102
RTVSPropertyOp7
 70
     1
102
RTVSPropertyOp8
 70
     1
102
RTVSPropertyOp9
 70
     1
102
RTVSPropertyOp10
 70
     1
102
RTVSPropertyOp11
 70
     1
102
RTVSPropertyOp12
 70
     1
102
RTVSPropertyOp13
 70
     1
102
RTVSPropertyOp14
 70
     1
102
RTVSPropertyOp15
 70
     1
102
RTVSPropertyOp16
 70
     1
102
RTVSPropertyOp17
 70
     1
102
RTVSPropertyOp18
 70
     1
102
RTVSPropertyOp19
 70
     1
102
RTVSPropertyOp20
 70
     1
102
RTVSPropertyOp21
 70
     1
102
RTVSPropertyOp22
 70
     1
102
RTVSPropertyOp23
 70
     1
102
RTVSPropertyOp24
 70
     1
102
RTVSPropertyOp25
 70
     1
102
RTVSPropertyOp26
 70
     1
102
RTVSPropertyOp27
 70
     1
102
RTVSPropertyOp28
 70
     1
102
RTVSPropertyOp29
 70
     1
102
RTVSPropertyOp30
 70
     1
102
RTVSPropertyOp31
 70
     1
102
RTVSPropertyOp32
 70
     1
102
RTVSPropertyOp33
 70
     1
102
RTVSPropertyOp34
 70
     1
102
RTVSPropertyOp35
 70
     1
102
RTVSPropertyOp36
 70
     1
102
RTVSPropertyOp37
 70
     1
102
RTVSPropertyOp38
 70
     1
102
RTVSPropertyOp39
 70
     1
102
RTVSPropertyOp40
 70
     1
102
RTVSPropertyOp41
 70
     1
102
RTVSPropertyOp42
 70
     1
102
RTVSPropertyOp43
 70
     1
102
RTVSPropertyOp44
 70
     1
102
RTVSPropertyOp45
 70
     1
102
RTVSPropertyOp46
 70
     1
102
RTVSPropertyOp47
 70
     1
102
RTVSPropertyOp48
 70
     1
102
RTVSPropertyOp49
 70
     1
102
RTVSPropertyOp50
 70
     1
102
RTVSPropertyOp51
 70
     0
102
RTVSPropertyOp52
 70
     0
102
RTVSPropertyOp53
 70
     1
102
RTVSPropertyOp54
 70
     1
102
RTVSPropertyOp55
 70
     1
102
RTVSPropertyOp56
 70
     1
102
RTVSPropertyOp57
 70
     1
102
RTVSPost2010Prop28
280
     0
102
RTVSPost2010PropOp28
 70
     1
102
RTVSPost2010Prop29
280
     1
102
RTVSPost2010PropOp29
 70
     1
102
RTVSPost2010Prop30
280
     1
102
RTVSPost2010PropOp30
 70
     1
102
RTVSPost2010Prop31
280
     0
102
RTVSPost2010PropOp31
 70
     1
102
RTVSPost2010Prop32
280
     0
102
RTVSPost2010PropOp32
 70
     1
102
RTVSPost2010Prop33
280
     0
102
RTVSPost2010PropOp33
 70
     1
102
RTVSPost2010Prop34
280
     0
102
RTVSPost2010PropOp34
 70
     1
102
RTVSPost2010Prop35
280
     0
102
RTVSPost2010PropOp35
 70
     1
102
RTVSPost2010Prop36
280
     0
102
RTVSPost2010PropOp36
 70
     1
102
RTVSPost2010Prop37
 90
       50
102
RTVSPost2010PropOp37
 70
     1
102
RTVSPost2010Prop38
140
0.0
102
RTVSPost2010PropOp38
 70
     1
102
RTVSPost2010Prop39
140
1.0
102
RTVSPost2010PropOp39
 70
     1
102
RTVSPost2010Prop40
 90
        0
102
RTVSPost2010PropOp40
 70
     1
102
RTVSPost2010Prop41ColorIndex
 90
       18
102
RTVSPost2010Prop41ColorRGB
 90
        0
102
RTVSPost2010PropOp41
 70
     1
102
RTVSPost2010Prop42
 90
       50
102
RTVSPost2010PropOp42
 70
     1
102
RTVSPost2010Prop43
 90
        3
102
RTVSPost2010PropOp43
 70
     1
102
RTVSPost2010Prop44ColorIndex
 90
        5
102
RTVSPost2010Prop44ColorRGB
 90
      255
102
RTVSPost2010PropOp44
 70
     1
102
RTVSPost2010Prop45
280
     0
102
RTVSPost2010PropOp45
 70
     1
102
RTVSPost2010Prop46
 90
       50
102
RTVSPost2010PropOp46
 70
     1
102
RTVSPost2010Prop47
 90
       50
102
RTVSPost2010PropOp47
 70
     1
102
RTVSPost2010Prop48
 90
       50
102
RTVSPost2010PropOp48
 70
     1
102
RTVSPost2010Prop49
280
     0
102
RTVSPost2010PropOp49
 70
     1
102
RTVSPost2010Prop50
 90
       50
102
RTVSPost2010PropOp50
 70
     1
102
RTVSPost2010Prop51ColorIndex
 90
      256
102
RTVSPost2010Prop51ColorRGB
 90
-16777216
102
RTVSPost2010PropOp51
 70
     0
102
RTVSPost2010Prop52
140
1.0
102
RTVSPost2010PropOp52
 70
     0
102
RTVSPost2010Prop53
 90
        2
102
RTVSPost2010PropOp53
 70
     1
102
RTVSPost2010Prop54
  1
strokes_ogs.tif
102
RTVSPost2010PropOp54
 70
     1
102
RTVSPost2010Prop55
280
     0
102
RTVSPost2010PropOp55
 70
     1
102
RTVSPost2010Prop56
140
1.0
102
RTVSPost2010PropOp56
 70
     1
102
RTVSPost2010Prop57
140
1.0
102
RTVSPost2010PropOp57
 70
     1
  0
XRECORD
  5
712
102
{ACAD_REACTORS
330
711
102
}
330
711
100
AcDbXrecord
280
     1
102
RTVSPropertyOp0
 70
     1
102
RTVSPropertyOp1
 70
     1
102
RTVSPropertyOp2
 70
     1
102
RTVSPropertyOp3
 70
     1
102
RTVSPropertyOp4
 70
     1
102
RTVSPropertyOp5
 70
     1
102
RTVSPropertyOp6
 70
     1
102
RTVSPropertyOp7
 70
     1
102
RTVSPropertyOp8
 70
     1
102
RTVSPropertyOp9
 70
     1
102
RTVSPropertyOp10
 70
     1
102
RTVSPropertyOp11
 70
     1
102
RTVSPropertyOp12
 70
     1
102
RTVSPropertyOp13
 70
     1
102
RTVSPropertyOp14
 70
     1
102
RTVSPropertyOp15
 70
     1
102
RTVSPropertyOp16
 70
     1
102
RTVSPropertyOp17
 70
     1
102
RTVSPropertyOp18
 70
     1
102
RTVSPropertyOp19
 70
     1
102
RTVSPropertyOp20
 70
     1
102
RTVSPropertyOp21
 70
     1
102
RTVSPropertyOp22
 70
     1
102
RTVSPropertyOp23
 70
     1
102
RTVSPropertyOp24
 70
     1
102
RTVSPropertyOp25
 70
     1
102
RTVSPropertyOp26
 70
     1
102
RTVSPropertyOp27
 70
     1
102
RTVSPropertyOp28
 70
     1
102
RTVSPropertyOp29
 70
     1
102
RTVSPropertyOp30
 70
     1
102
RTVSPropertyOp31
 70
     1
102
RTVSPropertyOp32
 70
     1
102
RTVSPropertyOp33
 70
     1
102
RTVSPropertyOp34
 70
     1
102
RTVSPropertyOp35
 70
     1
102
RTVSPropertyOp36
 70
     1
102
RTVSPropertyOp37
 70
     1
102
RTVSPropertyOp38
 70
     1
102
RTVSPropertyOp39
 70
     1
102
RTVSPropertyOp40
 70
     1
102
RTVSPropertyOp41
 70
     1
102
RTVSPropertyOp42
 70
     1
102
RTVSPropertyOp43
 70
     1
102
RTVSPropertyOp44
 70
     1
102
RTVSPropertyOp45
 70
     1
102
RTVSPropertyOp46
 70
     1
102
RTVSPropertyOp47
 70
     1
102
RTVSPropertyOp48
 70
     1
102
RTVSPropertyOp49
 70
     1
102
RTVSPropertyOp50
 70
     1
102
RTVSPropertyOp51
 70
     0
102
RTVSPropertyOp52
 70
     0
102
RTVSPropertyOp53
 70
     1
102
RTVSPropertyOp54
 70
     1
102
RTVSPropertyOp55
 70
     1
102
RTVSPropertyOp56
 70
     1
102
RTVSPropertyOp57
 70
     1
102
RTVSPost2010Prop28
280
     0
102
RTVSPost2010PropOp28
 70
     1
102
RTVSPost2010Prop29
280
     1
102
RTVSPost2010PropOp29
 70
     1
102
RTVSPost2010Prop30
280
     1
102
RTVSPost2010PropOp30
 70
     1
102
RTVSPost2010Prop31
280
     0
102
RTVSPost2010PropOp31
 70
     1
102
RTVSPost2010Prop32
280
     0
102
RTVSPost2010PropOp32
 70
     1
102
RTVSPost2010Prop33
280
     0
102
RTVSPost2010PropOp33
 70
     1
102
RTVSPost2010Prop34
280
     0
102
RTVSPost2010PropOp34
 70
     1
102
RTVSPost2010Prop35
280
     0
102
RTVSPost2010PropOp35
 70
     1
102
RTVSPost2010Prop36
280
     0
102
RTVSPost2010PropOp36
 70
     1
102
RTVSPost2010Prop37
 90
       50
102
RTVSPost2010PropOp37
 70
     1
102
RTVSPost2010Prop38
140
0.0
102
RTVSPost2010PropOp38
 70
     1
102
RTVSPost2010Prop39
140
1.0
102
RTVSPost2010PropOp39
 70
     1
102
RTVSPost2010Prop40
 90
        0
102
RTVSPost2010PropOp40
 70
     1
102
RTVSPost2010Prop41ColorIndex
 90
       18
102
RTVSPost2010Prop41ColorRGB
 90
        0
102
RTVSPost2010PropOp41
 70
     1
102
RTVSPost2010Prop42
 90
       50
102
RTVSPost2010PropOp42
 70
     1
102
RTVSPost2010Prop43
 90
        3
102
RTVSPost2010PropOp43
 70
     1
102
RTVSPost2010Prop44ColorIndex
 90
        5
102
RTVSPost2010Prop44ColorRGB
 90
      255
102
RTVSPost2010PropOp44
 70
     1
102
RTVSPost2010Prop45
280
     0
102
RTVSPost2010PropOp45
 70
     1
102
RTVSPost2010Prop46
 90
       50
102
RTVSPost2010PropOp46
 70
     1
102
RTVSPost2010Prop47
 90
       50
102
RTVSPost2010PropOp47
 70
     1
102
RTVSPost2010Prop48
 90
       50
102
RTVSPost2010PropOp48
 70
     1
102
RTVSPost2010Prop49
280
     0
102
RTVSPost2010PropOp49
 70
     1
102
RTVSPost2010Prop50
 90
       50
102
RTVSPost2010PropOp50
 70
     1
102
RTVSPost2010Prop51ColorIndex
 90
      256
102
RTVSPost2010Prop51ColorRGB
 90
-16777216
102
RTVSPost2010PropOp51
 70
     0
102
RTVSPost2010Prop52
140
1.0
102
RTVSPost2010PropOp52
 70
     0
102
RTVSPost2010Prop53
 90
        2
102
RTVSPost2010PropOp53
 70
     1
102
RTVSPost2010Prop54
  1
strokes_ogs.tif
102
RTVSPost2010PropOp54
 70
     1
102
RTVSPost2010Prop55
280
     0
102
RTVSPost2010PropOp55
 70
     1
102
RTVSPost2010Prop56
140
1.0
102
RTVSPost2010PropOp56
 70
     1
102
RTVSPost2010Prop57
140
1.0
102
RTVSPost2010PropOp57
 70
     1
  0
XRECORD
  5
714
102
{ACAD_REACTORS
330
713
102
}
330
713
100
AcDbXrecord
280
     1
102
RTVSPropertyOp0
 70
     1
102
RTVSPropertyOp1
 70
     1
102
RTVSPropertyOp2
 70
     1
102
RTVSPropertyOp3
 70
     1
102
RTVSPropertyOp4
 70
     1
102
RTVSPropertyOp5
 70
     1
102
RTVSPropertyOp6
 70
     1
102
RTVSPropertyOp7
 70
     1
102
RTVSPropertyOp8
 70
     1
102
RTVSPropertyOp9
 70
     1
102
RTVSPropertyOp10
 70
     1
102
RTVSPropertyOp11
 70
     1
102
RTVSPropertyOp12
 70
     1
102
RTVSPropertyOp13
 70
     1
102
RTVSPropertyOp14
 70
     1
102
RTVSPropertyOp15
 70
     1
102
RTVSPropertyOp16
 70
     1
102
RTVSPropertyOp17
 70
     1
102
RTVSPropertyOp18
 70
     1
102
RTVSPropertyOp19
 70
     1
102
RTVSPropertyOp20
 70
     1
102
RTVSPropertyOp21
 70
     1
102
RTVSPropertyOp22
 70
     1
102
RTVSPropertyOp23
 70
     1
102
RTVSPropertyOp24
 70
     1
102
RTVSPropertyOp25
 70
     1
102
RTVSPropertyOp26
 70
     1
102
RTVSPropertyOp27
 70
     1
102
RTVSPropertyOp28
 70
     1
102
RTVSPropertyOp29
 70
     1
102
RTVSPropertyOp30
 70
     1
102
RTVSPropertyOp31
 70
     1
102
RTVSPropertyOp32
 70
     1
102
RTVSPropertyOp33
 70
     1
102
RTVSPropertyOp34
 70
     1
102
RTVSPropertyOp35
 70
     1
102
RTVSPropertyOp36
 70
     1
102
RTVSPropertyOp37
 70
     1
102
RTVSPropertyOp38
 70
     1
102
RTVSPropertyOp39
 70
     1
102
RTVSPropertyOp40
 70
     1
102
RTVSPropertyOp41
 70
     1
102
RTVSPropertyOp42
 70
     1
102
RTVSPropertyOp43
 70
     1
102
RTVSPropertyOp44
 70
     1
102
RTVSPropertyOp45
 70
     1
102
RTVSPropertyOp46
 70
     1
102
RTVSPropertyOp47
 70
     1
102
RTVSPropertyOp48
 70
     1
102
RTVSPropertyOp49
 70
     1
102
RTVSPropertyOp50
 70
     1
102
RTVSPropertyOp51
 70
     0
102
RTVSPropertyOp52
 70
     0
102
RTVSPropertyOp53
 70
     1
102
RTVSPropertyOp54
 70
     1
102
RTVSPropertyOp55
 70
     1
102
RTVSPropertyOp56
 70
     1
102
RTVSPropertyOp57
 70
     1
102
RTVSPost2010Prop28
280
     0
102
RTVSPost2010PropOp28
 70
     1
102
RTVSPost2010Prop29
280
     1
102
RTVSPost2010PropOp29
 70
     1
102
RTVSPost2010Prop30
280
     1
102
RTVSPost2010PropOp30
 70
     1
102
RTVSPost2010Prop31
280
     0
102
RTVSPost2010PropOp31
 70
     1
102
RTVSPost2010Prop32
280
     0
102
RTVSPost2010PropOp32
 70
     1
102
RTVSPost2010Prop33
280
     0
102
RTVSPost2010PropOp33
 70
     1
102
RTVSPost2010Prop34
280
     0
102
RTVSPost2010PropOp34
 70
     1
102
RTVSPost2010Prop35
280
     0
102
RTVSPost2010PropOp35
 70
     1
102
RTVSPost2010Prop36
280
     0
102
RTVSPost2010PropOp36
 70
     1
102
RTVSPost2010Prop37
 90
       50
102
RTVSPost2010PropOp37
 70
     1
102
RTVSPost2010Prop38
140
0.0
102
RTVSPost2010PropOp38
 70
     1
102
RTVSPost2010Prop39
140
1.0
102
RTVSPost2010PropOp39
 70
     1
102
RTVSPost2010Prop40
 90
        0
102
RTVSPost2010PropOp40
 70
     1
102
RTVSPost2010Prop41ColorIndex
 90
       18
102
RTVSPost2010Prop41ColorRGB
 90
        0
102
RTVSPost2010PropOp41
 70
     1
102
RTVSPost2010Prop42
 90
       50
102
RTVSPost2010PropOp42
 70
     1
102
RTVSPost2010Prop43
 90
        3
102
RTVSPost2010PropOp43
 70
     1
102
RTVSPost2010Prop44ColorIndex
 90
        5
102
RTVSPost2010Prop44ColorRGB
 90
      255
102
RTVSPost2010PropOp44
 70
     1
102
RTVSPost2010Prop45
280
     0
102
RTVSPost2010PropOp45
 70
     1
102
RTVSPost2010Prop46
 90
       50
102
RTVSPost2010PropOp46
 70
     1
102
RTVSPost2010Prop47
 90
       50
102
RTVSPost2010PropOp47
 70
     1
102
RTVSPost2010Prop48
 90
       50
102
RTVSPost2010PropOp48
 70
     1
102
RTVSPost2010Prop49
280
     0
102
RTVSPost2010PropOp49
 70
     1
102
RTVSPost2010Prop50
 90
       50
102
RTVSPost2010PropOp50
 70
     1
102
RTVSPost2010Prop51ColorIndex
 90
      256
102
RTVSPost2010Prop51ColorRGB
 90
-16777216
102
RTVSPost2010PropOp51
 70
     0
102
RTVSPost2010Prop52
140
1.0
102
RTVSPost2010PropOp52
 70
     0
102
RTVSPost2010Prop53
 90
        2
102
RTVSPost2010PropOp53
 70
     1
102
RTVSPost2010Prop54
  1
strokes_ogs.tif
102
RTVSPost2010PropOp54
 70
     1
102
RTVSPost2010Prop55
280
     0
102
RTVSPost2010PropOp55
 70
     1
102
RTVSPost2010Prop56
140
1.0
102
RTVSPost2010PropOp56
 70
     1
102
RTVSPost2010Prop57
140
1.0
102
RTVSPost2010PropOp57
 70
     1
  0
XRECORD
  5
704
102
{ACAD_REACTORS
330
703
102
}
330
703
100
AcDbXrecord
280
     1
102
RTVSPropertyOp0
 70
     1
102
RTVSPropertyOp1
 70
     1
102
RTVSPropertyOp2
 70
     1
102
RTVSPropertyOp3
 70
     1
102
RTVSPropertyOp4
 70
     1
102
RTVSPropertyOp5
 70
     1
102
RTVSPropertyOp6
 70
     1
102
RTVSPropertyOp7
 70
     1
102
RTVSPropertyOp8
 70
     1
102
RTVSPropertyOp9
 70
     1
102
RTVSPropertyOp10
 70
     1
102
RTVSPropertyOp11
 70
     1
102
RTVSPropertyOp12
 70
     1
102
RTVSPropertyOp13
 70
     1
102
RTVSPropertyOp14
 70
     1
102
RTVSPropertyOp15
 70
     1
102
RTVSPropertyOp16
 70
     1
102
RTVSPropertyOp17
 70
     1
102
RTVSPropertyOp18
 70
     1
102
RTVSPropertyOp19
 70
     1
102
RTVSPropertyOp20
 70
     1
102
RTVSPropertyOp21
 70
     1
102
RTVSPropertyOp22
 70
     1
102
RTVSPropertyOp23
 70
     1
102
RTVSPropertyOp24
 70
     1
102
RTVSPropertyOp25
 70
     1
102
RTVSPropertyOp26
 70
     1
102
RTVSPropertyOp27
 70
     1
102
RTVSPropertyOp28
 70
     1
102
RTVSPropertyOp29
 70
     1
102
RTVSPropertyOp30
 70
     1
102
RTVSPropertyOp31
 70
     1
102
RTVSPropertyOp32
 70
     1
102
RTVSPropertyOp33
 70
     1
102
RTVSPropertyOp34
 70
     1
102
RTVSPropertyOp35
 70
     1
102
RTVSPropertyOp36
 70
     1
102
RTVSPropertyOp37
 70
     1
102
RTVSPropertyOp38
 70
     1
102
RTVSPropertyOp39
 70
     1
102
RTVSPropertyOp40
 70
     1
102
RTVSPropertyOp41
 70
     1
102
RTVSPropertyOp42
 70
     1
102
RTVSPropertyOp43
 70
     1
102
RTVSPropertyOp44
 70
     1
102
RTVSPropertyOp45
 70
     1
102
RTVSPropertyOp46
 70
     1
102
RTVSPropertyOp47
 70
     1
102
RTVSPropertyOp48
 70
     1
102
RTVSPropertyOp49
 70
     1
102
RTVSPropertyOp50
 70
     1
102
RTVSPropertyOp51
 70
     0
102
RTVSPropertyOp52
 70
     0
102
RTVSPropertyOp53
 70
     1
102
RTVSPropertyOp54
 70
     1
102
RTVSPropertyOp55
 70
     1
102
RTVSPropertyOp56
 70
     1
102
RTVSPropertyOp57
 70
     1
102
RTVSPost2010Prop28
280
     0
102
RTVSPost2010PropOp28
 70
     1
102
RTVSPost2010Prop29
280
     1
102
RTVSPost2010PropOp29
 70
     1
102
RTVSPost2010Prop30
280
     1
102
RTVSPost2010PropOp30
 70
     1
102
RTVSPost2010Prop31
280
     0
102
RTVSPost2010PropOp31
 70
     1
102
RTVSPost2010Prop32
280
     0
102
RTVSPost2010PropOp32
 70
     1
102
RTVSPost2010Prop33
280
     0
102
RTVSPost2010PropOp33
 70
     1
102
RTVSPost2010Prop34
280
     0
102
RTVSPost2010PropOp34
 70
     1
102
RTVSPost2010Prop35
280
     0
102
RTVSPost2010PropOp35
 70
     1
102
RTVSPost2010Prop36
280
     0
102
RTVSPost2010PropOp36
 70
     1
102
RTVSPost2010Prop37
 90
       50
102
RTVSPost2010PropOp37
 70
     1
102
RTVSPost2010Prop38
140
0.0
102
RTVSPost2010PropOp38
 70
     1
102
RTVSPost2010Prop39
140
1.0
102
RTVSPost2010PropOp39
 70
     1
102
RTVSPost2010Prop40
 90
        0
102
RTVSPost2010PropOp40
 70
     1
102
RTVSPost2010Prop41ColorIndex
 90
       18
102
RTVSPost2010Prop41ColorRGB
 90
        0
102
RTVSPost2010PropOp41
 70
     1
102
RTVSPost2010Prop42
 90
       50
102
RTVSPost2010PropOp42
 70
     1
102
RTVSPost2010Prop43
 90
        3
102
RTVSPost2010PropOp43
 70
     1
102
RTVSPost2010Prop44ColorIndex
 90
        5
102
RTVSPost2010Prop44ColorRGB
 90
      255
102
RTVSPost2010PropOp44
 70
     1
102
RTVSPost2010Prop45
280
     0
102
RTVSPost2010PropOp45
 70
     1
102
RTVSPost2010Prop46
 90
       50
102
RTVSPost2010PropOp46
 70
     1
102
RTVSPost2010Prop47
 90
       50
102
RTVSPost2010PropOp47
 70
     1
102
RTVSPost2010Prop48
 90
       50
102
RTVSPost2010PropOp48
 70
     1
102
RTVSPost2010Prop49
280
     0
102
RTVSPost2010PropOp49
 70
     1
102
RTVSPost2010Prop50
 90
       50
102
RTVSPost2010PropOp50
 70
     1
102
RTVSPost2010Prop51ColorIndex
 90
      256
102
RTVSPost2010Prop51ColorRGB
 90
-16777216
102
RTVSPost2010PropOp51
 70
     0
102
RTVSPost2010Prop52
140
1.0
102
RTVSPost2010PropOp52
 70
     0
102
RTVSPost2010Prop53
 90
        2
102
RTVSPost2010PropOp53
 70
     1
102
RTVSPost2010Prop54
  1
strokes_ogs.tif
102
RTVSPost2010PropOp54
 70
     1
102
RTVSPost2010Prop55
280
     0
102
RTVSPost2010PropOp55
 70
     1
102
RTVSPost2010Prop56
140
1.0
102
RTVSPost2010PropOp56
 70
     1
102
RTVSPost2010Prop57
140
1.0
102
RTVSPost2010PropOp57
 70
     1
  0
XRECORD
  5
6EE
102
{ACAD_REACTORS
330
6ED
102
}
330
6ED
100
AcDbXrecord
280
     1
102
RTVSPropertyOp0
 70
     1
102
RTVSPropertyOp1
 70
     1
102
RTVSPropertyOp2
 70
     1
102
RTVSPropertyOp3
 70
     1
102
RTVSPropertyOp4
 70
     1
102
RTVSPropertyOp5
 70
     1
102
RTVSPropertyOp6
 70
     1
102
RTVSPropertyOp7
 70
     1
102
RTVSPropertyOp8
 70
     1
102
RTVSPropertyOp9
 70
     1
102
RTVSPropertyOp10
 70
     1
102
RTVSPropertyOp11
 70
     1
102
RTVSPropertyOp12
 70
     1
102
RTVSPropertyOp13
 70
     1
102
RTVSPropertyOp14
 70
     1
102
RTVSPropertyOp15
 70
     1
102
RTVSPropertyOp16
 70
     1
102
RTVSPropertyOp17
 70
     1
102
RTVSPropertyOp18
 70
     1
102
RTVSPropertyOp19
 70
     1
102
RTVSPropertyOp20
 70
     1
102
RTVSPropertyOp21
 70
     1
102
RTVSPropertyOp22
 70
     1
102
RTVSPropertyOp23
 70
     1
102
RTVSPropertyOp24
 70
     1
102
RTVSPropertyOp25
 70
     1
102
RTVSPropertyOp26
 70
     1
102
RTVSPropertyOp27
 70
     1
102
RTVSPropertyOp28
 70
     1
102
RTVSPropertyOp29
 70
     1
102
RTVSPropertyOp30
 70
     1
102
RTVSPropertyOp31
 70
     1
102
RTVSPropertyOp32
 70
     1
102
RTVSPropertyOp33
 70
     1
102
RTVSPropertyOp34
 70
     1
102
RTVSPropertyOp35
 70
     1
102
RTVSPropertyOp36
 70
     1
102
RTVSPropertyOp37
 70
     1
102
RTVSPropertyOp38
 70
     1
102
RTVSPropertyOp39
 70
     1
102
RTVSPropertyOp40
 70
     1
102
RTVSPropertyOp41
 70
     1
102
RTVSPropertyOp42
 70
     1
102
RTVSPropertyOp43
 70
     1
102
RTVSPropertyOp44
 70
     1
102
RTVSPropertyOp45
 70
     1
102
RTVSPropertyOp46
 70
     1
102
RTVSPropertyOp47
 70
     1
102
RTVSPropertyOp48
 70
     1
102
RTVSPropertyOp49
 70
     1
102
RTVSPropertyOp50
 70
     1
102
RTVSPropertyOp51
 70
     0
102
RTVSPropertyOp52
 70
     0
102
RTVSPropertyOp53
 70
     1
102
RTVSPropertyOp54
 70
     1
102
RTVSPropertyOp55
 70
     1
102
RTVSPropertyOp56
 70
     1
102
RTVSPropertyOp57
 70
     1
102
RTVSPost2010Prop28
280
     0
102
RTVSPost2010PropOp28
 70
     1
102
RTVSPost2010Prop29
280
     1
102
RTVSPost2010PropOp29
 70
     1
102
RTVSPost2010Prop30
280
     1
102
RTVSPost2010PropOp30
 70
     1
102
RTVSPost2010Prop31
280
     0
102
RTVSPost2010PropOp31
 70
     1
102
RTVSPost2010Prop32
280
     0
102
RTVSPost2010PropOp32
 70
     1
102
RTVSPost2010Prop33
280
     0
102
RTVSPost2010PropOp33
 70
     1
102
RTVSPost2010Prop34
280
     0
102
RTVSPost2010PropOp34
 70
     1
102
RTVSPost2010Prop35
280
     0
102
RTVSPost2010PropOp35
 70
     1
102
RTVSPost2010Prop36
280
     0
102
RTVSPost2010PropOp36
 70
     1
102
RTVSPost2010Prop37
 90
       50
102
RTVSPost2010PropOp37
 70
     1
102
RTVSPost2010Prop38
140
0.0
102
RTVSPost2010PropOp38
 70
     1
102
RTVSPost2010Prop39
140
1.0
102
RTVSPost2010PropOp39
 70
     1
102
RTVSPost2010Prop40
 90
        0
102
RTVSPost2010PropOp40
 70
     1
102
RTVSPost2010Prop41ColorIndex
 90
       18
102
RTVSPost2010Prop41ColorRGB
 90
        0
102
RTVSPost2010PropOp41
 70
     1
102
RTVSPost2010Prop42
 90
       50
102
RTVSPost2010PropOp42
 70
     1
102
RTVSPost2010Prop43
 90
        3
102
RTVSPost2010PropOp43
 70
     1
102
RTVSPost2010Prop44ColorIndex
 90
        5
102
RTVSPost2010Prop44ColorRGB
 90
      255
102
RTVSPost2010PropOp44
 70
     1
102
RTVSPost2010Prop45
280
     0
102
RTVSPost2010PropOp45
 70
     1
102
RTVSPost2010Prop46
 90
       50
102
RTVSPost2010PropOp46
 70
     1
102
RTVSPost2010Prop47
 90
       50
102
RTVSPost2010PropOp47
 70
     1
102
RTVSPost2010Prop48
 90
       50
102
RTVSPost2010PropOp48
 70
     1
102
RTVSPost2010Prop49
280
     0
102
RTVSPost2010PropOp49
 70
     1
102
RTVSPost2010Prop50
 90
       50
102
RTVSPost2010PropOp50
 70
     1
102
RTVSPost2010Prop51ColorIndex
 90
      256
102
RTVSPost2010Prop51ColorRGB
 90
-16777216
102
RTVSPost2010PropOp51
 70
     0
102
RTVSPost2010Prop52
140
1.0
102
RTVSPost2010PropOp52
 70
     0
102
RTVSPost2010Prop53
 90
        2
102
RTVSPost2010PropOp53
 70
     1
102
RTVSPost2010Prop54
  1
strokes_ogs.tif
102
RTVSPost2010PropOp54
 70
     1
102
RTVSPost2010Prop55
280
     0
102
RTVSPost2010PropOp55
 70
     1
102
RTVSPost2010Prop56
140
1.0
102
RTVSPost2010PropOp56
 70
     1
102
RTVSPost2010Prop57
140
1.0
102
RTVSPost2010PropOp57
 70
     1
  0
XRECORD
  5
716
102
{ACAD_REACTORS
330
715
102
}
330
715
100
AcDbXrecord
280
     1
102
RTVSPropertyOp0
 70
     1
102
RTVSPropertyOp1
 70
     1
102
RTVSPropertyOp2
 70
     1
102
RTVSPropertyOp3
 70
     1
102
RTVSPropertyOp4
 70
     1
102
RTVSPropertyOp5
 70
     1
102
RTVSPropertyOp6
 70
     1
102
RTVSPropertyOp7
 70
     1
102
RTVSPropertyOp8
 70
     1
102
RTVSPropertyOp9
 70
     1
102
RTVSPropertyOp10
 70
     1
102
RTVSPropertyOp11
 70
     1
102
RTVSPropertyOp12
 70
     1
102
RTVSPropertyOp13
 70
     1
102
RTVSPropertyOp14
 70
     1
102
RTVSPropertyOp15
 70
     1
102
RTVSPropertyOp16
 70
     1
102
RTVSPropertyOp17
 70
     1
102
RTVSPropertyOp18
 70
     1
102
RTVSPropertyOp19
 70
     1
102
RTVSPropertyOp20
 70
     1
102
RTVSPropertyOp21
 70
     1
102
RTVSPropertyOp22
 70
     1
102
RTVSPropertyOp23
 70
     1
102
RTVSPropertyOp24
 70
     1
102
RTVSPropertyOp25
 70
     1
102
RTVSPropertyOp26
 70
     1
102
RTVSPropertyOp27
 70
     1
102
RTVSPropertyOp28
 70
     1
102
RTVSPropertyOp29
 70
     1
102
RTVSPropertyOp30
 70
     1
102
RTVSPropertyOp31
 70
     1
102
RTVSPropertyOp32
 70
     1
102
RTVSPropertyOp33
 70
     1
102
RTVSPropertyOp34
 70
     1
102
RTVSPropertyOp35
 70
     1
102
RTVSPropertyOp36
 70
     1
102
RTVSPropertyOp37
 70
     1
102
RTVSPropertyOp38
 70
     1
102
RTVSPropertyOp39
 70
     1
102
RTVSPropertyOp40
 70
     1
102
RTVSPropertyOp41
 70
     1
102
RTVSPropertyOp42
 70
     1
102
RTVSPropertyOp43
 70
     1
102
RTVSPropertyOp44
 70
     1
102
RTVSPropertyOp45
 70
     1
102
RTVSPropertyOp46
 70
     1
102
RTVSPropertyOp47
 70
     1
102
RTVSPropertyOp48
 70
     1
102
RTVSPropertyOp49
 70
     1
102
RTVSPropertyOp50
 70
     1
102
RTVSPropertyOp51
 70
     0
102
RTVSPropertyOp52
 70
     0
102
RTVSPropertyOp53
 70
     1
102
RTVSPropertyOp54
 70
     1
102
RTVSPropertyOp55
 70
     1
102
RTVSPropertyOp56
 70
     1
102
RTVSPropertyOp57
 70
     1
102
RTVSPost2010Prop28
280
     0
102
RTVSPost2010PropOp28
 70
     1
102
RTVSPost2010Prop29
280
     1
102
RTVSPost2010PropOp29
 70
     1
102
RTVSPost2010Prop30
280
     1
102
RTVSPost2010PropOp30
 70
     1
102
RTVSPost2010Prop31
280
     0
102
RTVSPost2010PropOp31
 70
     1
102
RTVSPost2010Prop32
280
     0
102
RTVSPost2010PropOp32
 70
     1
102
RTVSPost2010Prop33
280
     0
102
RTVSPost2010PropOp33
 70
     1
102
RTVSPost2010Prop34
280
     0
102
RTVSPost2010PropOp34
 70
     1
102
RTVSPost2010Prop35
280
     0
102
RTVSPost2010PropOp35
 70
     1
102
RTVSPost2010Prop36
280
     0
102
RTVSPost2010PropOp36
 70
     1
102
RTVSPost2010Prop37
 90
       50
102
RTVSPost2010PropOp37
 70
     1
102
RTVSPost2010Prop38
140
0.0
102
RTVSPost2010PropOp38
 70
     1
102
RTVSPost2010Prop39
140
1.0
102
RTVSPost2010PropOp39
 70
     1
102
RTVSPost2010Prop40
 90
        0
102
RTVSPost2010PropOp40
 70
     1
102
RTVSPost2010Prop41ColorIndex
 90
       18
102
RTVSPost2010Prop41ColorRGB
 90
        0
102
RTVSPost2010PropOp41
 70
     1
102
RTVSPost2010Prop42
 90
       50
102
RTVSPost2010PropOp42
 70
     1
102
RTVSPost2010Prop43
 90
        3
102
RTVSPost2010PropOp43
 70
     1
102
RTVSPost2010Prop44ColorIndex
 90
        5
102
RTVSPost2010Prop44ColorRGB
 90
      255
102
RTVSPost2010PropOp44
 70
     1
102
RTVSPost2010Prop45
280
     0
102
RTVSPost2010PropOp45
 70
     1
102
RTVSPost2010Prop46
 90
       50
102
RTVSPost2010PropOp46
 70
     1
102
RTVSPost2010Prop47
 90
       50
102
RTVSPost2010PropOp47
 70
     1
102
RTVSPost2010Prop48
 90
       50
102
RTVSPost2010PropOp48
 70
     1
102
RTVSPost2010Prop49
280
     0
102
RTVSPost2010PropOp49
 70
     1
102
RTVSPost2010Prop50
 90
       50
102
RTVSPost2010PropOp50
 70
     1
102
RTVSPost2010Prop51ColorIndex
 90
      256
102
RTVSPost2010Prop51ColorRGB
 90
-16777216
102
RTVSPost2010PropOp51
 70
     0
102
RTVSPost2010Prop52
140
1.0
102
RTVSPost2010PropOp52
 70
     0
102
RTVSPost2010Prop53
 90
        2
102
RTVSPost2010PropOp53
 70
     1
102
RTVSPost2010Prop54
  1
strokes_ogs.tif
102
RTVSPost2010PropOp54
 70
     1
102
RTVSPost2010Prop55
280
     0
102
RTVSPost2010PropOp55
 70
     1
102
RTVSPost2010Prop56
140
1.0
102
RTVSPost2010PropOp56
 70
     1
102
RTVSPost2010Prop57
140
1.0
102
RTVSPost2010PropOp57
 70
     1
  0
ENDSEC
  0
SECTION
  2
THUMBNAILIMAGE
 90
    16364
310
28000000B4000000550000000100080000000000C43B000000000000000000000001000000010000FFFFFF000000FF0000FFFF0000FF0000FFFF0000FF000000FF00FF000000000080808000C0C0C0000000FF007F7FFF000000A5005252A50000007F003F3F7F0000004C0026264C000000260013132600003FFF007F9FFF
310
000029A5005267A500001F7F003F4F7F0000134C00262F4C000009260013172600007FFF007FBFFF000052A500527CA500003F7F003F5F7F0000264C0026394C0000132600131C260000BFFF007FDFFF00007CA5005291A500005F7F003F6F7F0000394C0026424C00001C26001321260000FFFF007FFFFF0000A5A50052A5
310
A500007F7F003F7F7F00004C4C00264C4C00002626001326260000FFBF007FFFDF0000A57C0052A59100007F5F003F7F6F00004C3900264C420000261C001326210000FF7F007FFFBF0000A5520052A57C00007F3F003F7F5F00004C2600264C39000026130013261C0000FF3F007FFF9F0000A5290052A56700007F1F003F
310
7F4F00004C1300264C2F00002609001326170000FF00007FFF7F0000A5000052A55200007F00003F7F3F00004C0000264C260000260000132613003FFF00009FFF7F0029A5000067A552001F7F00004F7F3F00134C00002F4C260009260000172613007FFF0000BFFF7F0052A500007CA552003F7F00005F7F3F00264C0000
310
394C2600132600001C261300BFFF0000DFFF7F007CA5000091A552005F7F00006F7F3F00394C0000424C26001C26000021261300FFFF0000FFFF7F00A5A50000A5A552007F7F00007F7F3F004C4C00004C4C26002626000026261300FFBF0000FFDF7F00A57C0000A59152007F5F00007F6F3F004C3900004C422600261C00
310
0026211300FF7F0000FFBF7F00A5520000A57C52007F3F00007F5F3F004C2600004C39260026130000261C1300FF3F0000FF9F7F00A5290000A56752007F1F00007F4F3F004C1300004C2F26002609000026171300FF000000FF7F7F00A5000000A55252007F0000007F3F3F004C0000004C2626002600000026131300FF00
310
3F00FF7F9F00A5002900A55267007F001F007F3F4F004C0013004C262F002600090026131700FF007F00FF7FBF00A5005200A5527C007F003F007F3F5F004C0026004C2639002600130026131C00FF00BF00FF7FDF00A5007C00A55291007F005F007F3F6F004C0039004C26420026001C0026132100FF00FF00FF7FFF00A5
310
00A500A552A5007F007F007F3F7F004C004C004C264C002600260026132600BF00FF00DF7FFF007C00A5009152A5005F007F006F3F7F0039004C0042264C001C002600211326007F00FF00BF7FFF005200A5007C52A5003F007F005F3F7F0026004C0039264C00130026001C1326003F00FF009F7FFF002900A5006752A500
310
1F007F004F3F7F0013004C002F264C000900260017132600000000002D2D2D005B5B5B0089898900B7B7B700B3B3B30000000000000000000000000000000000000000000000000000000000000000000000000000000000000000000000000000000000000000000000000000000000000000000000000000000000000000
310
00000000000000000000000000000000000000000000000000000000000000000000000000000000000000000000000000000000000000000000000000000000000000000000000000000000000000000000000000000000000000000000000000000000000000000000000000000000000000000000000000000000000000
310
00000000000000000000000000000000000000000000000000000000000000000000000000000000000000000000000000000000000000000000000000000000000000000000000000000000000000000000000000000000000000000000000000000000000000000000000000000000000000000000000000000000000000
310
00000000000000000000000000000000000000000000000000000000000000000000000000000000000000000000000000000000000000000000000000000000000000000000000000000000000000000000000000000000000000000000000000000000000000000000000000000000000000000000000000000000000000
310
00000000000000000000000000000000000000000000000000000000000000000000000000000000000000000000000000000000000000000000000000000000000000000000000000000000000000000000000000000000000000000000000000000000000000000000000000000000000000000000000000000000000000
310
00000000000000000000000000000000000000000000000000000000000000000000000000000000000000000000000000000000000000000000000000000000000000000000000000000000000000000000000000000000000000000000000000000000000000000000000000000000000000000000000000000000000000
310
00000000000000000000000000000000000000000000000000000000000000000000000000000000000000000000000000000000000000000000000000000000000000000000000000000000000000000000000000000000000000000000000000000000000000000000000000000000000000000000000000000000000000
310
00000000000000000000000000000000000000000000000000000000000000000000000000000000000000000000000000000000000000000000000000000000000000000000000000000000000000000000000000000000000000000000000000000000000000000000000000000000000000000000000000000000000000
310
00000000000000000000000000000000000000000000000000000000000000000000000000000000000000000000000000000000000000000000000000000000000000000000000000000000000000000000000000000000000000000000000000000000000000000000000000000000000000000000000000000000000000
310
00000000000000000000000000000000000000000000000000000000000000000000000000000000000000000000000000000000000000000000000000000000000000000000000000000000000000000000000000000000000000000000000000000000000000000000000000000000000000000000000000000000000000
310
00000000000000000000000000000000000000000000000000000000000000000000000000000000000000000000000000000000000000000000000000000000000000000000000000000000000000000000000000000000000000000000000000000000000000000000000000000000000000000000000000000000000000
310
00000000000000000000000000000000000000000000000000000000000000000000000000000000000000000000000000000000000000000000000000000000000000000000000000000000000000000000000000000000000000000000000000000000000000000000000000000000000000000003030103030303000000
310
00000000000000000003030303010303000000000000000002020202020200000000000003010303030303030000000000000000000000000003030303030303030000000000000000000000000000000000000000000000000000000000000000000000000000000000000000000000000000000000000000000000000000
310
00000000000000000000000000000000000000000000000000000000000000000000000000000000000000030001000000030001000000010100010000010300000001000300000000000000000202020202020000000000000301000000000003000001010100010001000100000300000003030303000000000000000000
310
00000000000000000000000000000000000000000000000000000000000000000000000000000000000000000000000000000000000000000000000000000000000000000000000000000000000000000000000000000000000000000000000303030103030303030303030301030301030303030303030103030300000000
310
00000000000000000000000000000003010303030303030303010101030103010301030303030303030303030000000000000000000000000000000000000000000000000000000000000000000000000000000000000000000000000000000000000000000000000000000000000000000000000000000000000000000000
310
00000000000000000000000000000000000000000303030303030303030301030303010303010303010303030303030303030000000000000000000000000000000000000303030303030303030301010101010301030103030303030303000300000000000000000000000000000000000000000000000000000000000000
310
00000000000000000000000000000000000000000000000000000000000000000000000000000000000000000000000000000000000000000000000000000000000000000000000001030100000000000003000100000000010000000001030000000000000101010000000000000000000000000000000000030300000000
310
00000000000000010100000003030301010303030003000000000000000000000000000000000000000000000000000000000000000000000000000000000000000000000000000000000000000000000000000000000000000000000000000000000000000000000000000000000000000000000000000000000000000003
310
03000000000000030001000000000100000000010300000000000003030303030303000000000000000000000000000303000000000000000000000001010000000303010303030303030300000000000000000000000000000000000000000000000000000000000000000000000000000000000000000000000000000000
310
00000000000000000000000000000000000000000000000000000000000000000000000000000000000000000000000000000000030301010101010103010101010101010101010101030101010101010303030101010300000000000000000000000000030300000000000000000000000101000000030103030303030300
310
03000000000000000000000000000000000000000000000000000000000000000000000000000000000000000000000000000000000000000000000000000000000000000000000000000000000000000000000000000000000000000000000000000000000000000003030000000000000000010000000001000000000100
310
00000000000003030303030303000000000000000000000000000300000000000000000000000001010000000301030303030300000300000000000000000000000000000000000000000000000000000000000000000000000000000000000000000000000000000000000000000000000000000000000000000000000000
310
00000000000000000000000000000000000000000000000000000000000001010100000000000000000100000000010000000001000000000000000101010000000000000000000000000000000000030000000000000000000000000101000000030303030301030000030000000000000000000000000000000000000000
310
00000000000000000000000000000000000000000000000000000000000000000000000000000000000000000000000000000000000000000000000000000000000000000000000000000000000000000000000003030000000000000000010000000001000000000100000000000000030300000000000000000000000000
310
00000000000300000000000000000000000001010000000303030303030300000300000000000000000000000000000000000000000000000000000000000000000000000000000000000000000000000000000000000000000000000000000000000000000000000000000000000000000000000000000000000000000000
310
00000000000000000000000300000000000000000100000000010000000001000000000000000300000000000000000000000000000000000000030000000000000000000000000101000000000000010000000001030000000000000000000000000000000000000000000000000000000000000000000000000000000000
310
00000000000000000000000000000000000000000000000000000000000000000000000000000000000000000000000000000000000000000000000000000000030000000000000000010000000001000000000100000000000000030000000000000000000000000000000000000003000000000000000000000000010100
310
00000000000000000000000300000000000000000000000000000000000000000000000000000000000000000000000000000000000000000000000000000000000000000000000000000000000000000000000000000000000000000000000000000000000000000000000000000000000000000003010303030103030301
310
03030303030303030301030301030303010300000000000000000000000000000000000000030103030301030303030303030101030303030303030103030301030000000000000000000000000000000000000000000000000000000000000000000000000000000000000000000000000000000000000000000000000000
310
00000000000000000000000000000000000000000000000000000000000000000000000000000000000000030303030303010303030303030303030103030103010103030303030000000000000000000000000000000000000003010303030103030303010101030303010301030303010303030103000000000000000000
310
00000000000000000000000000000000000000000000000000000000000000000000000000000000000000000000000000000000000000000000000000000000000000000000000000000000000000000000000000000000000000000000000000030303030301030303030303030303010303030301010303030300000000
310
00000000000000000000000000000000030103030301030303030303030303030303030303030103030301000000000000000000000000000000000000000000000000000000000000000000000000000000000000000000000000000000000000000000000000000000000000000000000000000000000000000000000000
310
00000000000000000000000000000000000000000000000000000003030303030303030303030103030303010300000000000000000000000000000000000000000000000000000101010101000003030303030103030303000001010101010000000000000000000000000000000000000000000000000000000000000000
310
00000000000000000000000000000000000000000000000000000000000000000000000000000000000000000000000000000000000000000000000000000000000000000000000000000000000000000000000303030300030300000000000000000000000000000000000000000000000000000000000000000000030303
310
03000000000000030001030000000000030303030000000000000000000000000000000000000000000000000000000000000000000000000000000000000000000000000000000000000000000000000000000000000000000000000000000000000000000000000000000000000000000000000000000000000000000000
310
00000000000000000003030303000303000000000000000000000000000000000000000000000000000000000000000000000003030300000000000003000103000000000000030303000000000000000000000000000000000000000000000000000000000000000000000000000000000000000000000000000000000000
310
00000000000000000000000000000000000000000000000000000000000000000000000000000000000000000000000000000000000000000000000000000303030300000000000000000000000000000000000000000000000000000000000000000000000000000000000000000000000300010300000000000000000000
310
00000000000000000000000000000000000000000000000000000000000000000000000000000000000000000000000000000000000000000000000000000000000000000000000000000000000000000000000000000000000000000000000000000000000000000000000000000000000000030303030000000000000000
310
00000000000000000000000000000000000000000000000000000000000000000000000000000003000103000000000000000000000000000000000000000000000000000000000000000000000000000000000000000000000000000000000000000000000000000000000000000000000000000000000000000000000000
310
00000000000000000000000000000000000000000000000000000000000000000000000000000000000303030300000000000000000000000000000000000000000000000000000000000000000000000000000000000000000000000300010300000000000000000000000000000000000000000000000000000000000000
310
00000000000000000000000000000000000000000000000000000000000000000000000000000000000000000000000000000000000000000000000000000000000000000000000000000000000000000000000000000000000000000000030303030000000000000000000000000000000000000000000000000000000000
310
00000000000000000000000000000000000003030103000000000000000000000000000000000000000000000000000000000000000000000000000000000000000000000000000000000000000000000000000000000000000000000000000000000000000000000000000000000000000000000000000000000000000000
310
00000000000000000000000000000000000000000001000000000000000000000000000000000000000000000000000000000000000000000000000000000000000000000000000000010000000000000000000000000000000000000000000000000000000000000000000000000000000000000000000000000000000000
310
00000000000000000000000000000000000000000000000000000000000000000000000000000000000000000000000000000000000000000000000000000000000000000000000000000000000000000000000000000000000000000000000000000000000000000000000000000000000000000000000000000000000000
310
00000000000000000000000000000000000000000000000000000000000000000000000000000000000000000000000000000000000000000000000000000000000000000000000000000000000000000000000000000000000000000000000000000000000000000000000000000000000000000000000000000000000000
310
00000000000000000000000000000000000000000000000000000000000000000000000000000000000000000000000000000000000000000000000000000000000000000000000000000000000000000000000000000000000000000000000000000000000000000000000000000000000000000000000000000000000000
310
00000000000000000000000000000000000000000000000000000000000000000000000000000000000000000000000000000000000000000000000000000000000000000000000000000000000000000000000000000000000000000000000000000000000000000000000000000000000000000000000000000000000000
310
00000000000000000000000000000000000000000000000000000000000000000000000000000000000000000000000000000000000000000000000000000000000000000000000000000000000000000000000000000000000000000000000000000000000000000000000000000000000000000000000000000000000000
310
00000000000000000000000000000000000000000000000000000000000000000000000000000000000000000000000000000000000000000000000000000000000000000000000000000000000000000000000000000000000000000000000000000000000000000000000000000000000000000000000000000000000000
310
00000000000000000000000000000000000000000000000000000000000000000000000000000000000000000000000000000000000000000000000000000000000000000000000000000000000000000000000000000000000000000000000000000000000000000000000000000000000000000000000000000000000000
310
00000000000000000000000000000000000000000000000000000000000000000000000000000000000000000000000000000000000000000000000000000000000000000000000000000000000000000000000000000000000000000000000000000000000000000000000000000000000000000000000000000000000000
310
00000000000000000000000000000000000000000000000000000000000000000000000000000000000000000000000000000000000000000000000000000000000000000000000000000000000000000000000000000000000000000000000000000000000000000000000000000000000000000000000000000000000000
310
00000000000000000000000000000000000000000000000000000000000000000000000000000000000000000000000000000000000000000000000000000000000000000000000000000000000000000000000000000000000000000000000000000000000000000000000000000000000000000000000000000000000000
310
00000000000000000000000000000000000000000000000000000000000000000000000000000000000000000000000000000000000000000000000000000000000000000000000000000000000000000000000000000000000000000000000000000000000000000000000000000000000000000000000000000000000000
310
00000000000000000000000000000000000000000000000000000000000000000000000000000000000000000000000000000000000000000000000000000000000000000000000000000000000000000000000000000000000000000000000000000000000000000000000000000000000000000000000000000000000000
310
00000000000000000000000000000000000000000000000000000000000000000000000000000000000000000000000000000000000000000000000000000000000000000000000000000000000000000000000000000000000000000000000000000000000000000000000000000000000000000000000000000000000000
310
00000000000000000000000000000000000000000000000000000000000000000000000000000000000000000000000000000000000000000000000000000000000000000000000000000000000000000000000000000000000000000000000000000000000000000000000000000000000000000000000000000000000000
310
00000000000000000000000000000000000000000000000000000000000000000000000000000000000000000000000000000000000000000000000000000000000000000000000000000000000000000000000000000000000000000000000000000000000000000000000000000000000000000000000000000000000000
310
00000000000000000000000000000000000000000000000000000000000000000000000000000000000000000000000000000000000000000000000000000000000000000000000000000000000000000000000000000000000000000000000000000000000000000000000000000000000000000000000000000000000000
310
00000000000000000000000000000000000000000000000000000000000000000000000000000000000000000000000000000000000000000000000000000000000000000000000000000000000000000000000000000000000000000000000000000000000000000000000000000000000000000000000000000000000000
310
00000000000000000000000000000000000000000000000000000000000000000000000000000000000000000000000000000000000000000000000000000000000000000000000000000000000000000000000000000000000000000000000000000000000000000000000000000000000000000000000000000000000000
310
00000000000000000000000000000000000000000000000000000000000000000000000000000000000000000000000000000000000000000000000000000000000000000000000000000000000000000000000000000000000000000000000000000000000000000000000000000000000000000000000000000000000000
310
00000000000000000000000000000000000000000000000000000000000000000000000000000000000000000000000000000000000000000000000000000000000000000000000000000000000000000000000000000000000000000000000000000000000000000000000000000000000000000000000000000000000000
310
00000000000000000000000000000000000000000000000000000000000000000000000000000000000000000000000000000000000000000000000100000000000000000000000000000000000000000000000000000000000000000000000000000000000000000000000000000000000000000000000000000000000000
310
00000000000000000000000000000000000000000000000000000000000000000000000000000000000000000000000000000000000000000000000000000000000000000000000000000000000000000000000000000000000000000000000000000003030103030303000303030303030303030300030303030103030000
310
00000000000000000000000000000000000000000000000000000000000000000000000000000000000000000000000000000000000000000000000000000000000000000000000000000000000000000000000000000000000000000000000000000000000000000000000000000000000000000000000000000000000000
310
00000000000000000000000000000000000000000000000000030101010000030303010101030301010103030300000101010300000000000000000000000000000000000000000000000000000000000000000000000000000000000000000000000000000000000000000000000000000000000000000000000000000000
310
00000000000000000000000000000000000000000000000000000000000000000000000000000000000000000000000000000000000000000000000000000000000000000000000000000000000003000100030301010103030303030303030101010303000100030000000000000000000000000000000000000000000000
310
00000000000000000000000000000000000000000000000000000000000000000000000000000000000000000000000000000000000000000000000000000000000000000000000000000000000000000000000000000000000000000000000000000000000000000000000000000000000000000000000000000000000000
310
00000000030001030001010303030300030300030303030101000301000300000000000000000000000000000000000000000000000000000000000000000000000000000000000000000000000000000000000000000000000000000000000000000000000000000000000000000000000000000000000000000000000000
310
00000000000000000000000000000000000000000000000000000000000000000000000000000000000000000000000000000000000000000003000303030100030000000103030100000003000103030300030000000000000000000000000000000000000000000000000000000000000000000000000000000000000000
310
00000000000000000000000000000000000000000000000000000000000000000000000000000000000000000000000000000000000000000000000000000000000000000000000000000000000000000000000000000000000000000000000000000000000000000000000000000300030303000300000000000303000000
310
00000300030300030300000000000000000000000000000000000000000000000000000000000000000000000000000000000000000000000000000000000000000000000000000000000000000000000000000000000000000000000000000000000000000000000000000000000000000000000000000000000000000000
310
00000000000000000000000000000000000000000000000000000000000000000000000003000101030300000000000003030000000000000303010103030000000000000000000000000000000000000000000000000000000000000000000000000000000000000000000000000000000000000000000000000000000000
310
00000000000000000000000000000000000000000000000000000000000000000000000000000000000000000000000000000000000000000000000000000000000000000000000000000000000000000000000000000000000303010300000000000000010303010000000000000003010303000000000000000000000000
310
00000000000000000000000000000000000000000000000000000000000000000000000000000000000000000000000000000000000000000000000000000000000000000000000000000000000000000000000000000000000000000000000000000000000000000000000000000000000000000000000000000000000000
310
00000000000000000000000000000003010303000000000100000003030000000000000000030301030000000000000000000000000000000000000000000000000000000000000000000000000000000000000000000000000000000000000000000000000000000000000000000000000000000000000000000000000000
310
00000000000000000000000000000000000000000000000000000000000000000000000000000000000000000000000000000000000000000000000000000000000000000301000300000303030303030001000003030303000000030103000000000000000000000000000000000000000000000000000000000000000000
310
00000000000000000000000000000000000000000000000000000000000000000000000000000000000000000000000000000000000000000000000000000000000000000000000000000000000000000000000000000000000000000000000000000000000000000000000000000000000000000000000000010103000003
310
01010303010300010003010303010300000301010000000000000000000000000000000000000000000000000000000000000000000000000000000000000000000000000000000000000000000000000000000000000000000000000000000000000000000000000000000000000000000000000000000000000000000000
310
00000000000000000000000000000000000000000000000000000000000000000000000000000000000000000000030103030001030103030300010303010303030303030300030301030000000000000000000000000000000000000000000000000000000000000000000000000000000000000000000000000000000000
310
00000000000000000000000000000000000000000000000000000000000000000000000000000000000000000000000000000000000000000000000000000000000000000000000000000000000000000000000000000000000000000000000000000003010303000303000303030300030303030300010303030000030103
310
00000000000000000000000000000000000000000000000000000000000000000000000000000000000000000000000000000000000000000000000000000000000000000000000000000000000000000000000000000000000000000000000000000000000000000000000000000000000000000000000000000000000000
310
00000000000000000000000000000000000000000000000001030303010103010303010103030103030103010101030301010303030100000000000000000000000000000000000000000000000000000000000000000000000000000000000000000000000000000000000000000000000000000000000000000000000000
310
00000000000000000000000000000000000000000000000000000000000000000000000000000000000000000000000000000000000000000000000000000000000000000000000000000000000003030300010301030301010303010303030300010303030000030303000000000000000000000000000000000000000000
310
00000000000000000000000000000000000000000000000000000000000000000000000000000000000000000000000000000000000000000000000000000000000000000000000000000000000000000000000000000000000000000000000000000000000000000000000000000000000000000000000000000000000000
310
00000000030103030003030303030303030303010301030303030100000301030000000000000000000000000000000000000000000000000000000000000000000000000000000000000000000000000000000000000000000000000000000000000000000000000000000000000000000000000000000000000000000000
310
00000000000000000000000000000000000000000000000000000000000000000000000000000000000000000000000000000000000000000003010303000103010303030001030300030303030303000003030103000000000000000000000000000000000000000000000000000000000000000000000000000000000000
310
00000000000000000000000000000000000000000000000000000000000000000000000000000000000000000000000000000000000000000000000000000000000000000000000000000000000000000000000000000000000000000000000000000000000000000000000000000301010300000301010303010303010000
310
00030300000000030101030000000000000000000000000000000000000000000000000000000000000000000000000000000000000000000000000000000000000000000000000000000000000000000000000000000000000000000000000000000000000000000000000000000000000000000000000000000000000000
310
00000000000000000000000000000000000000000000000000000000000000000000000303030103030000030303030303000100000000000000000003010303030000000000000000000000000000000000000000000000000000000000000000000000000000000000000000000000000000000000000000000000000000
310
00000000000000000000000000000000000000000000000000000000000000000000000000000000000000000000000000000000000000000000000000000000000000000000000000000000000000000000000000000001010103010103000000000100000000010000000000000000030101030101010000000000000000
310
00000000000000000000000000000000000000000000000000000000000000000000000000000000000000000000000000000000000000000000000000000000000000000000000000000000000000000000000000000000000000000000000000000000000000000000000000000000000000000000000000000000000000
310
00000000000000000000000000000303000301030300000000000000000100000000000000030301030003030303030303000000000000000000000000000000000000000000000000000000000000000000000000000000000000000000000000000000000000000000000000000000000000000000000000000000000000
310
00000000000000000000000000000000000000000000000000000000000000000000000000000000000000000000000000000000000000000000000000000000000000030301010101010301010101010103030101010101010301010103010303030303030300000000000000000000000000000000000000000000000000
310
00000000000000000000000000000000000000000000000000000000000000000000000000000000000000000000000000000000000000000000000000000000000000000000000000000000000000000000000000000000000000000000000000000000000000000000000000000000000000000000000003030000030303
310
00030000000000030300000000000300030303000003030303030303000000000000000000000000000000000000000000000000000000000000000000000000000000000000000000000000000000000000000000000000000000000000000000000000000000000000000000000000000000000000000000000000000000
310
00000000000000000000000000000000000000000000000000000000000000000000000000000000000000000001010100000001030103030300000103030100000303030103010000000101010000000000000000000000000000000000000000000000000000000000000000000000000000000000000000000000000000
310
00000000000000000000000000000000000000000000000000000000000000000000000000000000000000000000000000000000000000000000000000000000000000000000000000000000000000000000000000000000000000000000000000000003030303030303010101030303030303030303030101010303030303
310
03030000000000000000000000000000000000000000000000000000000000000000000000000000000000000000000000000000000000000000000000000000000000000000000000000000000000000000000000000000000000000000000000000000000000000000000000000000000000000000000000000000000000
310
00000000000000000000000000000000000000000000000000000003000100000003010101010303030303010101030000000100030000000000000000000000000000000000000000000000000000000000000000000000000000000000000000000000000000000000000000000000000000000000000000000000000000
310
00000000000000000000000000000000000000000000000000000000000000000000000000000000000000000000000000000000000000000000000000000000000000000000000000000000000000000301030100000303030301010303010103030303000001030103000000000000000000000000000000000000000000
310
00000000000000000000000000000000000000000000000000000000000000000000000000000000000000000000000000000000000000000000000000000000000000000000000000000000000000000000000000000000000000000000000000000000000000000000000000000000000000000000000000000000000000
310
00000000000003000100000003000000030303030303000000030000000100030000000000000000000000000000000000000000000000000000000000000000000000000000000000000000000000000000000000000000000000000000000000000000000000000000000000000000000000000000000000000000000000
310
00000000000000000000000000000000000000000000000000000000000000000000000000000000000000000000000000000000000000000000000303030303030300000000000001000000000003030303030303000000000000000000000000000000000000000000000000000000000000000000000000000000000000
310
00000000000000000000000000000000000000000000000000000000000000000000000000000000000000000000000000000000000000000000000000000000000000000000000000000000000000000000000000000000000000000000000000000000000000000000000000000000000000000000000000000000000000
310
00000000000000000000000000000000000000000000000000000000000000000000000000000000000000000000000000000000000000000000000000000000000000000000000000000000000000000000000000000000000000000000000000000000000000000000000000000000000000000000000000000000000000
310
00000000000000000000000000000000000000000000000000000000000000000000000000000000000000000000000000000000000000000000000000000000000000000000000000000000000000000000000000000000000000000000000000000000000000000000000000000000000000000000000000000000000000
310
00000000000000000000000000000000000000000000000000000000000000000000000000000000000000000000000000000000000000000000000000000000000000000000000000000000000000000000000000000000000000000000000000000000000000000000000000000000000000000000000000000000000000
310
00000000000000000000000000000000000000000000000000000000000000000000000000000000000000000000000000000000000000000000000000000000000000000000000000000000000000000000000000000000000000000000000000000000000000000000000000000000000000000000000000000000000000
310
00000000000000000000000000000000000000000000000000000000000000000000000000000000000000000000000000000000000000000000000000000000000000000000000000000000000000000000000000000000000000000000000000000000000000000000000000000000000000000000000000000000000000
310
00000000000000000000000000000000000000000000000000000000000000000000000000000000000000000000000000000000000000000000000000000000000000000000000000000000000000000000000000000000000000000000000000000000000000000000000000000000000000000000000000000000000000
310
00000000000000000000000000000000000000000000000000000000000000000000000000000000000000000000000000000000000000000000000000000000000000000000000000000000000000000000000000000000000000000000000000000000000000000000000000000000000000000000000000000000000000
310
00000000000000000000000000000000000000000000000000000000000000000000000000000000000000000000000000000000000000000000000000000000000000000000000000000000000000000000000000000000000000000000000000000000000000000000000000000000000000000000000000000000000000
310
00000000000000000000000000000000000000000000000000000000000000000000000000000000000000000000000000000000000000000000000000000000000000000000000000000000000000000000000000000000000000000000000000000000000000000000000000000000000000000000000000000000000000
310
00000000000000000000000000000000000000000000000000000000000000000000000000000000000000000000000000000000000000000000000000000000000000000000000000000000000000000000000000000000000000000000000000000000000000000000000000000000000000000000000000000000000000
310
00000000000000000000000000000000000000000000000000000000000000000000000000000000000000000000000000000000000000000000000000000000000000000000000000000000000000000000000000000000000000000000000000000000000000000000000000000000000000000000000000000000000000
310
00000000000000000000000000000000000000000000000000000000000000000000000000000000000000000000000000000000000000000000000000000000000000000000000000000000000000000000000000000000000000000000000000000000000000000000000000000000000000000000000000000000000000
310
00000000000000000000000000000000000000000000000000000000000000000000000000000000000000000000000000000000000000000000000000000000000000000000000000000000000000000000000000000000000000000000000000000000000000000000000000000000000000000000000000000000000000
310
000000000000000000000000000000000000000000000000000000000000000000000000000000000000000000000000000000000000000000000000000000000000000000000000000000000000000000000000000000000000000000000000000000000000000000000000
  0
ENDSEC
  0
EOF
