  0
SECTION
  2
HEADER
  9
$ACADVER
  1
AC1015
  9
$ACADMAINTVER
 70
     6
  9
$DWGCODEPAGE
  3
ANSI_932
  9
$INSBASE
 10
2242.452377269216
 20
1355.939648254432
 30
0.0
  9
$EXTMIN
 10
193.6387111413285
 20
21.45623362181141
 30
0.0
  9
$EXTMAX
 10
1945.470769782634
 20
1471.50492742611
 30
0.0
  9
$LIMMIN
 10
0.0
 20
0.0
  9
$LIMMAX
 10
816.5000000000001
 20
565.0
  9
$ORTHOMODE
 70
     1
  9
$REGENMODE
 70
     1
  9
$FILLMODE
 70
     1
  9
$QTEXTMODE
 70
     0
  9
$MIRRTEXT
 70
     1
  9
$LTSCALE
 40
8.0
  9
$ATTMODE
 70
     1
  9
$TEXTSIZE
 40
15.0
  9
$TRACEWID
 40
0.05
  9
$TEXTSTYLE
  7
KANJI
  9
$CLAYER
  8
2
  9
$CELTYPE
  6
BYLAYER
  9
$CECOLOR
 62
   256
  9
$CELTSCALE
 40
1.0
  9
$DISPSILH
 70
     0
  9
$DIMSCALE
 40
5.0
  9
$DIMASZ
 40
2.0
  9
$DIMEXO
 40
0.5
  9
$DIMDLI
 40
0.0
  9
$DIMRND
 40
0.0
  9
$DIMDLE
 40
0.0
  9
$DIMEXE
 40
1.0
  9
$DIMTP
 40
0.0
  9
$DIMTM
 40
0.0
  9
$DIMTXT
 40
3.0
  9
$DIMCEN
 40
0.09
  9
$DIMTSZ
 40
0.0
  9
$DIMTOL
 70
     0
  9
$DIMLIM
 70
     0
  9
$DIMTIH
 70
     0
  9
$DIMTOH
 70
     0
  9
$DIMSE1
 70
     0
  9
$DIMSE2
 70
     0
  9
$DIMTAD
 70
     0
  9
$DIMZIN
 70
     8
  9
$DIMBLK
  1

  9
$DIMASO
 70
     0
  9
$DIMSHO
 70
     0
  9
$DIMPOST
  1

  9
$DIMAPOST
  1

  9
$DIMALT
 70
     0
  9
$DIMALTD
 70
     2
  9
$DIMALTF
 40
25.4
  9
$DIMLFAC
 40
1.0
  9
$DIMTOFL
 70
     1
  9
$DIMTVP
 40
1.0
  9
$DIMTIX
 70
     1
  9
$DIMSOXD
 70
     1
  9
$DIMSAH
 70
     0
  9
$DIMBLK1
  1

  9
$DIMBLK2
  1

  9
$DIMSTYLE
  2
STANDARD
  9
$DIMCLRD
 70
   256
  9
$DIMCLRE
 70
   256
  9
$DIMCLRT
 70
   256
  9
$DIMTFAC
 40
1.0
  9
$DIMGAP
 40
0.09
  9
$DIMJUST
 70
     0
  9
$DIMSD1
 70
     0
  9
$DIMSD2
 70
     0
  9
$DIMTOLJ
 70
     1
  9
$DIMTZIN
 70
     0
  9
$DIMALTZ
 70
     0
  9
$DIMALTTZ
 70
     0
  9
$DIMUPT
 70
     0
  9
$DIMDEC
 70
     1
  9
$DIMTDEC
 70
     4
  9
$DIMALTU
 70
     2
  9
$DIMALTTD
 70
     2
  9
$DIMTXSTY
  7
STANDARD
  9
$DIMAUNIT
 70
     0
  9
$DIMADEC
 70
     0
  9
$DIMALTRND
 40
0.0
  9
$DIMAZIN
 70
     0
  9
$DIMDSEP
 70
    46
  9
$DIMATFIT
 70
     3
  9
$DIMFRAC
 70
     0
  9
$DIMLDRBLK
  1

  9
$DIMLUNIT
 70
     2
  9
$DIMLWD
 70
    -2
  9
$DIMLWE
 70
    -2
  9
$DIMTMOVE
 70
     0
  9
$LUNITS
 70
     2
  9
$LUPREC
 70
     3
  9
$SKETCHINC
 40
0.1
  9
$FILLETRAD
 40
2.0
  9
$AUNITS
 70
     0
  9
$AUPREC
 70
     3
  9
$MENU
  1
C:\R13\WIN\SUPPORT\ACADFULL
  9
$ELEVATION
 40
0.0
  9
$PELEVATION
 40
0.0
  9
$THICKNESS
 40
0.0
  9
$LIMCHECK
 70
     0
  9
$CHAMFERA
 40
0.0
  9
$CHAMFERB
 40
0.0
  9
$CHAMFERC
 40
0.0
  9
$CHAMFERD
 40
0.0
  9
$SKPOLY
 70
     0
  9
$TDCREATE
 40
2457407.586298704
  9
$TDUCREATE
 40
2457407.211298704
  9
$TDUPDATE
 40
2458115.649353484
  9
$TDUUPDATE
 40
2458115.274353484
  9
$TDINDWG
 40
0.0851507407
  9
$TDUSRTIMER
 40
0.0851494792
  9
$USRTIMER
 70
     1
  9
$ANGBASE
 50
0.0
  9
$ANGDIR
 70
     0
  9
$PDMODE
 70
     0
  9
$PDSIZE
 40
0.0
  9
$PLINEWID
 40
0.0
  9
$SPLFRAME
 70
     0
  9
$SPLINETYPE
 70
     6
  9
$SPLINESEGS
 70
     8
  9
$HANDSEED
  5
770
  9
$SURFTAB1
 70
     6
  9
$SURFTAB2
 70
     6
  9
$SURFTYPE
 70
     6
  9
$SURFU
 70
     6
  9
$SURFV
 70
     6
  9
$UCSBASE
  2

  9
$UCSNAME
  2

  9
$UCSORG
 10
0.0
 20
0.0
 30
0.0
  9
$UCSXDIR
 10
1.0
 20
0.0
 30
0.0
  9
$UCSYDIR
 10
0.0
 20
1.0
 30
0.0
  9
$UCSORTHOREF
  2

  9
$UCSORTHOVIEW
 70
     0
  9
$UCSORGTOP
 10
0.0
 20
0.0
 30
0.0
  9
$UCSORGBOTTOM
 10
0.0
 20
0.0
 30
0.0
  9
$UCSORGLEFT
 10
0.0
 20
0.0
 30
0.0
  9
$UCSORGRIGHT
 10
0.0
 20
0.0
 30
0.0
  9
$UCSORGFRONT
 10
0.0
 20
0.0
 30
0.0
  9
$UCSORGBACK
 10
0.0
 20
0.0
 30
0.0
  9
$PUCSBASE
  2

  9
$PUCSNAME
  2

  9
$PUCSORG
 10
0.0
 20
0.0
 30
0.0
  9
$PUCSXDIR
 10
1.0
 20
0.0
 30
0.0
  9
$PUCSYDIR
 10
0.0
 20
1.0
 30
0.0
  9
$PUCSORTHOREF
  2

  9
$PUCSORTHOVIEW
 70
     0
  9
$PUCSORGTOP
 10
0.0
 20
0.0
 30
0.0
  9
$PUCSORGBOTTOM
 10
0.0
 20
0.0
 30
0.0
  9
$PUCSORGLEFT
 10
0.0
 20
0.0
 30
0.0
  9
$PUCSORGRIGHT
 10
0.0
 20
0.0
 30
0.0
  9
$PUCSORGFRONT
 10
0.0
 20
0.0
 30
0.0
  9
$PUCSORGBACK
 10
0.0
 20
0.0
 30
0.0
  9
$USERI1
 70
     0
  9
$USERI2
 70
     0
  9
$USERI3
 70
     0
  9
$USERI4
 70
     0
  9
$USERI5
 70
     0
  9
$USERR1
 40
0.0
  9
$USERR2
 40
0.0
  9
$USERR3
 40
0.0
  9
$USERR4
 40
2448925.372986111
  9
$USERR5
 40
0.04166667
  9
$WORLDVIEW
 70
     1
  9
$SHADEDGE
 70
     3
  9
$SHADEDIF
 70
    70
  9
$TILEMODE
 70
     1
  9
$MAXACTVP
 70
    16
  9
$PINSBASE
 10
0.0
 20
0.0
 30
0.0
  9
$PLIMCHECK
 70
     0
  9
$PEXTMIN
 10
1000000000000000E+20
 20
1000000000000000E+20
 30
1000000000000000E+20
  9
$PEXTMAX
 10
-1000000000000000E+20
 20
-1000000000000000E+20
 30
-1000000000000000E+20
  9
$PLIMMIN
 10
0.0
 20
0.0
  9
$PLIMMAX
 10
12.0
 20
9.0
  9
$UNITMODE
 70
     0
  9
$VISRETAIN
 70
     0
  9
$PLINEGEN
 70
     0
  9
$PSLTSCALE
 70
     0
  9
$TREEDEPTH
 70
  3020
  9
$CMLSTYLE
  2
STANDARD
  9
$CMLJUST
 70
     0
  9
$CMLSCALE
 40
1.0
  9
$PROXYGRAPHICS
 70
     1
  9
$MEASUREMENT
 70
     0
  9
$CELWEIGHT
370
    -1
  9
$ENDCAPS
280
     0
  9
$JOINSTYLE
280
     0
  9
$LWDISPLAY
290
     0
  9
$INSUNITS
 70
     0
  9
$HYPERLINKBASE
  1

  9
$STYLESHEET
  1

  9
$XEDIT
290
     1
  9
$CEPSNTYPE
380
     0
  9
$PSTYLEMODE
290
     1
  9
$FINGERPRINTGUID
  2
{C2B2CB2A-30DC-4003-B742-17D26F9AF104}
  9
$VERSIONGUID
  2
{282423BA-AA45-442C-9A98-778408CC42AB}
  9
$EXTNAMES
290
     1
  9
$PSVPSCALE
 40
0.0
  9
$OLESTARTUP
290
     0
  0
ENDSEC
  0
SECTION
  2
CLASSES
  0
CLASS
  1
ACDBDICTIONARYWDFLT
  2
AcDbDictionaryWithDefault
  3
ObjectDBX Classes
 90
        0
280
     0
281
     0
  0
CLASS
  1
MATERIAL
  2
AcDbMaterial
  3
ObjectDBX Classes
 90
     1153
280
     0
281
     0
  0
CLASS
  1
SORTENTSTABLE
  2
AcDbSortentsTable
  3
ObjectDBX Classes
 90
        0
280
     0
281
     0
  0
CLASS
  1
SCALE
  2
AcDbScale
  3
ObjectDBX Classes
 90
     1153
280
     0
281
     0
  0
CLASS
  1
DICTIONARYVAR
  2
AcDbDictionaryVar
  3
ObjectDBX Classes
 90
        0
280
     0
281
     0
  0
CLASS
  1
VISUALSTYLE
  2
AcDbVisualStyle
  3
ObjectDBX Classes
 90
     4095
280
     0
281
     0
  0
CLASS
  1
MLEADERSTYLE
  2
AcDbMLeaderStyle
  3
ACDB_MLEADERSTYLE_CLASS
 90
     4095
280
     0
281
     0
  0
CLASS
  1
TABLESTYLE
  2
AcDbTableStyle
  3
ObjectDBX Classes
 90
     4095
280
     0
281
     0
  0
CLASS
  1
ACDBPLACEHOLDER
  2
AcDbPlaceHolder
  3
ObjectDBX Classes
 90
        0
280
     0
281
     0
  0
CLASS
  1
LAYOUT
  2
AcDbLayout
  3
ObjectDBX Classes
 90
        0
280
     0
281
     0
  0
ENDSEC
  0
SECTION
  2
TABLES
  0
TABLE
  2
VPORT
  5
2C
102
{ACAD_XDICTIONARY
360
735
102
}
330
0
100
AcDbSymbolTable
 70
     1
  0
VPORT
  5
31
330
2C
100
AcDbSymbolTableRecord
100
AcDbViewportTableRecord
  2
*ACTIVE
 70
     0
 10
0.0
 20
0.0
 11
1.0
 21
1.0
 12
1563.10977234043
 22
713.6397355711368
 13
0.0
 23
0.0
 14
1.0
 24
1.0
 15
50.0
 25
50.0
 16
0.0
 26
0.0
 36
1.0
 17
0.0
 27
0.0
 37
0.0
 40
1857.748021374543
 41
1.82716049382716
 42
50.0
 43
0.0
 44
0.0
 50
0.0
 51
0.0
 71
     0
 72
  5000
 73
     1
 74
     0
 75
     0
 76
     0
 77
     0
 78
     0
281
     0
 65
     1
110
0.0
120
0.0
130
0.0
111
1.0
121
0.0
131
0.0
112
0.0
122
1.0
132
0.0
 79
     0
146
0.0
1001
ACAD_NAV_VCDISPLAY
1070
     3
  0
ENDTAB
  0
TABLE
  2
LTYPE
  5
F
330
0
100
AcDbSymbolTable
 70
     2
  0
LTYPE
  5
10
330
F
100
AcDbSymbolTableRecord
100
AcDbLinetypeTableRecord
  2
BYBLOCK
 70
     0
  3

 72
    65
 73
     0
 40
0.0
  0
LTYPE
  5
11
330
F
100
AcDbSymbolTableRecord
100
AcDbLinetypeTableRecord
  2
BYLAYER
 70
     0
  3

 72
    65
 73
     0
 40
0.0
  0
LTYPE
  5
E
330
F
100
AcDbSymbolTableRecord
100
AcDbLinetypeTableRecord
  2
CONTINUOUS
 70
     0
  3
Solid line
 72
    65
 73
     0
 40
0.0
  0
LTYPE
  5
6C
330
F
100
AcDbSymbolTableRecord
100
AcDbLinetypeTableRecord
  2
CENTER
 70
     0
  3
____ _ ____ _ ____ _ ____ _ ____ _ ____ _ ____
 72
    65
 73
     4
 40
2.0
 49
1.25
 74
     0
 49
-0.25
 74
     0
 49
0.25
 74
     0
 49
-0.25
 74
     0
  0
ENDTAB
  0
TABLE
  2
LAYER
  5
2
102
{ACAD_XDICTIONARY
360
3
102
}
330
0
100
AcDbSymbolTable
 70
    10
  0
LAYER
  5
1F
102
{ACAD_XDICTIONARY
360
20
102
}
330
2
100
AcDbSymbolTableRecord
100
AcDbLayerTableRecord
  2
0
 70
     0
 62
     7
  6
CONTINUOUS
370
    -3
390
7
  0
LAYER
  5
51A
102
{ACAD_XDICTIONARY
360
51B
102
}
330
2
100
AcDbSymbolTableRecord
100
AcDbLayerTableRecord
  2
1
 70
     0
 62
     9
  6
CONTINUOUS
370
    -3
390
7
  0
LAYER
  5
1
102
{ACAD_XDICTIONARY
360
5
102
}
330
2
100
AcDbSymbolTableRecord
100
AcDbLayerTableRecord
  2
2
 70
     0
 62
     4
  6
CONTINUOUS
370
    -3
390
7
  0
LAYER
  5
6E
102
{ACAD_XDICTIONARY
360
6F
102
}
330
2
100
AcDbSymbolTableRecord
100
AcDbLayerTableRecord
  2
4
 70
     0
 62
     3
  6
CONTINUOUS
370
    -3
390
7
  0
LAYER
  5
69
102
{ACAD_XDICTIONARY
360
6A
102
}
330
2
100
AcDbSymbolTableRecord
100
AcDbLayerTableRecord
  2
L-CENTER
 70
     0
 62
     1
  6
CENTER
370
    -3
390
7
  0
LAYER
  5
19B
102
{ACAD_XDICTIONARY
360
19C
102
}
330
2
100
AcDbSymbolTableRecord
100
AcDbLayerTableRecord
  2
3
 70
     0
 62
     2
  6
CONTINUOUS
370
    -3
390
7
  0
LAYER
  5
5CE
102
{ACAD_XDICTIONARY
360
5CF
102
}
330
2
100
AcDbSymbolTableRecord
100
AcDbLayerTableRecord
  2
5
 70
     0
 62
     6
  6
CONTINUOUS
370
    -3
390
7
  0
LAYER
  5
694
330
2
100
AcDbSymbolTableRecord
100
AcDbLayerTableRecord
  2
Defpoints
 70
     0
 62
     7
  6
CONTINUOUS
290
     0
370
    -3
390
7
  0
ENDTAB
  0
TABLE
  2
STYLE
  5
13
330
0
100
AcDbSymbolTable
 70
     2
  0
STYLE
  5
17
330
13
100
AcDbSymbolTableRecord
100
AcDbTextStyleTableRecord
  2
STANDARD
 70
     0
 40
0.0
 41
1.0
 50
0.0
 71
     0
 42
9.0
  3
TXT
  4

  0
STYLE
  5
12
330
13
100
AcDbSymbolTableRecord
100
AcDbTextStyleTableRecord
  2
KANJI
 70
     0
 40
0.0
 41
1.0
 50
0.0
 71
     0
 42
15.0
  3
TXT
  4
BIGFONT
  0
ENDTAB
  0
TABLE
  2
VIEW
  5
2A
330
0
100
AcDbSymbolTable
 70
     0
  0
ENDTAB
  0
TABLE
  2
UCS
  5
2B
330
0
100
AcDbSymbolTable
 70
     0
  0
ENDTAB
  0
TABLE
  2
APPID
  5
D
330
0
100
AcDbSymbolTable
 70
     6
  0
APPID
  5
C
330
D
100
AcDbSymbolTableRecord
100
AcDbRegAppTableRecord
  2
ACAD
 70
     0
  0
APPID
  5
32
330
D
100
AcDbSymbolTableRecord
100
AcDbRegAppTableRecord
  2
ACAD_NAV_VCDISPLAY
 70
     0
  0
APPID
  5
25
330
D
100
AcDbSymbolTableRecord
100
AcDbRegAppTableRecord
  2
ACAD_PSEXT
 70
     0
  0
APPID
  5
63C
330
D
100
AcDbSymbolTableRecord
100
AcDbRegAppTableRecord
  2
ACAD_MLEADERVER
 70
     0
  0
ENDTAB
  0
TABLE
  2
DIMSTYLE
  5
16
330
0
100
AcDbSymbolTable
 70
     1
100
AcDbDimStyleTable
  0
DIMSTYLE
105
15
330
16
100
AcDbSymbolTableRecord
100
AcDbDimStyleTableRecord
  2
STANDARD
 70
     0
178
     0
340
17
  0
ENDTAB
  0
TABLE
  2
BLOCK_RECORD
  5
1A
330
0
100
AcDbSymbolTable
 70
     0
  0
BLOCK_RECORD
  5
1B
102
{ACAD_XDICTIONARY
360
1C
102
}
330
1A
100
AcDbSymbolTableRecord
100
AcDbBlockTableRecord
  2
*MODEL_SPACE
340
23
  0
BLOCK_RECORD
  5
26
330
1A
100
AcDbSymbolTableRecord
100
AcDbBlockTableRecord
  2
*PAPER_SPACE
340
29
  0
ENDTAB
  0
ENDSEC
  0
SECTION
  2
BLOCKS
  0
BLOCK
  5
1E
330
1B
100
AcDbEntity
  8
0
100
AcDbBlockBegin
  2
*MODEL_SPACE
 70
     0
 10
0.0
 20
0.0
 30
0.0
  3
*MODEL_SPACE
  1

  0
ENDBLK
  5
22
330
1B
100
AcDbEntity
  8
0
100
AcDbBlockEnd
  0
BLOCK
  5
27
330
26
100
AcDbEntity
 67
     1
  8
0
100
AcDbBlockBegin
  2
*PAPER_SPACE
 70
     0
 10
0.0
 20
0.0
 30
0.0
  3
*PAPER_SPACE
  1

  0
ENDBLK
  5
28
330
26
100
AcDbEntity
 67
     1
  8
0
100
AcDbBlockEnd
  0
ENDSEC
  0
SECTION
  2
ENTITIES
  0
LINE
  5
68
330
1B
100
AcDbEntity
  8
L-CENTER
 48
3.0
100
AcDbLine
 10
281.191730481461
 20
403.0738849605326
 30
0.0
 11
996.273048640099
 21
403.0738849605326
 31
0.0
  0
LINE
  5
6D
330
1B
100
AcDbEntity
  8
4
100
AcDbLine
 10
990.6907419865832
 20
465.5738849605328
 30
0.0
 11
975.7907419865833
 21
465.5738849605328
 31
0.0
  0
LINE
  5
71
330
1B
100
AcDbEntity
  8
4
100
AcDbLine
 10
990.6907419865832
 20
340.5738849605326
 30
0.0
 11
975.7907419865833
 21
340.5738849605326
 31
0.0
  0
ARC
  5
72
330
1B
100
AcDbEntity
  8
4
100
AcDbCircle
 10
970.7907419865833
 20
337.0738849605326
 30
0.0
 40
5.0
100
AcDbArc
 50
270.0
 51
0.0
  0
LINE
  5
77
330
1B
100
AcDbEntity
  8
4
100
AcDbLine
 10
671.1498719865835
 20
557.3738849605325
 30
0.0
 11
566.7603971011868
 21
557.3738849605325
 31
0.0
  0
LINE
  5
78
330
1B
100
AcDbEntity
  8
2
100
AcDbLine
 10
663.7907419865837
 20
557.6738849605326
 30
0.0
 11
566.7603971011868
 21
557.6738849605326
 31
0.0
  0
LINE
  5
79
330
1B
100
AcDbEntity
  8
4
100
AcDbLine
 10
544.8210868719812
 20
557.3738849605325
 30
0.0
 11
509.3808319865839
 21
557.3738849605325
 31
0.0
  0
LINE
  5
7A
330
1B
100
AcDbEntity
  8
2
100
AcDbLine
 10
544.8210868719812
 20
557.6738849605326
 30
0.0
 11
509.3808319865839
 21
557.6738849605326
 31
0.0
  0
LINE
  5
7B
330
1B
100
AcDbEntity
  8
4
100
AcDbLine
 10
510.3808319865839
 20
569.2738849605325
 30
0.0
 11
679.5407419865837
 21
569.2738849605325
 31
0.0
  0
LINE
  5
7C
330
1B
100
AcDbEntity
  8
4
100
AcDbLine
 10
397.7907419865833
 20
526.0738849605327
 30
0.0
 11
973.7907419865833
 21
526.0738849605327
 31
0.0
  0
LINE
  5
7D
330
1B
100
AcDbEntity
  8
4
100
AcDbLine
 10
410.7907419865833
 20
529.0738849605327
 30
0.0
 11
960.7907419865833
 21
529.0738849605327
 31
0.0
  0
LINE
  5
7E
330
1B
100
AcDbEntity
  8
2
100
AcDbLine
 10
410.7907419865833
 20
529.3738849605325
 30
0.0
 11
960.7907419865833
 21
529.3738849605325
 31
0.0
  0
LINE
  5
7F
330
1B
100
AcDbEntity
  8
4
100
AcDbLine
 10
412.7907419865833
 20
551.3738849605325
 30
0.0
 11
958.7907419865833
 21
551.3738849605325
 31
0.0
  0
LINE
  5
80
330
1B
100
AcDbEntity
  8
4
100
AcDbLine
 10
570.7907419865837
 20
315.1738849605326
 30
0.0
 11
698.3808319865839
 21
315.1738849605326
 31
0.0
  0
LINE
  5
81
330
1B
100
AcDbEntity
  8
4
100
AcDbLine
 10
570.7907419865837
 20
327.0738849605326
 30
0.0
 11
699.3808319865839
 21
327.0738849605326
 31
0.0
  0
LINE
  5
82
330
1B
100
AcDbEntity
  8
4
100
AcDbLine
 10
800.7907419865837
 20
332.0738849605326
 30
0.0
 11
570.7907419865837
 21
332.0738849605326
 31
0.0
  0
LINE
  5
83
330
1B
100
AcDbEntity
  8
L-CENTER
 48
3.0
100
AcDbLine
 10
604.3808319865839
 20
581.741863215113
 30
0.0
 11
604.3808319865839
 21
167.1355594346192
 31
0.0
  0
LINE
  5
84
330
1B
100
AcDbEntity
  8
4
100
AcDbLine
 10
395.7907419865833
 20
524.0738849605327
 30
0.0
 11
395.7907419865833
 21
337.0738849605326
 31
0.0
  0
LINE
  5
85
330
1B
100
AcDbEntity
  8
4
100
AcDbLine
 10
433.7907419865837
 20
308.0738849605328
 30
0.0
 11
567.7907419865833
 21
308.0738849605328
 31
0.0
  0
LINE
  5
86
330
1B
100
AcDbEntity
  8
4
100
AcDbLine
 10
430.7907419865833
 20
273.0738849605328
 30
0.0
 11
570.7907419865837
 21
273.0738849605328
 31
0.0
  0
LINE
  5
87
330
1B
100
AcDbEntity
  8
4
100
AcDbLine
 10
380.8907419865833
 20
465.5738849605328
 30
0.0
 11
380.8907419865833
 21
340.5738849605326
 31
0.0
  0
LINE
  5
88
330
1B
100
AcDbEntity
  8
4
100
AcDbLine
 10
390.7907419865833
 20
340.5738849605326
 30
0.0
 11
390.7907419865833
 21
465.5738849605328
 31
0.0
  0
LINE
  5
89
330
1B
100
AcDbEntity
  8
2
100
AcDbLine
 10
390.4907419865833
 20
340.5738849605326
 30
0.0
 11
390.4907419865833
 21
465.5738849605328
 31
0.0
  0
LINE
  5
8A
330
1B
100
AcDbEntity
  8
4
100
AcDbLine
 10
442.7907419865833
 20
332.0738849605326
 30
0.0
 11
400.7907419865833
 21
332.0738849605326
 31
0.0
  0
ARC
  5
8B
330
1B
100
AcDbEntity
  8
4
100
AcDbCircle
 10
400.7907419865833
 20
337.0738849605326
 30
0.0
 40
5.0
100
AcDbArc
 50
180.0
 51
270.0
  0
LINE
  5
8C
330
1B
100
AcDbEntity
  8
4
100
AcDbLine
 10
380.8907419865833
 20
340.5738849605326
 30
0.0
 11
395.7907419865833
 21
340.5738849605326
 31
0.0
  0
ARC
  5
8D
330
1B
100
AcDbEntity
  8
4
100
AcDbCircle
 10
442.7907419865833
 20
320.0738849605326
 30
0.0
 40
12.0
100
AcDbArc
 50
0.0
 51
90.0
  0
ARC
  5
8E
330
1B
100
AcDbEntity
  8
4
100
AcDbCircle
 10
442.7907419865833
 20
320.0738849605326
 30
0.0
 40
12.0
100
AcDbArc
 50
270.0
 51
0.0
  0
ARC
  5
8F
330
1B
100
AcDbEntity
  8
4
100
AcDbCircle
 10
433.7907419865837
 20
305.0738849605328
 30
0.0
 40
3.0
100
AcDbArc
 50
90.0
 51
180.0
  0
LINE
  5
90
330
1B
100
AcDbEntity
  8
4
100
AcDbLine
 10
430.7907419865833
 20
305.0738849605328
 30
0.0
 11
430.7907419865833
 21
273.0738849605328
 31
0.0
  0
LINE
  5
91
330
1B
100
AcDbEntity
  8
4
100
AcDbLine
 10
380.8907419865833
 20
465.5738849605328
 30
0.0
 11
395.7907419865833
 21
465.5738849605328
 31
0.0
  0
LINE
  5
92
330
1B
100
AcDbEntity
  8
L-CENTER
 48
3.0
100
AcDbLine
 10
475.7907419865833
 20
253.0738849605328
 30
0.0
 11
475.7907419865833
 21
328.0738849605328
 31
0.0
  0
ARC
  5
93
330
1B
100
AcDbEntity
  8
4
100
AcDbCircle
 10
545.7907419865837
 20
398.0738849605326
 30
0.0
 40
5.0
100
AcDbArc
 50
0.0
 51
90.0
  0
ARC
  5
94
330
1B
100
AcDbEntity
  8
4
100
AcDbCircle
 10
540.7907419865837
 20
318.0738849605326
 30
0.0
 40
10.0
100
AcDbArc
 50
270.0
 51
0.0
  0
LINE
  5
95
330
1B
100
AcDbEntity
  8
4
100
AcDbLine
 10
570.7907419865837
 20
398.0738849605326
 30
0.0
 11
570.7907419865837
 21
273.0738849605328
 31
0.0
  0
LINE
  5
96
330
1B
100
AcDbEntity
  8
4
100
AcDbLine
 10
550.7907419865837
 20
398.0738849605326
 30
0.0
 11
550.7907419865837
 21
318.0738849605326
 31
0.0
  0
ARC
  5
97
330
1B
100
AcDbEntity
  8
4
100
AcDbCircle
 10
567.7907419865833
 20
305.0738849605328
 30
0.0
 40
3.0
100
AcDbArc
 50
0.0
 51
90.0
  0
ARC
  5
98
330
1B
100
AcDbEntity
  8
4
100
AcDbCircle
 10
575.7907419865837
 20
398.0738849605326
 30
0.0
 40
5.0
100
AcDbArc
 50
90.0
 51
180.0
  0
LINE
  5
99
330
1B
100
AcDbEntity
  8
4
100
AcDbLine
 10
410.7907419865833
 20
526.0738849605327
 30
0.0
 11
410.7907419865833
 21
549.3738849605325
 31
0.0
  0
LINE
  5
9A
330
1B
100
AcDbEntity
  8
4
100
AcDbLine
 10
509.3808319865839
 20
551.3738849605325
 30
0.0
 11
509.3808319865839
 21
568.2738849605325
 31
0.0
  0
LINE
  5
A3
330
1B
100
AcDbEntity
  8
L-CENTER
 48
3.0
100
AcDbLine
 10
685.7907419865837
 20
621.7238886420873
 30
0.0
 11
685.7907419865837
 21
309.6752054993452
 31
0.0
  0
LINE
  5
A4
330
1B
100
AcDbEntity
  8
L-CENTER
 48
3.0
100
AcDbLine
 10
795.7907419865837
 20
581.741863215113
 30
0.0
 11
795.7907419865837
 21
309.6752054993453
 31
0.0
  0
LINE
  5
A5
330
1B
100
AcDbEntity
  8
4
100
AcDbLine
 10
975.7907419865833
 20
524.0738849605327
 30
0.0
 11
975.7907419865833
 21
337.0738849605326
 31
0.0
  0
LINE
  5
A6
330
1B
100
AcDbEntity
  8
4
100
AcDbLine
 10
937.7907419865837
 20
308.0738849605328
 30
0.0
 11
803.7907419865837
 21
308.0738849605328
 31
0.0
  0
LINE
  5
A7
330
1B
100
AcDbEntity
  8
4
100
AcDbLine
 10
940.7907419865833
 20
273.0738849605328
 30
0.0
 11
800.7907419865837
 21
273.0738849605328
 31
0.0
  0
LINE
  5
A8
330
1B
100
AcDbEntity
  8
4
100
AcDbLine
 10
716.7907419865837
 20
315.1738849605326
 30
0.0
 11
800.7907419865837
 21
315.1738849605326
 31
0.0
  0
LINE
  5
A9
330
1B
100
AcDbEntity
  8
4
100
AcDbLine
 10
715.7907419865837
 20
327.0738849605326
 30
0.0
 11
800.7907419865837
 21
327.0738849605326
 31
0.0
  0
LINE
  5
AA
330
1B
100
AcDbEntity
  8
4
100
AcDbLine
 10
715.7907419865837
 20
316.1738849605326
 30
0.0
 11
715.7907419865837
 21
332.0738849605326
 31
0.0
  0
LINE
  5
AB
330
1B
100
AcDbEntity
  8
4
100
AcDbLine
 10
699.3808319865839
 20
316.1738849605326
 30
0.0
 11
699.3808319865839
 21
332.0738849605326
 31
0.0
  0
LINE
  5
AC
330
1B
100
AcDbEntity
  8
4
100
AcDbLine
 10
800.7907419865837
 20
398.0738849605326
 30
0.0
 11
800.7907419865837
 21
273.0738849605328
 31
0.0
  0
ARC
  5
AD
330
1B
100
AcDbEntity
  8
4
100
AcDbCircle
 10
803.7907419865837
 20
305.0738849605328
 30
0.0
 40
3.0
100
AcDbArc
 50
90.0
 51
180.0
  0
ARC
  5
AE
330
1B
100
AcDbEntity
  8
4
100
AcDbCircle
 10
795.7907419865837
 20
398.0738849605326
 30
0.0
 40
5.0
100
AcDbArc
 50
0.0
 51
90.0
  0
LINE
  5
AF
330
1B
100
AcDbEntity
  8
L-CENTER
 48
3.0
100
AcDbLine
 10
895.7907419865833
 20
253.0738849605328
 30
0.0
 11
895.7907419865833
 21
328.0738849605328
 31
0.0
  0
LINE
  5
B0
330
1B
100
AcDbEntity
  8
4
100
AcDbLine
 10
820.7907419865837
 20
398.0738849605326
 30
0.0
 11
820.7907419865837
 21
318.0738849605326
 31
0.0
  0
ARC
  5
B1
330
1B
100
AcDbEntity
  8
4
100
AcDbCircle
 10
830.7907419865837
 20
318.0738849605326
 30
0.0
 40
10.0
100
AcDbArc
 50
180.0
 51
270.0
  0
ARC
  5
B2
330
1B
100
AcDbEntity
  8
4
100
AcDbCircle
 10
825.7907419865837
 20
398.0738849605326
 30
0.0
 40
5.0
100
AcDbArc
 50
90.0
 51
180.0
  0
LINE
  5
B3
330
1B
100
AcDbEntity
  8
4
100
AcDbLine
 10
928.7907419865837
 20
332.0738849605326
 30
0.0
 11
970.7907419865833
 21
332.0738849605326
 31
0.0
  0
ARC
  5
B4
330
1B
100
AcDbEntity
  8
4
100
AcDbCircle
 10
928.7907419865837
 20
320.0738849605326
 30
0.0
 40
12.0
100
AcDbArc
 50
90.0
 51
180.0
  0
ARC
  5
B5
330
1B
100
AcDbEntity
  8
4
100
AcDbCircle
 10
928.7907419865837
 20
320.0738849605326
 30
0.0
 40
12.0
100
AcDbArc
 50
180.0
 51
270.0
  0
ARC
  5
B6
330
1B
100
AcDbEntity
  8
4
100
AcDbCircle
 10
937.7907419865837
 20
305.0738849605328
 30
0.0
 40
3.0
100
AcDbArc
 50
0.0
 51
90.0
  0
LINE
  5
B7
330
1B
100
AcDbEntity
  8
4
100
AcDbLine
 10
940.7907419865833
 20
305.0738849605328
 30
0.0
 11
940.7907419865833
 21
273.0738849605328
 31
0.0
  0
LINE
  5
B8
330
1B
100
AcDbEntity
  8
4
100
AcDbLine
 10
715.7907419865837
 20
557.3738849605325
 30
0.0
 11
804.8210868719807
 21
557.3738849605325
 31
0.0
  0
LINE
  5
B9
330
1B
100
AcDbEntity
  8
2
100
AcDbLine
 10
715.7907419865837
 20
557.6738849605326
 30
0.0
 11
804.8210868719807
 21
557.6738849605326
 31
0.0
  0
LINE
  5
BA
330
1B
100
AcDbEntity
  8
4
100
AcDbLine
 10
826.7603971011858
 20
557.3738849605325
 30
0.0
 11
875.7907419865837
 21
557.3738849605325
 31
0.0
  0
LINE
  5
BB
330
1B
100
AcDbEntity
  8
2
100
AcDbLine
 10
826.7603971011858
 20
557.6738849605326
 30
0.0
 11
875.7907419865837
 21
557.6738849605326
 31
0.0
  0
LINE
  5
BC
330
1B
100
AcDbEntity
  8
4
100
AcDbLine
 10
716.7907419865837
 20
569.2738849605325
 30
0.0
 11
874.7907419865837
 21
569.2738849605325
 31
0.0
  0
LINE
  5
BD
330
1B
100
AcDbEntity
  8
4
100
AcDbLine
 10
679.5407419865837
 20
555.0220799605327
 30
0.0
 11
679.5407419865837
 21
604.2720799605327
 31
0.0
  0
LINE
  5
BE
330
1B
100
AcDbEntity
  8
4
100
AcDbLine
 10
692.0407419865837
 20
555.0220799605327
 30
0.0
 11
692.0407419865837
 21
604.2720799605327
 31
0.0
  0
LINE
  5
C0
330
1B
100
AcDbEntity
  8
L-CENTER
 48
5.0
100
AcDbLine
 10
671.382777523223
 20
580.5220799605327
 30
0.0
 11
700.198706449944
 21
580.5220799605327
 31
0.0
  0
ARC
  5
C1
330
1B
100
AcDbEntity
  8
4
100
AcDbCircle
 10
677.5407419865837
 20
555.0220799605327
 30
0.0
 40
2.0
100
AcDbArc
 50
270.0
 51
0.0
  0
LINE
  5
C2
330
1B
100
AcDbEntity
  8
4
100
AcDbLine
 10
671.3674019865839
 20
561.5220799605327
 30
0.0
 11
679.5407419865837
 21
561.5220799605327
 31
0.0
  0
LINE
  5
C3
330
1B
100
AcDbEntity
  8
4
100
AcDbLine
 10
679.5407419865837
 20
562.3721799605328
 30
0.0
 11
671.3674019865839
 21
561.5220799605327
 31
0.0
  0
LINE
  5
C5
330
1B
100
AcDbEntity
  8
4
100
AcDbLine
 10
670.8353967021562
 20
551.3738849605325
 30
0.0
 11
671.3674019865839
 21
561.5220799605327
 31
0.0
  0
LINE
  5
C6
330
1B
100
AcDbEntity
  8
4
100
AcDbLine
 10
692.0407419865837
 20
569.2738849605325
 30
0.0
 11
698.3808319865839
 21
569.2738849605325
 31
0.0
  0
LINE
  5
C7
330
1B
100
AcDbEntity
  8
4
100
AcDbLine
 10
692.0407419865837
 20
561.5220799605327
 30
0.0
 11
700.2143269865837
 21
561.5220799605327
 31
0.0
  0
LINE
  5
C8
330
1B
100
AcDbEntity
  8
4
100
AcDbLine
 10
692.0407419865837
 20
562.3721799605328
 30
0.0
 11
700.2143269865837
 21
561.5220799605327
 31
0.0
  0
ARC
  5
C9
330
1B
100
AcDbEntity
  8
4
100
AcDbCircle
 10
694.0407419865837
 20
555.0220799605327
 30
0.0
 40
2.0
100
AcDbArc
 50
180.0
 51
270.0
  0
LINE
  5
CA
330
1B
100
AcDbEntity
  8
4
100
AcDbLine
 10
715.7907419865837
 20
551.3738849605325
 30
0.0
 11
715.7907419865837
 21
568.2738849605325
 31
0.0
  0
LINE
  5
CB
330
1B
100
AcDbEntity
  8
4
100
AcDbLine
 10
700.7461062430311
 20
551.3738849605325
 30
0.0
 11
700.2143269865837
 21
561.5220799605327
 31
0.0
  0
LINE
  5
CC
330
1B
100
AcDbEntity
  8
4
100
AcDbLine
 10
699.3808319865839
 20
568.3738849605329
 30
0.0
 11
699.3808319865839
 21
568.3738849605325
 31
0.0
  0
ARC
  5
CE
330
1B
100
AcDbEntity
  8
4
100
AcDbCircle
 10
685.7907419865837
 20
604.2720799605327
 30
0.0
 40
6.25
100
AcDbArc
 50
0.0
 51
180.0
  0
LINE
  5
CF
330
1B
100
AcDbEntity
  8
4
100
AcDbLine
 10
875.7907419865837
 20
551.3738849605325
 30
0.0
 11
875.7907419865837
 21
568.2738849605325
 31
0.0
  0
LINE
  5
D0
330
1B
100
AcDbEntity
  8
4
100
AcDbLine
 10
960.7907419865833
 20
526.0738849605327
 30
0.0
 11
960.7907419865833
 21
549.3738849605325
 31
0.0
  0
LINE
  5
D1
330
1B
100
AcDbEntity
  8
4
100
AcDbLine
 10
1908.165834782634
 20
529.0738849605327
 30
0.0
 11
1358.165834782634
 21
529.0738849605327
 31
0.0
  0
LINE
  5
D2
330
1B
100
AcDbEntity
  8
2
100
AcDbLine
 10
1908.165834782634
 20
529.3738849605325
 30
0.0
 11
1358.165834782634
 21
529.3738849605325
 31
0.0
  0
LINE
  5
D3
330
1B
100
AcDbEntity
  8
4
100
AcDbLine
 10
1906.165834782634
 20
551.3738849605325
 30
0.0
 11
1360.165834782634
 21
551.3738849605325
 31
0.0
  0
LINE
  5
D4
330
1B
100
AcDbEntity
  8
4
100
AcDbLine
 10
1345.165834782634
 20
526.0738849605327
 30
0.0
 11
1921.165834782634
 21
526.0738849605327
 31
0.0
  0
LINE
  5
D5
330
1B
100
AcDbEntity
  8
4
100
AcDbLine
 10
1729.165834782634
 20
557.3738849605325
 30
0.0
 11
1644.135489897237
 21
557.3738849605325
 31
0.0
  0
LINE
  5
D6
330
1B
100
AcDbEntity
  8
2
100
AcDbLine
 10
1729.165834782634
 20
557.6738849605326
 30
0.0
 11
1644.135489897237
 21
557.6738849605326
 31
0.0
  0
LINE
  5
D7
330
1B
100
AcDbEntity
  8
4
100
AcDbLine
 10
1622.196179668031
 20
557.3738849605325
 30
0.0
 11
1539.165834782634
 21
557.3738849605325
 31
0.0
  0
LINE
  5
D8
330
1B
100
AcDbEntity
  8
2
100
AcDbLine
 10
1622.196179668031
 20
557.6738849605326
 30
0.0
 11
1539.165834782634
 21
557.6738849605326
 31
0.0
  0
LINE
  5
D9
330
1B
100
AcDbEntity
  8
4
100
AcDbLine
 10
1728.165837311494
 20
569.2738849605325
 30
0.0
 11
1540.165834782634
 21
569.2738849605325
 31
0.0
  0
LINE
  5
DA
330
1B
100
AcDbEntity
  8
4
100
AcDbLine
 10
1638.165834782634
 20
465.6529899605329
 30
0.0
 11
1735.680729782634
 21
465.6529899605329
 31
0.0
  0
LINE
  5
DB
330
1B
100
AcDbEntity
  8
4
100
AcDbLine
 10
1638.165834782634
 20
340.4947849605327
 30
0.0
 11
1735.680729782634
 21
340.4947849605327
 31
0.0
  0
LINE
  5
DC
330
1B
100
AcDbEntity
  8
L-CENTER
 48
3.0
100
AcDbLine
 10
1873.117068888376
 20
403.0738849605326
 30
0.0
 11
1715.214600676892
 21
403.0738849605326
 31
0.0
  0
LINE
  5
DD
330
1B
100
AcDbEntity
  8
4
100
AcDbLine
 10
1489.165834782634
 20
332.0738849605326
 30
0.0
 11
1777.165834782634
 21
332.0738849605326
 31
0.0
  0
LINE
  5
DE
330
1B
100
AcDbEntity
  8
4
100
AcDbLine
 10
1727.165834782634
 20
315.1738849605326
 30
0.0
 11
1539.165834782634
 21
315.1738849605326
 31
0.0
  0
LINE
  5
DF
330
1B
100
AcDbEntity
  8
4
100
AcDbLine
 10
1728.165834782634
 20
327.0738849605326
 30
0.0
 11
1538.165834782634
 21
327.0738849605326
 31
0.0
  0
LINE
  5
E0
330
1B
100
AcDbEntity
  8
4
100
AcDbLine
 10
1476.165834782634
 20
308.0738849605328
 30
0.0
 11
1339.165834782634
 21
308.0738849605328
 31
0.0
  0
LINE
  5
E1
330
1B
100
AcDbEntity
  8
4
100
AcDbLine
 10
1339.165834782634
 20
273.0738849605328
 30
0.0
 11
1479.165834782634
 21
273.0738849605328
 31
0.0
  0
LINE
  5
E2
330
1B
100
AcDbEntity
  8
4
100
AcDbLine
 10
1373.743474782634
 20
403.0738849605326
 30
0.0
 11
1339.165834782634
 21
308.0731549605329
 31
0.0
  0
LINE
  5
E3
330
1B
100
AcDbEntity
  8
4
100
AcDbLine
 10
1343.165834782634
 20
319.0628999605327
 30
0.0
 11
1343.165834782634
 21
524.0738849605327
 31
0.0
  0
LINE
  5
E8
330
1B
100
AcDbEntity
  8
4
100
AcDbLine
 10
990.6907419865832
 20
340.5738849605326
 30
0.0
 11
990.6907419865832
 21
465.5738849605328
 31
0.0
  0
LINE
  5
E9
330
1B
100
AcDbEntity
  8
4
100
AcDbLine
 10
980.7907419865833
 20
340.5738849605326
 30
0.0
 11
980.7907419865833
 21
465.5738849605328
 31
0.0
  0
LINE
  5
EA
330
1B
100
AcDbEntity
  8
2
100
AcDbLine
 10
981.0907419865832
 20
340.5738849605326
 30
0.0
 11
981.0907419865832
 21
465.5738849605328
 31
0.0
  0
LINE
  5
F5
330
1B
100
AcDbEntity
  8
4
100
AcDbLine
 10
1339.165834782634
 20
308.0738849605328
 30
0.0
 11
1339.165834782634
 21
273.0738849605328
 31
0.0
  0
LINE
  5
F6
330
1B
100
AcDbEntity
  8
4
100
AcDbLine
 10
1358.165834782634
 20
526.0738849605327
 30
0.0
 11
1358.165834782634
 21
549.3738849605325
 31
0.0
  0
LINE
  5
F7
330
1B
100
AcDbEntity
  8
L-CENTER
 48
3.0
100
AcDbLine
 10
1633.165834782634
 20
309.6752054993452
 30
0.0
 11
1633.165834782634
 21
576.199864960533
 31
0.0
  0
LINE
  5
F8
330
1B
100
AcDbEntity
  8
L-CENTER
 48
3.0
100
AcDbLine
 10
1619.165834782634
 20
309.6752054993452
 30
0.0
 11
1619.165834782634
 21
576.481599960533
 31
0.0
  0
LINE
  5
F9
330
1B
100
AcDbEntity
  8
L-CENTER
 48
3.0
100
AcDbLine
 10
1634.165834782634
 20
167.1355594346192
 30
0.0
 11
1634.165834782634
 21
581.741863215113
 31
0.0
  0
LINE
  5
FA
330
1B
100
AcDbEntity
  8
L-CENTER
 48
3.0
100
AcDbLine
 10
1374.165834782634
 20
253.0738849605328
 30
0.0
 11
1374.165834782634
 21
328.0738849605328
 31
0.0
  0
ARC
  5
FB
330
1B
100
AcDbEntity
  8
4
100
AcDbCircle
 10
1489.165834782634
 20
322.0738849605326
 30
0.0
 40
10.0
100
AcDbArc
 50
90.0
 51
180.0
  0
ARC
  5
FC
330
1B
100
AcDbEntity
  8
4
100
AcDbCircle
 10
1476.165834782634
 20
305.0738849605328
 30
0.0
 40
3.0
100
AcDbArc
 50
0.0
 51
90.0
  0
LINE
  5
FD
330
1B
100
AcDbEntity
  8
4
100
AcDbLine
 10
1479.165834782634
 20
322.0738849605326
 30
0.0
 11
1479.165834782634
 21
273.0738849605328
 31
0.0
  0
LINE
  5
FE
330
1B
100
AcDbEntity
  8
4
100
AcDbLine
 10
1538.165834782634
 20
329.0738849605326
 30
0.0
 11
1538.165834782634
 21
316.1738849605326
 31
0.0
  0
ARC
  5
FF
330
1B
100
AcDbEntity
  8
4
100
AcDbCircle
 10
1535.165834782634
 20
329.0738849605326
 30
0.0
 40
3.0
100
AcDbArc
 50
0.0
 51
90.0
  0
LINE
  5
105
330
1B
100
AcDbEntity
  8
L-CENTER
 48
3.0
100
AcDbLine
 10
1573.204164782634
 20
300.5730450804286
 30
0.0
 11
1573.204164782634
 21
347.9593080752264
 31
0.0
  0
LINE
  5
10D
330
1B
100
AcDbEntity
  8
L-CENTER
 48
3.0
100
AcDbLine
 10
1665.127994782634
 20
300.5730450804286
 30
0.0
 11
1665.127994782634
 21
347.9593080752264
 31
0.0
  0
ARC
  5
112
330
1B
100
AcDbEntity
  8
4
100
AcDbCircle
 10
1638.165834782634
 20
335.4947849605327
 30
0.0
 40
5.0
100
AcDbArc
 50
90.0
 51
180.0
  0
LINE
  5
113
330
1B
100
AcDbEntity
  8
4
100
AcDbLine
 10
1699.165834782634
 20
329.0738849605326
 30
0.0
 11
1699.165834782634
 21
316.1738849605326
 31
0.0
  0
LINE
  5
118
330
1B
100
AcDbEntity
  8
L-CENTER
 48
3.0
100
AcDbLine
 10
1692.502259782634
 20
300.5730450804286
 30
0.0
 11
1692.502259782634
 21
347.9593080752264
 31
0.0
  0
ARC
  5
120
330
1B
100
AcDbEntity
  8
4
100
AcDbCircle
 10
1702.165834782634
 20
329.0738849605326
 30
0.0
 40
3.0
100
AcDbArc
 50
90.0
 51
180.0
  0
ARC
  5
121
330
1B
100
AcDbEntity
  8
4
100
AcDbCircle
 10
1638.165834782634
 20
470.6529899605329
 30
0.0
 40
5.0
100
AcDbArc
 50
180.0
 51
270.0
  0
LINE
  5
122
330
1B
100
AcDbEntity
  8
L-CENTER
 48
3.0
100
AcDbLine
 10
1418.165834782634
 20
621.7238886420873
 30
0.0
 11
1418.165834782634
 21
531.5606549605327
 31
0.0
  0
ARC
  5
123
330
1B
100
AcDbEntity
  8
4
100
AcDbCircle
 10
1418.165834782634
 20
580.5220799605327
 30
0.0
 40
30.0
100
AcDbArc
 50
299.550384
 51
225.2074449416083
  0
LINE
  5
124
330
1B
100
AcDbEntity
  8
L-CENTER
 48
3.0
100
AcDbLine
 10
1459.367643464189
 20
580.5220799605327
 30
0.0
 11
1376.964026101079
 21
580.5220799605327
 31
0.0
  0
LINE
  5
125
330
1B
100
AcDbEntity
  8
4
100
AcDbLine
 10
1411.933076868432
 20
562.3738849605325
 30
0.0
 11
1418.165834782634
 21
563.0220799605327
 31
0.0
  0
LINE
  5
126
330
1B
100
AcDbEntity
  8
4
100
AcDbLine
 10
1418.650633350261
 20
561.5220799605327
 30
0.0
 11
1432.589419782634
 21
561.5220799605327
 31
0.0
  0
CIRCLE
  5
127
330
1B
100
AcDbEntity
  8
4
100
AcDbCircle
 10
1418.165834782634
 20
580.5220799605327
 30
0.0
 40
17.5
  0
LINE
  5
128
330
1B
100
AcDbEntity
  8
4
100
AcDbLine
 10
1433.121199039081
 20
551.3738849605325
 30
0.0
 11
1432.589419782634
 21
561.5220799605327
 31
0.0
  0
LINE
  5
129
330
1B
100
AcDbEntity
  8
4
100
AcDbLine
 10
1418.165834782634
 20
563.0220799605327
 30
0.0
 11
1432.589419782634
 21
561.5220799605327
 31
0.0
  0
LINE
  5
12A
330
1B
100
AcDbEntity
  8
4
100
AcDbLine
 10
1539.165834782634
 20
551.3738849605325
 30
0.0
 11
1539.165834782634
 21
568.2738849605325
 31
0.0
  0
LINE
  5
137
330
1B
100
AcDbEntity
  8
4
100
AcDbLine
 10
1699.165834782634
 20
568.2738849605325
 30
0.0
 11
1699.165834782634
 21
551.3738849605325
 31
0.0
  0
LINE
  5
139
330
1B
100
AcDbEntity
  8
4
100
AcDbLine
 10
1936.165834782634
 20
500.0738849605327
 30
0.0
 11
1936.165834782634
 21
464.0738849605326
 31
0.0
  0
LINE
  5
13A
330
1B
100
AcDbEntity
  8
4
100
AcDbLine
 10
1927.165834782634
 20
475.0738849605328
 30
0.0
 11
1927.165834782634
 21
499.0738849605327
 31
0.0
  0
LINE
  5
13B
330
1B
100
AcDbEntity
  8
4
100
AcDbLine
 10
1927.165834782634
 20
475.0738849605328
 30
0.0
 11
1927.165834782634
 21
503.0738849605327
 31
0.0
  0
LINE
  5
13C
330
1B
100
AcDbEntity
  8
4
100
AcDbLine
 10
1931.165834782634
 20
500.0738849605327
 30
0.0
 11
1931.165834782634
 21
464.0738849605326
 31
0.0
  0
LINE
  5
13D
330
1B
100
AcDbEntity
  8
4
100
AcDbLine
 10
1929.165834782634
 20
500.0738849605327
 30
0.0
 11
1929.165834782634
 21
464.0738849605326
 31
0.0
  0
LINE
  5
13E
330
1B
100
AcDbEntity
  8
L-CENTER
 48
3.0
100
AcDbLine
 10
1794.165834782634
 20
482.0251190662742
 30
0.0
 11
1794.165834782634
 21
324.122650854791
 31
0.0
  0
LINE
  5
13F
330
1B
100
AcDbEntity
  8
4
100
AcDbLine
 10
1923.165834782634
 20
365.7713949605328
 30
0.0
 11
1923.165834782634
 21
524.0738849605327
 31
0.0
  0
LINE
  5
140
330
1B
100
AcDbEntity
  8
4
100
AcDbLine
 10
1790.165834782634
 20
308.0738849605328
 30
0.0
 11
1944.165834782634
 21
308.0738849605328
 31
0.0
  0
LINE
  5
141
330
1B
100
AcDbEntity
  8
4
100
AcDbLine
 10
1944.165834782634
 20
273.0738849605328
 30
0.0
 11
1787.165834782634
 21
273.0738849605328
 31
0.0
  0
CIRCLE
  5
144
330
1B
100
AcDbEntity
  8
L-CENTER
 48
3.0
100
AcDbCircle
 10
1794.165834782634
 20
403.0738849605326
 30
0.0
 40
60.0
  0
ARC
  5
145
330
1B
100
AcDbEntity
  8
4
100
AcDbCircle
 10
1794.165834782634
 20
120.5738849605328
 30
0.0
 40
350.0000449999999
100
AcDbArc
 50
80.380776
 51
90.0
  0
ARC
  5
146
330
1B
100
AcDbEntity
  8
4
100
AcDbCircle
 10
1794.165834782634
 20
115.5738849605328
 30
0.0
 40
349.99994
100
AcDbArc
 50
81.10419599999996
 51
90.0
  0
ARC
  5
147
330
1B
100
AcDbEntity
  8
4
100
AcDbCircle
 10
1794.165834782634
 20
690.5738849605327
 30
0.0
 40
350.0000449999999
100
AcDbArc
 50
270.00044
 51
278.8962839999999
  0
ARC
  5
148
330
1B
100
AcDbEntity
  8
4
100
AcDbCircle
 10
1794.165834782634
 20
685.5738849605327
 30
0.0
 40
349.99999
100
AcDbArc
 50
270.0004399999999
 51
279.619592
  0
ARC
  5
149
330
1B
100
AcDbEntity
  8
4
100
AcDbCircle
 10
2081.665834782634
 20
403.0738849605326
 30
0.0
 40
349.999995
100
AcDbArc
 50
180.0002000000074
 51
188.895922
  0
ARC
  5
14A
330
1B
100
AcDbEntity
  8
4
100
AcDbCircle
 10
1794.165834782634
 20
685.5738849605327
 30
0.0
 40
349.999945
100
AcDbArc
 50
260.380973
 51
270.0004399999999
  0
ARC
  5
14B
330
1B
100
AcDbEntity
  8
4
100
AcDbCircle
 10
1794.165834782634
 20
690.5738849605327
 30
0.0
 40
349.999965
100
AcDbArc
 50
261.1043999999999
 51
270.0004399999999
  0
LINE
  5
14C
330
1B
100
AcDbEntity
  8
L-CENTER
 48
3.0
100
AcDbLine
 10
1737.597414787887
 20
346.5052199657854
 30
0.0
 11
1765.881686035349
 21
374.789491213248
 31
0.0
  0
LINE
  5
14D
330
1B
100
AcDbEntity
  8
4
100
AcDbLine
 10
1728.165834782634
 20
329.0738849605326
 30
0.0
 11
1728.165834782634
 21
316.1738849605326
 31
0.0
  0
ARC
  5
14E
330
1B
100
AcDbEntity
  8
4
100
AcDbCircle
 10
1740.815739782634
 20
349.7237899605328
 30
0.0
 40
5.000084999999999
100
AcDbArc
 50
188.895697
 51
261.1043160000066
  0
ARC
  5
14F
330
1B
100
AcDbEntity
  8
4
100
AcDbCircle
 10
1731.165834782634
 20
329.0738849605326
 30
0.0
 40
3.0
100
AcDbArc
 50
90.0
 51
180.0
  0
ARC
  5
150
330
1B
100
AcDbEntity
  8
4
100
AcDbCircle
 10
1777.165834782634
 20
322.0738849605326
 30
0.0
 40
10.0
100
AcDbArc
 50
0.0
 51
90.0
  0
ARC
  5
151
330
1B
100
AcDbEntity
  8
4
100
AcDbCircle
 10
1790.165834782634
 20
305.0738849605328
 30
0.0
 40
3.0
100
AcDbArc
 50
90.0
 51
180.0
  0
LINE
  5
152
330
1B
100
AcDbEntity
  8
4
100
AcDbLine
 10
1787.165834782634
 20
322.0738849605326
 30
0.0
 11
1787.165834782634
 21
273.0738849605328
 31
0.0
  0
ARC
  5
153
330
1B
100
AcDbEntity
  8
4
100
AcDbCircle
 10
1794.165834782634
 20
120.5738849605328
 30
0.0
 40
350.00001
100
AcDbArc
 50
90.0
 51
99.619389
  0
ARC
  5
154
330
1B
100
AcDbEntity
  8
4
100
AcDbCircle
 10
1794.165834782634
 20
115.5738849605328
 30
0.0
 40
350.00005
100
AcDbArc
 50
90.0
 51
98.89604100000003
  0
LINE
  5
155
330
1B
100
AcDbEntity
  8
L-CENTER
 48
3.0
100
AcDbLine
 10
1737.597427005988
 20
459.6425621732752
 30
0.0
 11
1765.8815542305
 21
431.3581469035952
 31
0.0
  0
ARC
  5
156
330
1B
100
AcDbEntity
  8
4
100
AcDbCircle
 10
2081.665834782634
 20
403.0738849605326
 30
0.0
 40
350.00001
100
AcDbArc
 50
171.104564
 51
180.0002400015275
  0
ARC
  5
157
330
1B
100
AcDbEntity
  8
4
100
AcDbCircle
 10
1740.815739782634
 20
456.4239849605327
 30
0.0
 40
5.000084999999999
100
AcDbArc
 50
98.89568399999341
 51
171.1043030000001
  0
ARC
  5
15C
330
1B
100
AcDbEntity
  8
4
100
AcDbCircle
 10
1511.665834782634
 20
403.0738849605326
 30
0.0
 40
350.0
100
AcDbArc
 50
350.3813410000001
 51
0.0
  0
ARC
  5
15D
330
1B
100
AcDbEntity
  8
4
100
AcDbCircle
 10
1506.665834782634
 20
403.0738849605326
 30
0.0
 40
350.000035
100
AcDbArc
 50
351.1047679999999
 51
0.0
  0
LINE
  5
15E
330
1B
100
AcDbEntity
  8
L-CENTER
 48
3.0
100
AcDbLine
 10
1850.73439296542
 20
346.505358153884
 30
0.0
 11
1822.449982030655
 21
374.7894897133544
 31
0.0
  0
ARC
  5
15F
330
1B
100
AcDbEntity
  8
4
100
AcDbCircle
 10
1868.100164782634
 20
296.3504999605328
 30
0.0
 40
5.19632
100
AcDbArc
 50
114.6324440000031
 51
205.983582
  0
ARC
  5
160
330
1B
100
AcDbEntity
  8
4
100
AcDbCircle
 10
1868.100164782634
 20
296.3504999605328
 30
0.0
 40
5.19632
100
AcDbArc
 50
114.6324440000031
 51
205.983582
  0
ARC
  5
161
330
1B
100
AcDbEntity
  8
4
100
AcDbCircle
 10
1858.758119782634
 20
291.7972749605327
 30
0.0
 40
5.19632
100
AcDbArc
 50
294.6324289999963
 51
25.98357700000114
  0
ARC
  5
162
330
1B
100
AcDbEntity
  8
4
100
AcDbCircle
 10
1858.758119782634
 20
291.7972749605327
 30
0.0
 40
5.19632
100
AcDbArc
 50
294.6324289999963
 51
25.98357700000114
  0
ARC
  5
163
330
1B
100
AcDbEntity
  8
4
100
AcDbCircle
 10
1863.089419782634
 20
282.3504999605328
 30
0.0
 40
5.19632
100
AcDbArc
 50
114.6324439999978
 51
205.983582
  0
ARC
  5
164
330
1B
100
AcDbEntity
  8
4
100
AcDbCircle
 10
1863.089419782634
 20
282.3504999605328
 30
0.0
 40
5.19632
100
AcDbArc
 50
114.6324439999978
 51
205.983582
  0
ARC
  5
165
330
1B
100
AcDbEntity
  8
4
100
AcDbCircle
 10
1853.747379782634
 20
277.7972749605327
 30
0.0
 40
5.19632
100
AcDbArc
 50
294.6324290000019
 51
25.98357700000114
  0
ARC
  5
166
330
1B
100
AcDbEntity
  8
4
100
AcDbCircle
 10
1853.747379782634
 20
277.7972749605327
 30
0.0
 40
5.19632
100
AcDbArc
 50
294.6324290000019
 51
25.98357700000114
  0
ARC
  5
167
330
1B
100
AcDbEntity
  8
4
100
AcDbCircle
 10
1863.768619782634
 20
305.7972749605327
 30
0.0
 40
5.19632
100
AcDbArc
 50
294.6324290000019
 51
25.98357700000114
  0
ARC
  5
168
330
1B
100
AcDbEntity
  8
4
100
AcDbCircle
 10
1863.768619782634
 20
305.7972749605327
 30
0.0
 40
5.19632
100
AcDbArc
 50
294.6324290000019
 51
25.98357700000114
  0
ARC
  5
169
330
1B
100
AcDbEntity
  8
4
100
AcDbCircle
 10
1847.515934782634
 20
349.7237899605328
 30
0.0
 40
5.000084999999999
100
AcDbArc
 50
278.8956949999979
 51
351.1043049999994
  0
ARC
  5
16A
330
1B
100
AcDbEntity
  8
4
100
AcDbCircle
 10
1851.815249782634
 20
345.4244699605327
 30
0.0
 40
4.999979999999999
100
AcDbArc
 50
279.6186979999997
 51
350.3813020000003
  0
LINE
  5
16B
330
1B
100
AcDbEntity
  8
L-CENTER
 48
3.0
100
AcDbLine
 10
1850.734377277558
 20
459.6424274554566
 30
0.0
 11
1822.450106030096
 21
431.3581562079941
 31
0.0
  0
ARC
  5
16C
330
1B
100
AcDbEntity
  8
4
100
AcDbCircle
 10
1511.665834782634
 20
403.0738849605326
 30
0.0
 40
350.0000449999999
100
AcDbArc
 50
0.0
 51
9.61922400000002
  0
ARC
  5
16D
330
1B
100
AcDbEntity
  8
4
100
AcDbCircle
 10
1506.665834782634
 20
403.0738849605326
 30
0.0
 40
349.9999350000001
100
AcDbArc
 50
0.0
 51
8.895804000000016
  0
ARC
  5
16E
330
1B
100
AcDbEntity
  8
4
100
AcDbCircle
 10
1847.515934782634
 20
456.4239849605327
 30
0.0
 40
5.000084999999999
100
AcDbArc
 50
8.89569500000057
 51
81.10430500000214
  0
ARC
  5
16F
330
1B
100
AcDbEntity
  8
4
100
AcDbCircle
 10
1851.815249782634
 20
460.7232999605327
 30
0.0
 40
4.999979999999999
100
AcDbArc
 50
9.618697999999712
 51
80.38130200000033
  0
LINE
  5
170
330
1B
100
AcDbEntity
  8
L-CENTER
 48
3.0
100
AcDbLine
 10
1909.165834782634
 20
328.0738849605328
 30
0.0
 11
1909.165834782634
 21
253.0738849605328
 31
0.0
  0
LINE
  5
171
330
1B
100
AcDbEntity
  8
4
100
AcDbLine
 10
1927.165834782634
 20
354.7814049605328
 30
0.0
 11
1927.165834782634
 21
403.0738849605326
 31
0.0
  0
LINE
  5
172
330
1B
100
AcDbEntity
  8
4
100
AcDbLine
 10
1944.165834782634
 20
308.0738849605328
 30
0.0
 11
1909.588929782634
 21
403.0738849605326
 31
0.0
  0
LINE
  5
173
330
1B
100
AcDbEntity
  8
L-CENTER
 48
3.0
100
AcDbLine
 10
1924.667789782634
 20
361.2364849605327
 30
0.0
 11
1935.382634782634
 21
361.6107499605326
 31
0.0
  0
LINE
  5
174
330
1B
100
AcDbEntity
  8
L-CENTER
 48
3.0
100
AcDbLine
 10
1924.667789782634
 20
346.9110449605326
 30
0.0
 11
1935.382634782634
 21
346.5367749605329
 31
0.0
  0
LINE
  5
175
330
1B
100
AcDbEntity
  8
L-CENTER
 48
3.0
100
AcDbLine
 10
1914.389714782634
 20
354.0738849605326
 30
0.0
 11
1938.859884891403
 21
354.0738849605326
 31
0.0
  0
LINE
  5
176
330
1B
100
AcDbEntity
  8
4
100
AcDbLine
 10
1932.815739782634
 20
362.6026949605329
 30
0.0
 11
1927.165834782634
 21
362.4054299605326
 31
0.0
  0
LINE
  5
177
330
1B
100
AcDbEntity
  8
4
100
AcDbLine
 10
1898.165834782634
 20
273.0738849605328
 30
0.0
 11
1898.165834782634
 21
308.0738849605328
 31
0.0
  0
LINE
  5
178
330
1B
100
AcDbEntity
  8
4
100
AcDbLine
 10
1920.165834782634
 20
273.0738849605328
 30
0.0
 11
1920.165834782634
 21
308.0738849605328
 31
0.0
  0
LINE
  5
179
330
1B
100
AcDbEntity
  8
4
100
AcDbLine
 10
1944.165834782634
 20
308.0738849605328
 30
0.0
 11
1944.165834782634
 21
273.0738849605328
 31
0.0
  0
LINE
  5
17A
330
1B
100
AcDbEntity
  8
4
100
AcDbLine
 10
1932.815739782634
 20
345.5448349605327
 30
0.0
 11
1932.815739782634
 21
354.0738849605326
 31
0.0
  0
LINE
  5
17B
330
1B
100
AcDbEntity
  8
4
100
AcDbLine
 10
1932.815739782634
 20
362.6026949605329
 30
0.0
 11
1932.815739782634
 21
354.0736399605329
 31
0.0
  0
LINE
  5
17C
330
1B
100
AcDbEntity
  8
4
100
AcDbLine
 10
1930.498109782634
 20
345.6256449605329
 30
0.0
 11
1932.815739782634
 21
345.5448349605327
 31
0.0
  0
LINE
  5
17D
330
1B
100
AcDbEntity
  8
L-CENTER
 48
3.0
100
AcDbLine
 10
1908.128969782634
 20
482.0738849605328
 30
0.0
 11
1945.470769782634
 21
482.0738849605328
 31
0.0
  0
LINE
  5
17E
330
1B
100
AcDbEntity
  8
4
100
AcDbLine
 10
1929.165834782634
 20
475.0738849605328
 30
0.0
 11
1927.165834782634
 21
475.0738849605328
 31
0.0
  0
LINE
  5
17F
330
1B
100
AcDbEntity
  8
4
100
AcDbLine
 10
1929.165834782634
 20
403.0738849605326
 30
0.0
 11
1927.165834782634
 21
403.0738849605326
 31
0.0
  0
LINE
  5
180
330
1B
100
AcDbEntity
  8
4
100
AcDbLine
 10
1929.165834782634
 20
475.0738849605328
 30
0.0
 11
1929.165834782634
 21
403.0738849605326
 31
0.0
  0
LINE
  5
181
330
1B
100
AcDbEntity
  8
4
100
AcDbLine
 10
1931.165834782634
 20
491.0738849605328
 30
0.0
 11
1936.165834782634
 21
491.0738849605328
 31
0.0
  0
LINE
  5
182
330
1B
100
AcDbEntity
  8
4
100
AcDbLine
 10
1929.165834782634
 20
464.0738849605326
 30
0.0
 11
1936.165834782634
 21
464.0738849605326
 31
0.0
  0
LINE
  5
183
330
1B
100
AcDbEntity
  8
4
100
AcDbLine
 10
1931.165834782634
 20
473.0738849605328
 30
0.0
 11
1936.165834782634
 21
473.0738849605328
 31
0.0
  0
LINE
  5
184
330
1B
100
AcDbEntity
  8
4
100
AcDbLine
 10
1794.165834782634
 20
558.3738849605325
 30
0.0
 11
1744.165834782634
 21
558.3738849605325
 31
0.0
  0
LINE
  5
185
330
1B
100
AcDbEntity
  8
4
100
AcDbLine
 10
1729.165880302183
 20
551.3738849605325
 30
0.0
 11
1729.165837564378
 21
568.2738874893971
 31
0.0
  0
LINE
  5
186
330
1B
100
AcDbEntity
  8
4
100
AcDbLine
 10
1744.165834782634
 20
558.3738849605325
 30
0.0
 11
1744.165834782634
 21
551.3738849605325
 31
0.0
  0
LINE
  5
187
330
1B
100
AcDbEntity
  8
4
100
AcDbLine
 10
1794.165834782634
 20
558.3738849605325
 30
0.0
 11
1794.165834782634
 21
551.3738849605325
 31
0.0
  0
LINE
  5
188
330
1B
100
AcDbEntity
  8
L-CENTER
 48
3.0
100
AcDbLine
 10
1848.165834782634
 20
621.7238886420873
 30
0.0
 11
1848.165834782634
 21
531.5606549605327
 31
0.0
  0
ARC
  5
189
330
1B
100
AcDbEntity
  8
4
100
AcDbCircle
 10
1848.165834782634
 20
580.5220799605327
 30
0.0
 40
30.00005
100
AcDbArc
 50
314.7924602546627
 51
240.4502499999994
  0
LINE
  5
18A
330
1B
100
AcDbEntity
  8
4
100
AcDbLine
 10
1833.742494782634
 20
561.5220799605327
 30
0.0
 11
1847.681036215086
 21
561.5220799605327
 31
0.0
  0
LINE
  5
18B
330
1B
100
AcDbEntity
  8
4
100
AcDbLine
 10
1833.742494782634
 20
561.5220799605327
 30
0.0
 11
1848.165834782634
 21
563.0220799605327
 31
0.0
  0
CIRCLE
  5
18C
330
1B
100
AcDbEntity
  8
4
100
AcDbCircle
 10
1848.165834782634
 20
580.5220799605327
 30
0.0
 40
17.5
  0
LINE
  5
18D
330
1B
100
AcDbEntity
  8
L-CENTER
 48
3.0
100
AcDbLine
 10
1889.367643464189
 20
580.5220799605327
 30
0.0
 11
1806.964026101079
 21
580.5220799605327
 31
0.0
  0
LINE
  5
18E
330
1B
100
AcDbEntity
  8
4
100
AcDbLine
 10
1833.210489498207
 20
551.3738849605325
 30
0.0
 11
1833.742494782634
 21
561.5220799605327
 31
0.0
  0
LINE
  5
18F
330
1B
100
AcDbEntity
  8
4
100
AcDbLine
 10
1862.964100979587
 20
554.3738849604679
 30
0.0
 11
1862.589419782634
 21
561.5220799605327
 31
0.0
  0
LINE
  5
190
330
1B
100
AcDbEntity
  8
4
100
AcDbLine
 10
1848.165834782634
 20
563.0220799605327
 30
0.0
 11
1854.398698569286
 21
562.3738849604701
 31
0.0
  0
LINE
  5
191
330
1B
100
AcDbEntity
  8
4
100
AcDbLine
 10
1929.165834782634
 20
499.0738849605327
 30
0.0
 11
1927.165834782634
 21
499.0738849605327
 31
0.0
  0
LINE
  5
192
330
1B
100
AcDbEntity
  8
4
100
AcDbLine
 10
1908.165834782634
 20
549.3738849605325
 30
0.0
 11
1908.165834782634
 21
526.0738849605327
 31
0.0
  0
LINE
  5
193
330
1B
100
AcDbEntity
  8
4
100
AcDbLine
 10
1927.165834782634
 20
503.0738849605327
 30
0.0
 11
1923.165834782634
 21
503.0738849605327
 31
0.0
  0
LINE
  5
194
330
1B
100
AcDbEntity
  8
4
100
AcDbLine
 10
1929.165834782634
 20
500.0738849605327
 30
0.0
 11
1936.165834782634
 21
500.0738849605327
 31
0.0
  0
LINE
  5
20E
330
1B
100
AcDbEntity
  8
4
100
AcDbLine
 10
940.7907419865833
 20
1389.00492742611
 30
0.0
 11
940.7907419865833
 21
1461.50492742611
 31
0.0
  0
LINE
  5
20F
330
1B
100
AcDbEntity
  8
L-CENTER
 48
3.0
100
AcDbLine
 10
895.7907419865833
 20
1410.50492742611
 30
0.0
 11
895.7907419865833
 21
1462.50492742611
 31
0.0
  0
LINE
  5
210
330
1B
100
AcDbEntity
  8
4
100
AcDbLine
 10
915.7907419865842
 20
1389.00492742611
 30
0.0
 11
778.4296952657378
 21
1435.310357385822
 31
0.0
  0
LINE
  5
211
330
1B
100
AcDbEntity
  8
L-CENTER
 48
3.0
100
AcDbLine
 10
685.7907419865833
 20
857.8660635373343
 30
0.0
 11
685.7907419865833
 21
1470.50492742611
 31
0.0
  0
LINE
  5
212
330
1B
100
AcDbEntity
  8
4
100
AcDbLine
 10
430.7907419865833
 20
1389.00492742611
 30
0.0
 11
430.7907419865833
 21
1461.50492742611
 31
0.0
  0
LINE
  5
213
330
1B
100
AcDbEntity
  8
L-CENTER
 48
3.0
100
AcDbLine
 10
475.7907419865833
 20
1410.50492742611
 30
0.0
 11
475.7907419865833
 21
1462.50492742611
 31
0.0
  0
LINE
  5
214
330
1B
100
AcDbEntity
  8
4
100
AcDbLine
 10
455.7907419865824
 20
1389.00492742611
 30
0.0
 11
593.1517887074288
 21
1435.310357385822
 31
0.0
  0
CIRCLE
  5
215
330
1B
100
AcDbEntity
  8
4
100
AcDbCircle
 10
685.7907419865833
 20
1160.50492742611
 30
0.0
 40
289.9999999999999
  0
LINE
  5
216
330
1B
100
AcDbEntity
  8
L-CENTER
 48
3.0
100
AcDbLine
 10
383.1518780978079
 20
1160.50492742611
 30
0.0
 11
988.4296058753587
 21
1160.50492742611
 31
0.0
  0
LINE
  5
217
330
1B
100
AcDbEntity
  8
L-CENTER
 48
3.0
100
AcDbLine
 10
281.191730481461
 20
1321.50492742611
 30
0.0
 11
996.2730486400989
 21
1321.50492742611
 31
0.0
  0
LINE
  5
218
330
1B
100
AcDbEntity
  8
4
100
AcDbLine
 10
570.7907419865833
 20
876.5049274261102
 30
0.0
 11
570.7907419865833
 21
894.2813371866272
 31
0.0
  0
LINE
  5
219
330
1B
100
AcDbEntity
  8
4
100
AcDbLine
 10
430.7907419865833
 20
876.5049274261102
 30
0.0
 11
430.7907419865833
 21
996.5049274261092
 31
0.0
  0
LINE
  5
21A
330
1B
100
AcDbEntity
  8
L-CENTER
 48
3.0
100
AcDbLine
 10
475.7907419865833
 20
875.5049274261099
 30
0.0
 11
475.7907419865833
 21
927.5049274261099
 31
0.0
  0
LINE
  5
21B
330
1B
100
AcDbEntity
  8
4
100
AcDbLine
 10
550.7907419865833
 20
876.5049274261102
 30
0.0
 11
550.7907419865833
 21
903.8436720718981
 31
0.0
  0
LINE
  5
21C
330
1B
100
AcDbEntity
  8
4
100
AcDbLine
 10
440.7907419865833
 20
866.5049274261104
 30
0.0
 11
560.7907419865833
 21
866.5049274261104
 31
0.0
  0
ARC
  5
21D
330
1B
100
AcDbEntity
  8
4
100
AcDbCircle
 10
440.7907419865833
 20
876.5049274261102
 30
0.0
 40
10.0
100
AcDbArc
 50
180.0
 51
270.0
  0
ARC
  5
21E
330
1B
100
AcDbEntity
  8
4
100
AcDbCircle
 10
560.7907419865833
 20
876.5049274261102
 30
0.0
 40
10.0
100
AcDbArc
 50
270.0
 51
0.0
  0
ARC
  5
21F
330
1B
100
AcDbEntity
  8
4
100
AcDbCircle
 10
540.7907419865833
 20
876.5049274261102
 30
0.0
 40
10.0
100
AcDbArc
 50
270.0
 51
0.0
  0
LINE
  5
220
330
1B
100
AcDbEntity
  8
L-CENTER
 48
3.0
100
AcDbLine
 10
501.7907419865833
 20
901.5049274261099
 30
0.0
 11
449.7907419865833
 21
901.5049274261099
 31
0.0
  0
ARC
  5
221
330
1B
100
AcDbEntity
  8
4
100
AcDbCircle
 10
440.7907419865833
 20
996.5049274261092
 30
0.0
 40
10.0
100
AcDbArc
 50
94.10300112956489
 51
180.0
  0
CIRCLE
  5
222
330
1B
100
AcDbEntity
  8
4
100
AcDbCircle
 10
475.7907419865833
 20
901.5049274261099
 30
0.0
 40
11.0
  0
LINE
  5
223
330
1B
100
AcDbEntity
  8
4
100
AcDbLine
 10
395.7907419865833
 20
1160.50492742611
 30
0.0
 11
395.7907419865837
 21
1387.00492742611
 31
0.0
  0
LINE
  5
224
330
1B
100
AcDbEntity
  8
4
100
AcDbLine
 10
390.7907419865837
 20
1259.00492742611
 30
0.0
 11
390.7907419865837
 21
1384.00492742611
 31
0.0
  0
LINE
  5
225
330
1B
100
AcDbEntity
  8
4
100
AcDbLine
 10
395.7907419865833
 20
1259.00492742611
 30
0.0
 11
390.7907419865837
 21
1259.00492742611
 31
0.0
  0
LINE
  5
226
330
1B
100
AcDbEntity
  8
4
100
AcDbLine
 10
395.7907419865837
 20
1384.00492742611
 30
0.0
 11
390.7907419865837
 21
1384.00492742611
 31
0.0
  0
ARC
  5
227
330
1B
100
AcDbEntity
  8
4
100
AcDbCircle
 10
397.7907419865837
 20
1387.00492742611
 30
0.0
 40
2.0
100
AcDbArc
 50
90.0
 51
180.0
  0
LINE
  5
228
330
1B
100
AcDbEntity
  8
4
100
AcDbLine
 10
455.7907419865819
 20
1389.00492742611
 30
0.0
 11
397.7907419865837
 21
1389.00492742611
 31
0.0
  0
LINE
  5
229
330
1B
100
AcDbEntity
  8
L-CENTER
 48
3.0
100
AcDbLine
 10
795.7907419865833
 20
1054.856543211596
 30
0.0
 11
795.7907419865833
 21
1238.153311640623
 31
0.0
  0
LINE
  5
22A
330
1B
100
AcDbEntity
  8
L-CENTER
 48
3.0
100
AcDbLine
 10
604.3775762951918
 20
1266.508596793038
 30
0.0
 11
604.3775762951918
 21
1056.501258059182
 31
0.0
  0
LINE
  5
22B
330
1B
100
AcDbEntity
  8
4
100
AcDbLine
 10
810.7907419865833
 20
866.5049274261104
 30
0.0
 11
930.7907419865833
 21
866.5049274261097
 31
0.0
  0
LINE
  5
22C
330
1B
100
AcDbEntity
  8
4
100
AcDbLine
 10
800.7907419865833
 20
876.5049274261102
 30
0.0
 11
800.7907419865833
 21
894.2813371866272
 31
0.0
  0
LINE
  5
22D
330
1B
100
AcDbEntity
  8
4
100
AcDbLine
 10
820.7907419865833
 20
876.5049274261102
 30
0.0
 11
820.7907419865833
 21
897.8740076927321
 31
0.0
  0
ARC
  5
22E
330
1B
100
AcDbEntity
  8
4
100
AcDbCircle
 10
810.7907419865833
 20
876.5049274261102
 30
0.0
 40
10.0
100
AcDbArc
 50
180.0
 51
270.0
  0
ARC
  5
22F
330
1B
100
AcDbEntity
  8
4
100
AcDbCircle
 10
830.7907419865833
 20
876.5049274261102
 30
0.0
 40
10.0
100
AcDbArc
 50
180.0
 51
270.0
  0
ARC
  5
230
330
1B
100
AcDbEntity
  8
4
100
AcDbCircle
 10
830.7907419865833
 20
897.8740076927321
 30
0.0
 40
10.0
100
AcDbArc
 50
118.9033345398453
 51
180.0
  0
LINE
  5
231
330
1B
100
AcDbEntity
  8
4
100
AcDbLine
 10
940.7907419865833
 20
876.5049274261097
 30
0.0
 11
940.7907419865833
 21
996.5049274261097
 31
0.0
  0
LINE
  5
232
330
1B
100
AcDbEntity
  8
L-CENTER
 48
3.0
100
AcDbLine
 10
895.7907419865833
 20
875.5049274261099
 30
0.0
 11
895.7907419865833
 21
927.5049274261099
 31
0.0
  0
ARC
  5
233
330
1B
100
AcDbEntity
  8
4
100
AcDbCircle
 10
930.7907419865833
 20
876.5049274261097
 30
0.0
 40
10.0
100
AcDbArc
 50
270.0
 51
0.0
  0
CIRCLE
  5
234
330
1B
100
AcDbEntity
  8
4
100
AcDbCircle
 10
895.7907419865833
 20
901.5049274261099
 30
0.0
 40
11.0
  0
LINE
  5
235
330
1B
100
AcDbEntity
  8
L-CENTER
 48
3.0
100
AcDbLine
 10
869.7907419865833
 20
901.5049274261099
 30
0.0
 11
921.7907419865833
 21
901.5049274261099
 31
0.0
  0
ARC
  5
236
330
1B
100
AcDbEntity
  8
4
100
AcDbCircle
 10
930.7907419865833
 20
996.5049274261097
 30
0.0
 40
10.0
100
AcDbArc
 50
0.0
 51
85.89699887043513
  0
LINE
  5
237
330
1B
100
AcDbEntity
  8
L-CENTER
 48
3.0
100
AcDbLine
 10
704.1423577720698
 20
1146.50492742611
 30
0.0
 11
887.4391262010968
 21
1146.50492742611
 31
0.0
  0
LINE
  5
238
330
1B
100
AcDbEntity
  8
4
100
AcDbLine
 10
975.7907419865833
 20
1160.50492742611
 30
0.0
 11
975.7907419865842
 21
1387.00492742611
 31
0.0
  0
LINE
  5
239
330
1B
100
AcDbEntity
  8
4
100
AcDbLine
 10
980.7907419865833
 20
1259.00492742611
 30
0.0
 11
980.7907419865842
 21
1384.00492742611
 31
0.0
  0
LINE
  5
23A
330
1B
100
AcDbEntity
  8
4
100
AcDbLine
 10
980.7907419865833
 20
1259.00492742611
 30
0.0
 11
975.7907419865833
 21
1259.00492742611
 31
0.0
  0
LINE
  5
23B
330
1B
100
AcDbEntity
  8
4
100
AcDbLine
 10
973.7907419865842
 20
1389.00492742611
 30
0.0
 11
915.7907419865851
 21
1389.00492742611
 31
0.0
  0
LINE
  5
23C
330
1B
100
AcDbEntity
  8
4
100
AcDbLine
 10
980.7907419865842
 20
1384.00492742611
 30
0.0
 11
975.7907419865842
 21
1384.00492742611
 31
0.0
  0
ARC
  5
23D
330
1B
100
AcDbEntity
  8
4
100
AcDbCircle
 10
973.7907419865842
 20
1387.00492742611
 30
0.0
 40
2.0
100
AcDbArc
 50
0.0
 51
90.0
  0
LINE
  5
23E
330
1B
100
AcDbEntity
  8
L-CENTER
 48
3.0
100
AcDbLine
 10
501.7907419865833
 20
1436.50492742611
 30
0.0
 11
449.7907419865833
 21
1436.50492742611
 31
0.0
  0
LINE
  5
23F
330
1B
100
AcDbEntity
  8
4
100
AcDbLine
 10
440.7907419865833
 20
1471.50492742611
 30
0.0
 11
560.7907419865833
 21
1471.50492742611
 31
0.0
  0
ARC
  5
240
330
1B
100
AcDbEntity
  8
4
100
AcDbCircle
 10
440.7907419865833
 20
1461.50492742611
 30
0.0
 40
10.0
100
AcDbArc
 50
90.0
 51
180.0
  0
CIRCLE
  5
241
330
1B
100
AcDbEntity
  8
4
100
AcDbCircle
 10
475.7907419865833
 20
1436.50492742611
 30
0.0
 40
11.0
  0
ARC
  5
242
330
1B
100
AcDbEntity
  8
4
100
AcDbCircle
 10
560.7907419865833
 20
1461.50492742611
 30
0.0
 40
10.0
100
AcDbArc
 50
0.0
 51
90.0
  0
ARC
  5
243
330
1B
100
AcDbEntity
  8
4
100
AcDbCircle
 10
540.7907419865833
 20
1461.50492742611
 30
0.0
 40
10.0
100
AcDbArc
 50
0.0
 51
90.0
  0
ARC
  5
244
330
1B
100
AcDbEntity
  8
4
100
AcDbCircle
 10
540.7907419865833
 20
1428.2119803228
 30
0.0
 40
10.0
100
AcDbArc
 50
288.6293439997949
 51
0.0
  0
LINE
  5
245
330
1B
100
AcDbEntity
  8
4
100
AcDbLine
 10
570.7907419865833
 20
1427.772282309398
 30
0.0
 11
570.7907419865833
 21
1461.50492742611
 31
0.0
  0
LINE
  5
246
330
1B
100
AcDbEntity
  8
4
100
AcDbLine
 10
550.7907419865833
 20
1428.2119803228
 30
0.0
 11
550.7907419865833
 21
1461.50492742611
 31
0.0
  0
LINE
  5
247
330
1B
100
AcDbEntity
  8
4
100
AcDbLine
 10
810.7907419865833
 20
1471.50492742611
 30
0.0
 11
930.7907419865833
 21
1471.50492742611
 31
0.0
  0
LINE
  5
248
330
1B
100
AcDbEntity
  8
4
100
AcDbLine
 10
705.7907419865833
 20
1449.814450255898
 30
0.0
 11
705.7907419865833
 21
1455.50492742611
 31
0.0
  0
LINE
  5
249
330
1B
100
AcDbEntity
  8
4
100
AcDbLine
 10
665.7907419865833
 20
1449.814450255898
 30
0.0
 11
665.7907419865833
 21
1455.50492742611
 31
0.0
  0
LINE
  5
24A
330
1B
100
AcDbEntity
  8
4
100
AcDbLine
 10
665.7907419865833
 20
1455.50492742611
 30
0.0
 11
705.7907419865833
 21
1455.50492742611
 31
0.0
  0
ARC
  5
24B
330
1B
100
AcDbEntity
  8
4
100
AcDbCircle
 10
810.7907419865833
 20
1461.50492742611
 30
0.0
 40
10.0
100
AcDbArc
 50
90.0
 51
180.0
  0
ARC
  5
24C
330
1B
100
AcDbEntity
  8
4
100
AcDbCircle
 10
830.7907419865833
 20
1461.50492742611
 30
0.0
 40
10.0
100
AcDbArc
 50
90.0
 51
180.0
  0
ARC
  5
24D
330
1B
100
AcDbEntity
  8
4
100
AcDbCircle
 10
830.7907419865833
 20
1428.2119803228
 30
0.0
 40
10.0
100
AcDbArc
 50
180.0
 51
251.3706560002045
  0
LINE
  5
24E
330
1B
100
AcDbEntity
  8
4
100
AcDbLine
 10
800.7907419865833
 20
1427.772282309398
 30
0.0
 11
800.7907419865833
 21
1461.50492742611
 31
0.0
  0
LINE
  5
24F
330
1B
100
AcDbEntity
  8
4
100
AcDbLine
 10
820.7907419865833
 20
1428.2119803228
 30
0.0
 11
820.7907419865833
 21
1461.50492742611
 31
0.0
  0
ARC
  5
250
330
1B
100
AcDbEntity
  8
4
100
AcDbCircle
 10
930.7907419865833
 20
1461.50492742611
 30
0.0
 40
10.0
100
AcDbArc
 50
0.0
 51
90.0
  0
LINE
  5
251
330
1B
100
AcDbEntity
  8
L-CENTER
 48
3.0
100
AcDbLine
 10
869.7907419865833
 20
1436.50492742611
 30
0.0
 11
921.7907419865833
 21
1436.50492742611
 31
0.0
  0
CIRCLE
  5
252
330
1B
100
AcDbEntity
  8
4
100
AcDbCircle
 10
895.7907419865833
 20
1436.50492742611
 30
0.0
 40
11.0
  0
ARC
  5
253
330
1B
100
AcDbEntity
  8
4
100
AcDbCircle
 10
685.7907419865837
 20
1375.50492742611
 30
0.0
 40
24.0
100
AcDbArc
 50
285.0947870995423
 51
74.90521290045805
  0
LINE
  5
254
330
1B
100
AcDbEntity
  8
L-CENTER
 48
3.0
100
AcDbLine
 10
645.7907419865833
 20
1375.50492742611
 30
0.0
 11
725.7907419865833
 21
1375.50492742611
 31
0.0
  0
ARC
  5
255
330
1B
100
AcDbEntity
  8
4
100
AcDbCircle
 10
685.7907419865833
 20
945.5049274261102
 30
0.0
 40
24.0
100
AcDbArc
 50
105.0947870995432
 51
254.9052129004568
  0
LINE
  5
256
330
1B
100
AcDbEntity
  8
L-CENTER
 48
3.0
100
AcDbLine
 10
645.7907419865833
 20
945.5049274261097
 30
0.0
 11
725.7907419865833
 21
945.5049274261097
 31
0.0
  0
LINE
  5
257
330
1B
100
AcDbEntity
  8
L-CENTER
 48
3.0
100
AcDbLine
 10
499.3739069282638
 20
1161.50492742611
 30
0.0
 11
709.3812456621199
 21
1161.50492742611
 31
0.0
  0
CIRCLE
  5
258
330
1B
100
AcDbEntity
  8
4
100
AcDbCircle
 10
685.7907419865837
 20
1296.50492742611
 30
0.0
 40
25.0
  0
ARC
  5
259
330
1B
100
AcDbEntity
  8
4
100
AcDbCircle
 10
685.7907419865837
 20
1678.50492742611
 30
0.0
 40
650.0
100
AcDbArc
 50
249.5106799506331
 51
267.8066169873769
  0
ARC
  5
25A
330
1B
100
AcDbEntity
  8
4
100
AcDbCircle
 10
685.7907419865837
 20
1678.50492742611
 30
0.0
 40
650.0
100
AcDbArc
 50
272.1933830126231
 51
290.4893200493669
  0
CIRCLE
  5
25B
330
1B
100
AcDbEntity
  8
4
100
AcDbCircle
 10
685.7907419865837
 20
1160.50492742611
 30
0.0
 40
245.0
  0
CIRCLE
  5
25C
330
1B
100
AcDbEntity
  8
L-CENTER
 48
3.0
100
AcDbCircle
 10
685.7907419865837
 20
1160.50492742611
 30
0.0
 40
260.0
  0
CIRCLE
  5
25D
330
1B
100
AcDbEntity
  8
4
100
AcDbCircle
 10
685.7907419865837
 20
1160.50492742611
 30
0.0
 40
275.0
  0
CIRCLE
  5
25E
330
1B
100
AcDbEntity
  8
4
100
AcDbCircle
 10
604.3775762951923
 20
1161.50492742611
 30
0.0
 40
95.0
  0
LINE
  5
25F
330
1B
100
AcDbEntity
  8
L-CENTER
 48
3.0
100
AcDbLine
 10
545.7907419865833
 20
918.0178143664667
 30
0.0
 11
565.7907419865842
 21
952.6588305178444
 31
0.0
  0
ARC
  5
260
330
1B
100
AcDbEntity
  8
4
100
AcDbCircle
 10
685.7907419865828
 20
644.5049274261102
 30
0.0
 40
650.0
100
AcDbArc
 50
92.19338301262312
 51
110.3994507482501
  0
LINE
  5
261
330
1B
100
AcDbEntity
  8
L-CENTER
 48
3.0
100
AcDbLine
 10
545.7907419865833
 20
1402.992040485753
 30
0.0
 11
565.7907419865842
 21
1368.351024334375
 31
0.0
  0
CIRCLE
  5
262
330
1B
100
AcDbEntity
  8
4
100
AcDbCircle
 10
795.7907419865837
 20
1146.50492742611
 30
0.0
 40
80.0
  0
LINE
  5
263
330
1B
100
AcDbEntity
  8
L-CENTER
 48
3.0
100
AcDbLine
 10
825.7907419865833
 20
918.0178143664667
 30
0.0
 11
805.7907419865824
 21
952.6588305178444
 31
0.0
  0
ARC
  5
264
330
1B
100
AcDbEntity
  8
4
100
AcDbCircle
 10
685.7907419865828
 20
644.5049274261102
 30
0.0
 40
650.0
100
AcDbArc
 50
69.60054925174992
 51
87.80661698737677
  0
LINE
  5
265
330
1B
100
AcDbEntity
  8
L-CENTER
 48
3.0
100
AcDbLine
 10
825.7907419865833
 20
1402.992040485753
 30
0.0
 11
805.7907419865824
 21
1368.351024334375
 31
0.0
  0
LINE
  5
266
330
1B
100
AcDbEntity
  8
4
100
AcDbLine
 10
990.6907419865832
 20
1259.00492742611
 30
0.0
 11
990.6907419865842
 21
1384.00492742611
 31
0.0
  0
LINE
  5
267
330
1B
100
AcDbEntity
  8
4
100
AcDbLine
 10
380.8907419865837
 20
1259.00492742611
 30
0.0
 11
380.8907419865837
 21
1384.00492742611
 31
0.0
  0
LINE
  5
268
330
1B
100
AcDbEntity
  8
4
100
AcDbLine
 10
980.7907419865842
 20
1384.00492742611
 30
0.0
 11
990.6907419865842
 21
1384.00492742611
 31
0.0
  0
LINE
  5
269
330
1B
100
AcDbEntity
  8
4
100
AcDbLine
 10
980.7907419865833
 20
1259.00492742611
 30
0.0
 11
990.6907419865832
 21
1259.00492742611
 31
0.0
  0
LINE
  5
26A
330
1B
100
AcDbEntity
  8
4
100
AcDbLine
 10
380.8907419865833
 20
1384.00492742611
 30
0.0
 11
390.7907419865837
 21
1384.00492742611
 31
0.0
  0
LINE
  5
26B
330
1B
100
AcDbEntity
  8
4
100
AcDbLine
 10
380.8907419865833
 20
1259.00492742611
 30
0.0
 11
390.7907419865837
 21
1259.00492742611
 31
0.0
  0
LINE
  5
26C
330
1B
100
AcDbEntity
  8
2
100
AcDbLine
 10
390.4907419865837
 20
1259.00492742611
 30
0.0
 11
390.4907419865837
 21
1384.00492742611
 31
0.0
  0
LINE
  5
26D
330
1B
100
AcDbEntity
  8
2
100
AcDbLine
 10
981.0907419865833
 20
1259.00492742611
 30
0.0
 11
981.0907419865842
 21
1384.00492742611
 31
0.0
  0
LINE
  5
26F
330
1B
100
AcDbEntity
  8
L-CENTER
 48
3.0
100
AcDbLine
 10
559.4512954893584
 20
1206.431208231942
 30
0.0
 11
532.6312382052442
 21
1233.251265516057
 31
0.0
  0
LINE
  5
270
330
1B
100
AcDbEntity
  8
L-CENTER
 48
3.0
100
AcDbLine
 10
559.4512954893587
 20
1116.578646620276
 30
0.0
 11
532.6312382052442
 21
1089.758589336163
 31
0.0
  0
CIRCLE
  5
271
330
1B
100
AcDbEntity
  8
L-CENTER
 48
3.0
100
AcDbCircle
 10
604.3775762951918
 20
1161.50492742611
 30
0.0
 40
82.5
  0
CIRCLE
  5
272
330
1B
100
AcDbEntity
  8
4
100
AcDbCircle
 10
795.7907419865833
 20
1146.50492742611
 30
0.0
 40
45.0
  0
LINE
  5
273
330
1B
100
AcDbEntity
  8
L-CENTER
 48
3.0
100
AcDbLine
 10
763.2388298515145
 20
1113.953015291041
 30
0.0
 11
736.4187725674003
 21
1087.132958006927
 31
0.0
  0
LINE
  5
274
330
1B
100
AcDbEntity
  8
L-CENTER
 48
3.0
100
AcDbLine
 10
763.2388298515143
 20
1179.056839561178
 30
0.0
 11
736.4187725674005
 21
1205.876896845292
 31
0.0
  0
CIRCLE
  5
275
330
1B
100
AcDbEntity
  8
L-CENTER
 48
3.0
100
AcDbCircle
 10
795.7907419865833
 20
1146.50492742611
 30
0.0
 40
65.0
  0
LINE
  5
276
330
1B
100
AcDbEntity
  8
4
100
AcDbLine
 10
740.0138466332337
 20
577.8703580146798
 30
0.0
 11
740.0138466332337
 21
569.2738849605325
 31
0.0
  0
LINE
  5
277
330
1B
100
AcDbEntity
  8
4
100
AcDbLine
 10
759.6437557856812
 20
569.2738849605325
 30
0.0
 11
759.6437557856812
 21
577.8703580146798
 31
0.0
  0
LINE
  5
278
330
1B
100
AcDbEntity
  8
L-CENTER
 48
3.0
100
AcDbLine
 10
749.8288012094577
 20
547.6473624403891
 30
0.0
 11
749.8288012094577
 21
581.6418632151131
 31
0.0
  0
LINE
  5
279
330
1B
100
AcDbEntity
  8
4
100
AcDbLine
 10
740.0138466332337
 20
571.7738849605325
 30
0.0
 11
759.6437557856812
 21
571.7738849605325
 31
0.0
  0
ARC
  5
27A
330
1B
100
AcDbEntity
  8
4
100
AcDbCircle
 10
757.190017141625
 20
574.9902710314732
 30
0.0
 40
3.783613929059507
100
AcDbArc
 50
49.57010315516856
 51
130.4298968448217
  0
ARC
  5
27B
330
1B
100
AcDbEntity
  8
4
100
AcDbCircle
 10
749.8288012094577
 20
564.9947196630733
 30
0.0
 40
13.77916529745958
100
AcDbArc
 50
69.13593563608075
 51
110.8640643639193
  0
LINE
  5
27C
330
1B
100
AcDbEntity
  8
4
100
AcDbLine
 10
757.190017141625
 20
578.7738849605325
 30
0.0
 11
742.4675852772898
 21
578.7738849605325
 31
0.0
  0
ARC
  5
27D
330
1B
100
AcDbEntity
  8
4
100
AcDbCircle
 10
742.4675852772898
 20
574.9902710314732
 30
0.0
 40
3.783613929059507
100
AcDbArc
 50
49.57010315516856
 51
130.4298968448217
  0
LINE
  5
27E
330
1B
100
AcDbEntity
  8
4
100
AcDbLine
 10
754.7362784975694
 20
577.8703580146798
 30
0.0
 11
754.7362784975694
 21
571.7738849605325
 31
0.0
  0
LINE
  5
27F
330
1B
100
AcDbEntity
  8
4
100
AcDbLine
 10
744.9213239213454
 20
577.8703580146798
 30
0.0
 11
744.9213239213454
 21
571.7738849605325
 31
0.0
  0
LINE
  5
280
330
1B
100
AcDbEntity
  8
4
100
AcDbLine
 10
740.0138466332337
 20
569.2738849605325
 30
0.0
 11
759.6437557856812
 21
569.2738849605325
 31
0.0
  0
LINE
  5
281
330
1B
100
AcDbEntity
  8
4
100
AcDbLine
 10
539.1010459094159
 20
1212.901015936114
 30
0.0
 11
548.5815640184442
 21
1210.360718764971
 31
0.0
  0
LINE
  5
282
330
1B
100
AcDbEntity
  8
4
100
AcDbLine
 10
548.5815640184442
 20
1210.360718764971
 30
0.0
 11
555.5217849563301
 21
1217.300939702856
 31
0.0
  0
LINE
  5
283
330
1B
100
AcDbEntity
  8
4
100
AcDbLine
 10
552.9814877851868
 20
1226.781457811886
 30
0.0
 11
543.5009696761585
 21
1229.321754983028
 31
0.0
  0
CIRCLE
  5
284
330
1B
100
AcDbEntity
  8
4
100
AcDbCircle
 10
546.0412668473014
 20
1219.841236874
 30
0.0
 40
8.5
  0
LINE
  5
285
330
1B
100
AcDbEntity
  8
4
100
AcDbLine
 10
536.5607487382731
 20
1222.381534045142
 30
0.0
 11
539.1010459094159
 21
1212.901015936114
 31
0.0
  0
LINE
  5
286
330
1B
100
AcDbEntity
  8
4
100
AcDbLine
 10
543.5009696761585
 20
1229.321754983028
 30
0.0
 11
536.5607487382731
 21
1222.381534045142
 31
0.0
  0
LINE
  5
287
330
1B
100
AcDbEntity
  8
4
100
AcDbLine
 10
555.5217849563301
 20
1217.300939702856
 30
0.0
 11
552.9814877851868
 21
1226.781457811886
 31
0.0
  0
LINE
  5
288
330
1B
100
AcDbEntity
  8
4
100
AcDbLine
 10
742.8885802715722
 20
1185.526647265349
 30
0.0
 11
752.3690983806005
 21
1182.986350094207
 31
0.0
  0
LINE
  5
289
330
1B
100
AcDbEntity
  8
4
100
AcDbLine
 10
752.3690983806005
 20
1182.986350094207
 30
0.0
 11
759.3093193184859
 21
1189.926571032092
 31
0.0
  0
LINE
  5
28A
330
1B
100
AcDbEntity
  8
4
100
AcDbLine
 10
756.7690221473431
 20
1199.407089141121
 30
0.0
 11
747.2885040383148
 21
1201.947386312264
 31
0.0
  0
CIRCLE
  5
28B
330
1B
100
AcDbEntity
  8
4
100
AcDbCircle
 10
749.8288012094577
 20
1192.466868203236
 30
0.0
 40
8.5
  0
LINE
  5
28C
330
1B
100
AcDbEntity
  8
4
100
AcDbLine
 10
740.348283100429
 20
1195.007165374378
 30
0.0
 11
742.8885802715722
 21
1185.526647265349
 31
0.0
  0
LINE
  5
28D
330
1B
100
AcDbEntity
  8
4
100
AcDbLine
 10
747.2885040383148
 20
1201.947386312264
 30
0.0
 11
740.348283100429
 21
1195.007165374378
 31
0.0
  0
LINE
  5
28E
330
1B
100
AcDbEntity
  8
4
100
AcDbLine
 10
759.3093193184859
 20
1189.926571032092
 30
0.0
 11
756.7690221473431
 21
1199.407089141121
 31
0.0
  0
LINE
  5
28F
330
1B
100
AcDbEntity
  8
4
100
AcDbLine
 10
548.5815640184446
 20
1112.649136087248
 30
0.0
 11
539.1010459094155
 21
1110.108838916105
 31
0.0
  0
LINE
  5
290
330
1B
100
AcDbEntity
  8
4
100
AcDbLine
 10
536.5607487382727
 20
1100.628320807077
 30
0.0
 11
543.5009696761585
 21
1093.688099869191
 31
0.0
  0
LINE
  5
291
330
1B
100
AcDbEntity
  8
4
100
AcDbLine
 10
543.5009696761585
 20
1093.688099869191
 30
0.0
 11
552.9814877851873
 21
1096.228397040334
 31
0.0
  0
CIRCLE
  5
292
330
1B
100
AcDbEntity
  8
4
100
AcDbCircle
 10
546.0412668473014
 20
1103.16861797822
 30
0.0
 40
8.5
  0
LINE
  5
293
330
1B
100
AcDbEntity
  8
4
100
AcDbLine
 10
539.1010459094155
 20
1110.108838916105
 30
0.0
 11
536.5607487382727
 21
1100.628320807077
 31
0.0
  0
LINE
  5
294
330
1B
100
AcDbEntity
  8
4
100
AcDbLine
 10
555.5217849563301
 20
1105.708915149362
 30
0.0
 11
548.5815640184446
 21
1112.649136087248
 31
0.0
  0
LINE
  5
295
330
1B
100
AcDbEntity
  8
4
100
AcDbLine
 10
552.9814877851873
 20
1096.228397040334
 30
0.0
 11
555.5217849563301
 21
1105.708915149362
 31
0.0
  0
LINE
  5
296
330
1B
100
AcDbEntity
  8
4
100
AcDbLine
 10
752.3690983806009
 20
1110.023504758013
 30
0.0
 11
742.8885802715713
 21
1107.483207586869
 31
0.0
  0
LINE
  5
297
330
1B
100
AcDbEntity
  8
4
100
AcDbLine
 10
740.348283100429
 20
1098.002689477841
 30
0.0
 11
747.2885040383144
 21
1091.062468539955
 31
0.0
  0
LINE
  5
298
330
1B
100
AcDbEntity
  8
4
100
AcDbLine
 10
747.2885040383144
 20
1091.062468539955
 30
0.0
 11
756.7690221473431
 21
1093.602765711099
 31
0.0
  0
CIRCLE
  5
299
330
1B
100
AcDbEntity
  8
4
100
AcDbCircle
 10
749.8288012094572
 20
1100.542986648984
 30
0.0
 40
8.5
  0
LINE
  5
29A
330
1B
100
AcDbEntity
  8
4
100
AcDbLine
 10
742.8885802715713
 20
1107.483207586869
 30
0.0
 11
740.348283100429
 21
1098.002689477841
 31
0.0
  0
LINE
  5
29B
330
1B
100
AcDbEntity
  8
4
100
AcDbLine
 10
759.3093193184859
 20
1103.083283820127
 30
0.0
 11
752.3690983806009
 21
1110.023504758013
 31
0.0
  0
LINE
  5
29C
330
1B
100
AcDbEntity
  8
4
100
AcDbLine
 10
756.7690221473431
 20
1093.602765711099
 30
0.0
 11
759.3093193184859
 21
1103.083283820127
 31
0.0
  0
CIRCLE
  5
29D
330
1B
100
AcDbEntity
  8
4
100
AcDbCircle
 10
662.7138857430828
 20
1103.16861797822
 30
0.0
 40
8.5
  0
LINE
  5
29E
330
1B
100
AcDbEntity
  8
4
100
AcDbLine
 10
672.1944038521106
 20
1100.628320807077
 30
0.0
 11
665.2541829142251
 21
1093.688099869191
 31
0.0
  0
LINE
  5
29F
330
1B
100
AcDbEntity
  8
4
100
AcDbLine
 10
660.173588571939
 20
1112.649136087248
 30
0.0
 11
669.6541066809682
 21
1110.108838916105
 31
0.0
  0
LINE
  5
2A0
330
1B
100
AcDbEntity
  8
L-CENTER
 48
3.0
100
AcDbLine
 10
649.3038571010252
 20
1116.578646620276
 30
0.0
 11
676.1239143851396
 21
1089.758589336162
 31
0.0
  0
LINE
  5
2A1
330
1B
100
AcDbEntity
  8
4
100
AcDbLine
 10
669.6541066809682
 20
1110.108838916105
 30
0.0
 11
672.1944038521106
 21
1100.628320807077
 31
0.0
  0
LINE
  5
2A2
330
1B
100
AcDbEntity
  8
4
100
AcDbLine
 10
655.7736648051964
 20
1096.228397040334
 30
0.0
 11
653.2333676340536
 21
1105.708915149362
 31
0.0
  0
LINE
  5
2A3
330
1B
100
AcDbEntity
  8
4
100
AcDbLine
 10
653.2333676340536
 20
1105.708915149362
 30
0.0
 11
660.173588571939
 21
1112.649136087248
 31
0.0
  0
LINE
  5
2A4
330
1B
100
AcDbEntity
  8
4
100
AcDbLine
 10
665.2541829142251
 20
1093.688099869191
 30
0.0
 11
655.7736648051964
 21
1096.228397040334
 31
0.0
  0
LINE
  5
2A5
330
1B
100
AcDbEntity
  8
4
100
AcDbLine
 10
665.2541829142251
 20
1229.321754983028
 30
0.0
 11
672.1944038521106
 21
1222.381534045142
 31
0.0
  0
CIRCLE
  5
2A6
330
1B
100
AcDbEntity
  8
4
100
AcDbCircle
 10
662.7138857430823
 20
1219.841236874
 30
0.0
 40
8.5
  0
LINE
  5
2A7
330
1B
100
AcDbEntity
  8
4
100
AcDbLine
 10
669.6541066809677
 20
1212.901015936114
 30
0.0
 11
660.1735885719395
 21
1210.360718764971
 31
0.0
  0
LINE
  5
2A8
330
1B
100
AcDbEntity
  8
L-CENTER
 48
3.0
100
AcDbLine
 10
649.3038571010254
 20
1206.431208231943
 30
0.0
 11
676.1239143851394
 21
1233.251265516057
 31
0.0
  0
LINE
  5
2A9
330
1B
100
AcDbEntity
  8
4
100
AcDbLine
 10
672.1944038521106
 20
1222.381534045142
 30
0.0
 11
669.6541066809677
 21
1212.901015936114
 31
0.0
  0
LINE
  5
2AA
330
1B
100
AcDbEntity
  8
4
100
AcDbLine
 10
653.2333676340536
 20
1217.300939702856
 30
0.0
 11
655.7736648051969
 21
1226.781457811886
 31
0.0
  0
LINE
  5
2AB
330
1B
100
AcDbEntity
  8
4
100
AcDbLine
 10
655.7736648051969
 20
1226.781457811886
 30
0.0
 11
665.2541829142251
 21
1229.321754983028
 31
0.0
  0
LINE
  5
2AC
330
1B
100
AcDbEntity
  8
4
100
AcDbLine
 10
660.1735885719395
 20
1210.360718764971
 30
0.0
 11
653.2333676340536
 21
1217.300939702856
 31
0.0
  0
CIRCLE
  5
2AD
330
1B
100
AcDbEntity
  8
4
100
AcDbCircle
 10
841.7526827637225
 20
1100.54298664899
 30
0.0
 40
8.5
  0
LINE
  5
2AE
330
1B
100
AcDbEntity
  8
4
100
AcDbLine
 10
851.2332008727512
 20
1098.002689477848
 30
0.0
 11
844.2929799348663
 21
1091.062468539962
 31
0.0
  0
LINE
  5
2AF
330
1B
100
AcDbEntity
  8
4
100
AcDbLine
 10
839.2123855925779
 20
1110.023504758018
 30
0.0
 11
848.6929037016071
 21
1107.483207586876
 31
0.0
  0
LINE
  5
2B0
330
1B
100
AcDbEntity
  8
4
100
AcDbLine
 10
844.2929799348522
 20
1201.94738631227
 30
0.0
 11
851.2332008727385
 21
1195.007165374385
 31
0.0
  0
CIRCLE
  5
2B1
330
1B
100
AcDbEntity
  8
4
100
AcDbCircle
 10
841.7526827637103
 20
1192.466868203241
 30
0.0
 40
8.5
  0
LINE
  5
2B2
330
1B
100
AcDbEntity
  8
4
100
AcDbLine
 10
848.6929037015971
 20
1185.526647265356
 30
0.0
 11
839.2123855925688
 21
1182.986350094212
 31
0.0
  0
LINE
  5
2B3
330
1B
100
AcDbEntity
  8
L-CENTER
 48
3.0
100
AcDbLine
 10
828.3426541216554
 20
1179.056839561182
 30
0.0
 11
855.1627114057655
 21
1205.8768968453
 31
0.0
  0
LINE
  5
2B4
330
1B
100
AcDbEntity
  8
L-CENTER
 48
3.0
100
AcDbLine
 10
828.3426541216636
 20
1113.953015291045
 30
0.0
 11
855.162711405781
 21
1087.132958006934
 31
0.0
  0
LINE
  5
2B5
330
1B
100
AcDbEntity
  8
4
100
AcDbLine
 10
848.6929037016071
 20
1107.483207586876
 30
0.0
 11
851.2332008727512
 21
1098.002689477848
 31
0.0
  0
LINE
  5
2B6
330
1B
100
AcDbEntity
  8
4
100
AcDbLine
 10
851.2332008727385
 20
1195.007165374385
 30
0.0
 11
848.6929037015971
 21
1185.526647265356
 31
0.0
  0
LINE
  5
2B7
330
1B
100
AcDbEntity
  8
4
100
AcDbLine
 10
834.8124618258371
 20
1093.602765711103
 30
0.0
 11
832.2721646546934
 21
1103.083283820131
 31
0.0
  0
LINE
  5
2B8
330
1B
100
AcDbEntity
  8
4
100
AcDbLine
 10
832.2721646546934
 20
1103.083283820131
 30
0.0
 11
839.2123855925779
 21
1110.023504758018
 31
0.0
  0
LINE
  5
2B9
330
1B
100
AcDbEntity
  8
4
100
AcDbLine
 10
844.2929799348663
 20
1091.062468539962
 30
0.0
 11
834.8124618258371
 21
1093.602765711103
 31
0.0
  0
LINE
  5
2BA
330
1B
100
AcDbEntity
  8
4
100
AcDbLine
 10
832.2721646546825
 20
1189.926571032096
 30
0.0
 11
834.8124618258239
 21
1199.407089141126
 31
0.0
  0
LINE
  5
2BB
330
1B
100
AcDbEntity
  8
4
100
AcDbLine
 10
834.8124618258239
 20
1199.407089141126
 30
0.0
 11
844.2929799348522
 21
1201.94738631227
 31
0.0
  0
LINE
  5
2BC
330
1B
100
AcDbEntity
  8
4
100
AcDbLine
 10
839.2123855925688
 20
1182.986350094212
 30
0.0
 11
832.2721646546825
 21
1189.926571032096
 31
0.0
  0
LINE
  5
2BD
330
1B
100
AcDbEntity
  8
L-CENTER
 48
5.0
100
AcDbLine
 10
546.0412668473014
 20
547.7473624403892
 30
0.0
 11
546.0412668473014
 21
581.741863215113
 31
0.0
  0
LINE
  5
2BE
330
1B
100
AcDbEntity
  8
4
100
AcDbLine
 10
555.8562214235249
 20
569.2738849605325
 30
0.0
 11
555.8562214235249
 21
577.8703580146798
 31
0.0
  0
LINE
  5
2BF
330
1B
100
AcDbEntity
  8
4
100
AcDbLine
 10
536.2263122710774
 20
577.8703580146798
 30
0.0
 11
536.2263122710774
 21
569.2738849605325
 31
0.0
  0
LINE
  5
2C0
330
1B
100
AcDbEntity
  8
4
100
AcDbLine
 10
541.1337895591892
 20
577.8703580146798
 30
0.0
 11
541.1337895591892
 21
571.7738849605325
 31
0.0
  0
LINE
  5
2C1
330
1B
100
AcDbEntity
  8
4
100
AcDbLine
 10
550.9487441354131
 20
577.8703580146798
 30
0.0
 11
550.9487441354131
 21
571.7738849605325
 31
0.0
  0
ARC
  5
2C2
330
1B
100
AcDbEntity
  8
4
100
AcDbCircle
 10
538.680050915134
 20
574.9902710314732
 30
0.0
 40
3.783613929059507
100
AcDbArc
 50
49.57010315517826
 51
130.4298968448315
  0
LINE
  5
2C3
330
1B
100
AcDbEntity
  8
4
100
AcDbLine
 10
553.4024827794688
 20
578.7738849605325
 30
0.0
 11
538.6800509151335
 21
578.7738849605325
 31
0.0
  0
ARC
  5
2C4
330
1B
100
AcDbEntity
  8
4
100
AcDbCircle
 10
546.0412668473018
 20
564.9947196630733
 30
0.0
 40
13.77916529745958
100
AcDbArc
 50
69.13593563608119
 51
110.8640643639209
  0
ARC
  5
2C5
330
1B
100
AcDbEntity
  8
4
100
AcDbCircle
 10
553.4024827794692
 20
574.9902710314732
 30
0.0
 40
3.783613929059507
100
AcDbArc
 50
49.57010315517826
 51
130.4298968448315
  0
LINE
  5
2C6
330
1B
100
AcDbEntity
  8
4
100
AcDbLine
 10
536.2263122710774
 20
571.7738849605325
 30
0.0
 11
555.8562214235249
 21
571.7738849605325
 31
0.0
  0
LINE
  5
2C7
330
1B
100
AcDbEntity
  8
4
100
AcDbLine
 10
536.2263122710774
 20
569.2738849605325
 30
0.0
 11
555.8562214235249
 21
569.2738849605325
 31
0.0
  0
LINE
  5
2C8
330
1B
100
AcDbEntity
  8
4
100
AcDbLine
 10
851.5676373399338
 20
569.2738849605325
 30
0.0
 11
831.9377281874858
 21
569.2738849605325
 31
0.0
  0
LINE
  5
2C9
330
1B
100
AcDbEntity
  8
4
100
AcDbLine
 10
851.5676373399338
 20
571.7738849605325
 30
0.0
 11
831.9377281874858
 21
571.7738849605325
 31
0.0
  0
LINE
  5
2CA
330
1B
100
AcDbEntity
  8
4
100
AcDbLine
 10
834.391466831542
 20
578.7738849605325
 30
0.0
 11
849.1138986958777
 21
578.7738849605325
 31
0.0
  0
ARC
  5
2CB
330
1B
100
AcDbEntity
  8
4
100
AcDbCircle
 10
849.1138986958772
 20
574.9902710314732
 30
0.0
 40
3.783613929059507
100
AcDbArc
 50
49.57010315516856
 51
130.4298968448217
  0
LINE
  5
2CC
330
1B
100
AcDbEntity
  8
4
100
AcDbLine
 10
851.5676373399338
 20
577.8703580146798
 30
0.0
 11
851.5676373399338
 21
569.2738849605325
 31
0.0
  0
ARC
  5
2CD
330
1B
100
AcDbEntity
  8
4
100
AcDbCircle
 10
834.391466831542
 20
574.9902710314732
 30
0.0
 40
3.783613929059507
100
AcDbArc
 50
49.57010315516856
 51
130.4298968448217
  0
ARC
  5
2CE
330
1B
100
AcDbEntity
  8
4
100
AcDbCircle
 10
841.7526827637093
 20
564.9947196630733
 30
0.0
 40
13.77916529745958
100
AcDbArc
 50
69.13593563607908
 51
110.8640643639193
  0
LINE
  5
2CF
330
1B
100
AcDbEntity
  8
4
100
AcDbLine
 10
836.845205475598
 20
577.8703580146798
 30
0.0
 11
836.845205475598
 21
571.7738849605325
 31
0.0
  0
LINE
  5
2D0
330
1B
100
AcDbEntity
  8
4
100
AcDbLine
 10
846.6601600518215
 20
577.8703580146798
 30
0.0
 11
846.6601600518215
 21
571.7738849605325
 31
0.0
  0
LINE
  5
2D1
330
1B
100
AcDbEntity
  8
4
100
AcDbLine
 10
831.9377281874858
 20
569.2738849605325
 30
0.0
 11
831.9377281874858
 21
577.8703580146798
 31
0.0
  0
LINE
  5
2D2
330
1B
100
AcDbEntity
  8
L-CENTER
 48
3.0
100
AcDbLine
 10
841.7526827637093
 20
547.6473624403891
 30
0.0
 11
841.7526827637093
 21
581.6418632151131
 31
0.0
  0
LINE
  5
2D3
330
1B
100
AcDbEntity
  8
4
100
AcDbLine
 10
672.5353517020894
 20
569.2738849605325
 30
0.0
 11
652.9054425496424
 21
569.2738849605325
 31
0.0
  0
LINE
  5
2D4
330
1B
100
AcDbEntity
  8
4
100
AcDbLine
 10
672.5353517020894
 20
571.7738849605325
 30
0.0
 11
652.9054425496424
 21
571.7738849605325
 31
0.0
  0
ARC
  5
2D5
330
1B
100
AcDbEntity
  8
4
100
AcDbCircle
 10
662.7203971258659
 20
564.9947196630733
 30
0.0
 40
13.77916529745958
100
AcDbArc
 50
69.13593563608075
 51
110.8640643639209
  0
LINE
  5
2D6
330
1B
100
AcDbEntity
  8
4
100
AcDbLine
 10
655.3591811936985
 20
578.7738849605325
 30
0.0
 11
670.0816130580333
 21
578.7738849605325
 31
0.0
  0
ARC
  5
2D7
330
1B
100
AcDbEntity
  8
4
100
AcDbCircle
 10
670.0816130580333
 20
574.9902710314732
 30
0.0
 40
3.783613929059507
100
AcDbArc
 50
49.57010315516856
 51
130.4298968448217
  0
LINE
  5
2D8
330
1B
100
AcDbEntity
  8
4
100
AcDbLine
 10
667.6278744139781
 20
577.8703580146798
 30
0.0
 11
667.6278744139781
 21
571.7738849605325
 31
0.0
  0
LINE
  5
2D9
330
1B
100
AcDbEntity
  8
4
100
AcDbLine
 10
672.5353517020894
 20
577.8703580146798
 30
0.0
 11
672.5353517020894
 21
569.2738849605325
 31
0.0
  0
ARC
  5
2DA
330
1B
100
AcDbEntity
  8
4
100
AcDbCircle
 10
655.3591811936985
 20
574.9902710314732
 30
0.0
 40
3.783613929059507
100
AcDbArc
 50
49.57010315517826
 51
130.4298968448315
  0
LINE
  5
2DB
330
1B
100
AcDbEntity
  8
4
100
AcDbLine
 10
657.8129198377537
 20
577.8703580146798
 30
0.0
 11
657.8129198377537
 21
571.7738849605325
 31
0.0
  0
LINE
  5
2DC
330
1B
100
AcDbEntity
  8
4
100
AcDbLine
 10
652.9054425496424
 20
569.2738849605325
 30
0.0
 11
652.9054425496424
 21
577.8703580146798
 31
0.0
  0
LINE
  5
2DD
330
1B
100
AcDbEntity
  8
L-CENTER
 48
3.0
100
AcDbLine
 10
662.7203971258659
 20
547.6473624403891
 30
0.0
 11
662.7203971258659
 21
581.6418632151131
 31
0.0
  0
ARC
  5
2DE
330
1B
100
AcDbEntity
  8
4
100
AcDbCircle
 10
742.4675852772903
 20
309.4574988895919
 30
0.0
 40
3.783613929059507
100
AcDbArc
 50
229.5701031551686
 51
310.4298968448242
  0
ARC
  5
2DF
330
1B
100
AcDbEntity
  8
4
100
AcDbCircle
 10
749.8288012094577
 20
319.4530502579918
 30
0.0
 40
13.77916529745958
100
AcDbArc
 50
249.1359356360806
 51
290.8640643639195
  0
LINE
  5
2E0
330
1B
100
AcDbEntity
  8
4
100
AcDbLine
 10
744.9213239213459
 20
306.5774119063854
 30
0.0
 11
744.9213239213459
 21
312.6738849605326
 31
0.0
  0
LINE
  5
2E1
330
1B
100
AcDbEntity
  8
4
100
AcDbLine
 10
754.7362784975699
 20
306.5774119063854
 30
0.0
 11
754.7362784975699
 21
312.6738849605326
 31
0.0
  0
LINE
  5
2E2
330
1B
100
AcDbEntity
  8
4
100
AcDbLine
 10
740.0138466332342
 20
315.1738849605326
 30
0.0
 11
740.0138466332342
 21
306.5774119063854
 31
0.0
  0
LINE
  5
2E3
330
1B
100
AcDbEntity
  8
L-CENTER
 48
3.0
100
AcDbLine
 10
749.8288012094577
 20
347.9593080752264
 30
0.0
 11
749.8288012094577
 21
300.5730450804286
 31
0.0
  0
LINE
  5
2E4
330
1B
100
AcDbEntity
  8
4
100
AcDbLine
 10
759.6437557856816
 20
306.5774119063854
 30
0.0
 11
759.6437557856816
 21
315.1738849605326
 31
0.0
  0
LINE
  5
2E5
330
1B
100
AcDbEntity
  8
4
100
AcDbLine
 10
759.6437557856816
 20
315.1738849605326
 30
0.0
 11
740.0138466332342
 21
315.1738849605326
 31
0.0
  0
LINE
  5
2E6
330
1B
100
AcDbEntity
  8
4
100
AcDbLine
 10
759.6437557856816
 20
312.6738849605326
 30
0.0
 11
740.0138466332342
 21
312.6738849605326
 31
0.0
  0
LINE
  5
2E7
330
1B
100
AcDbEntity
  8
4
100
AcDbLine
 10
742.4675852772903
 20
305.6738849605326
 30
0.0
 11
757.1900171416255
 21
305.6738849605326
 31
0.0
  0
ARC
  5
2E8
330
1B
100
AcDbEntity
  8
4
100
AcDbCircle
 10
757.1900171416255
 20
309.4574988895919
 30
0.0
 40
3.783613929059507
100
AcDbArc
 50
229.5701031551686
 51
310.4298968448242
  0
ARC
  5
2E9
330
1B
100
AcDbEntity
  8
4
100
AcDbCircle
 10
655.3591811936981
 20
309.4574988895919
 30
0.0
 40
3.783613929059507
100
AcDbArc
 50
229.5701031551758
 51
310.4298968448314
  0
ARC
  5
2EA
330
1B
100
AcDbEntity
  8
4
100
AcDbCircle
 10
662.7203971258655
 20
319.4530502579918
 30
0.0
 40
13.77916529745958
100
AcDbArc
 50
249.1359356360806
 51
290.8640643639195
  0
LINE
  5
2EB
330
1B
100
AcDbEntity
  8
4
100
AcDbLine
 10
657.8129198377537
 20
306.5774119063854
 30
0.0
 11
657.8129198377537
 21
312.6738849605326
 31
0.0
  0
LINE
  5
2EC
330
1B
100
AcDbEntity
  8
4
100
AcDbLine
 10
667.6278744139781
 20
306.5774119063854
 30
0.0
 11
667.6278744139781
 21
312.6738849605326
 31
0.0
  0
LINE
  5
2ED
330
1B
100
AcDbEntity
  8
4
100
AcDbLine
 10
652.9054425496424
 20
315.1738849605326
 30
0.0
 11
652.9054425496424
 21
306.5774119063854
 31
0.0
  0
LINE
  5
2EE
330
1B
100
AcDbEntity
  8
4
100
AcDbLine
 10
672.5353517020894
 20
306.5774119063854
 30
0.0
 11
672.5353517020894
 21
315.1738849605326
 31
0.0
  0
LINE
  5
2EF
330
1B
100
AcDbEntity
  8
4
100
AcDbLine
 10
672.5353517020894
 20
315.1738849605326
 30
0.0
 11
652.9054425496424
 21
315.1738849605326
 31
0.0
  0
LINE
  5
2F0
330
1B
100
AcDbEntity
  8
4
100
AcDbLine
 10
672.5353517020894
 20
312.6738849605326
 30
0.0
 11
652.9054425496424
 21
312.6738849605326
 31
0.0
  0
LINE
  5
2F1
330
1B
100
AcDbEntity
  8
4
100
AcDbLine
 10
655.3591811936985
 20
305.6738849605326
 30
0.0
 11
670.0816130580333
 21
305.6738849605326
 31
0.0
  0
ARC
  5
2F2
330
1B
100
AcDbEntity
  8
4
100
AcDbCircle
 10
670.0816130580333
 20
309.4574988895919
 30
0.0
 40
3.783613929059507
100
AcDbArc
 50
229.5701031551758
 51
310.4298968448314
  0
CIRCLE
  5
2F3
330
1B
100
AcDbEntity
  8
4
100
AcDbCircle
 10
815.7907419865828
 20
1385.671532410065
 30
0.0
 40
9.5
  0
LINE
  5
2F4
330
1B
100
AcDbEntity
  8
4
100
AcDbLine
 10
815.7907419865828
 20
1396.641187524667
 30
0.0
 11
806.2907419865828
 21
1391.156359967366
 31
0.0
  0
LINE
  5
2F5
330
1B
100
AcDbEntity
  8
4
100
AcDbLine
 10
806.2907419865828
 20
1391.156359967366
 30
0.0
 11
806.2907419865828
 21
1380.186704852762
 31
0.0
  0
LINE
  5
2F6
330
1B
100
AcDbEntity
  8
4
100
AcDbLine
 10
825.2907419865828
 20
1380.186704852762
 30
0.0
 11
825.2907419865828
 21
1391.156359967366
 31
0.0
  0
LINE
  5
2F7
330
1B
100
AcDbEntity
  8
4
100
AcDbLine
 10
825.2907419865828
 20
1391.156359967366
 30
0.0
 11
815.7907419865828
 21
1396.641187524667
 31
0.0
  0
LINE
  5
2F8
330
1B
100
AcDbEntity
  8
4
100
AcDbLine
 10
806.2907419865828
 20
1380.186704852762
 30
0.0
 11
815.7907419865828
 21
1374.701877295461
 31
0.0
  0
LINE
  5
2F9
330
1B
100
AcDbEntity
  8
4
100
AcDbLine
 10
815.7907419865828
 20
1374.701877295461
 30
0.0
 11
825.2907419865828
 21
1380.186704852762
 31
0.0
  0
CIRCLE
  5
2FA
330
1B
100
AcDbEntity
  8
4
100
AcDbCircle
 10
555.7907419865837
 20
1385.671532410064
 30
0.0
 40
9.5
  0
LINE
  5
2FB
330
1B
100
AcDbEntity
  8
4
100
AcDbLine
 10
555.7907419865837
 20
1396.641187524666
 30
0.0
 11
546.2907419865837
 21
1391.156359967365
 31
0.0
  0
LINE
  5
2FC
330
1B
100
AcDbEntity
  8
4
100
AcDbLine
 10
546.2907419865837
 20
1391.156359967365
 30
0.0
 11
546.2907419865837
 21
1380.186704852762
 31
0.0
  0
LINE
  5
2FD
330
1B
100
AcDbEntity
  8
4
100
AcDbLine
 10
565.2907419865837
 20
1380.186704852762
 30
0.0
 11
565.2907419865837
 21
1391.156359967365
 31
0.0
  0
LINE
  5
2FE
330
1B
100
AcDbEntity
  8
4
100
AcDbLine
 10
565.2907419865837
 20
1391.156359967365
 30
0.0
 11
555.7907419865837
 21
1396.641187524666
 31
0.0
  0
LINE
  5
2FF
330
1B
100
AcDbEntity
  8
4
100
AcDbLine
 10
546.2907419865837
 20
1380.186704852762
 30
0.0
 11
555.7907419865837
 21
1374.701877295461
 31
0.0
  0
LINE
  5
300
330
1B
100
AcDbEntity
  8
4
100
AcDbLine
 10
555.7907419865837
 20
1374.701877295461
 30
0.0
 11
565.2907419865837
 21
1380.186704852762
 31
0.0
  0
CIRCLE
  5
301
330
1B
100
AcDbEntity
  8
4
100
AcDbCircle
 10
945.7907419865837
 20
1160.50492742611
 30
0.0
 40
9.5
  0
LINE
  5
302
330
1B
100
AcDbEntity
  8
4
100
AcDbLine
 10
945.7907419865837
 20
1171.474582540712
 30
0.0
 11
936.2907419865837
 21
1165.989754983411
 31
0.0
  0
LINE
  5
303
330
1B
100
AcDbEntity
  8
4
100
AcDbLine
 10
936.2907419865837
 20
1165.989754983411
 30
0.0
 11
936.2907419865837
 21
1155.020099868808
 31
0.0
  0
LINE
  5
304
330
1B
100
AcDbEntity
  8
4
100
AcDbLine
 10
955.2907419865837
 20
1155.020099868808
 30
0.0
 11
955.2907419865837
 21
1165.989754983411
 31
0.0
  0
LINE
  5
305
330
1B
100
AcDbEntity
  8
4
100
AcDbLine
 10
955.2907419865837
 20
1165.989754983411
 30
0.0
 11
945.7907419865837
 21
1171.474582540712
 31
0.0
  0
LINE
  5
306
330
1B
100
AcDbEntity
  8
4
100
AcDbLine
 10
936.2907419865837
 20
1155.020099868808
 30
0.0
 11
945.7907419865837
 21
1149.535272311507
 31
0.0
  0
LINE
  5
307
330
1B
100
AcDbEntity
  8
4
100
AcDbLine
 10
945.7907419865837
 20
1149.535272311507
 30
0.0
 11
955.2907419865837
 21
1155.020099868808
 31
0.0
  0
CIRCLE
  5
308
330
1B
100
AcDbEntity
  8
4
100
AcDbCircle
 10
425.7907419865837
 20
1160.50492742611
 30
0.0
 40
9.5
  0
LINE
  5
309
330
1B
100
AcDbEntity
  8
4
100
AcDbLine
 10
425.7907419865837
 20
1171.474582540712
 30
0.0
 11
416.2907419865837
 21
1165.989754983411
 31
0.0
  0
LINE
  5
30A
330
1B
100
AcDbEntity
  8
4
100
AcDbLine
 10
416.2907419865837
 20
1165.989754983411
 30
0.0
 11
416.2907419865837
 21
1155.020099868808
 31
0.0
  0
LINE
  5
30B
330
1B
100
AcDbEntity
  8
4
100
AcDbLine
 10
435.2907419865837
 20
1155.020099868808
 30
0.0
 11
435.2907419865837
 21
1165.989754983411
 31
0.0
  0
LINE
  5
30C
330
1B
100
AcDbEntity
  8
4
100
AcDbLine
 10
435.2907419865837
 20
1165.989754983411
 30
0.0
 11
425.7907419865837
 21
1171.474582540712
 31
0.0
  0
LINE
  5
30D
330
1B
100
AcDbEntity
  8
4
100
AcDbLine
 10
416.2907419865837
 20
1155.020099868808
 30
0.0
 11
425.7907419865837
 21
1149.535272311507
 31
0.0
  0
LINE
  5
30E
330
1B
100
AcDbEntity
  8
4
100
AcDbLine
 10
425.7907419865837
 20
1149.535272311507
 30
0.0
 11
435.2907419865837
 21
1155.020099868808
 31
0.0
  0
CIRCLE
  5
30F
330
1B
100
AcDbEntity
  8
4
100
AcDbCircle
 10
815.7907419865824
 20
935.3383224421553
 30
0.0
 40
9.5
  0
LINE
  5
310
330
1B
100
AcDbEntity
  8
4
100
AcDbLine
 10
815.7907419865824
 20
946.3079775567579
 30
0.0
 11
806.2907419865824
 21
940.8231499994566
 31
0.0
  0
LINE
  5
311
330
1B
100
AcDbEntity
  8
4
100
AcDbLine
 10
806.2907419865824
 20
940.8231499994566
 30
0.0
 11
806.2907419865824
 21
929.8534948848536
 31
0.0
  0
LINE
  5
312
330
1B
100
AcDbEntity
  8
4
100
AcDbLine
 10
825.2907419865824
 20
929.8534948848536
 30
0.0
 11
825.2907419865824
 21
940.8231499994566
 31
0.0
  0
LINE
  5
313
330
1B
100
AcDbEntity
  8
4
100
AcDbLine
 10
825.2907419865824
 20
940.8231499994566
 30
0.0
 11
815.7907419865824
 21
946.3079775567579
 31
0.0
  0
LINE
  5
314
330
1B
100
AcDbEntity
  8
4
100
AcDbLine
 10
806.2907419865824
 20
929.8534948848536
 30
0.0
 11
815.7907419865824
 21
924.3686673275523
 31
0.0
  0
LINE
  5
315
330
1B
100
AcDbEntity
  8
4
100
AcDbLine
 10
815.7907419865824
 20
924.3686673275523
 30
0.0
 11
825.2907419865824
 21
929.8534948848536
 31
0.0
  0
CIRCLE
  5
316
330
1B
100
AcDbEntity
  8
4
100
AcDbCircle
 10
555.7907419865842
 20
935.3383224421558
 30
0.0
 40
9.5
  0
LINE
  5
317
330
1B
100
AcDbEntity
  8
4
100
AcDbLine
 10
555.7907419865842
 20
946.3079775567584
 30
0.0
 11
546.2907419865842
 21
940.8231499994571
 31
0.0
  0
LINE
  5
318
330
1B
100
AcDbEntity
  8
4
100
AcDbLine
 10
546.2907419865842
 20
940.8231499994571
 30
0.0
 11
546.2907419865842
 21
929.8534948848541
 31
0.0
  0
LINE
  5
319
330
1B
100
AcDbEntity
  8
4
100
AcDbLine
 10
565.2907419865842
 20
929.8534948848541
 30
0.0
 11
565.2907419865842
 21
940.8231499994571
 31
0.0
  0
LINE
  5
31A
330
1B
100
AcDbEntity
  8
4
100
AcDbLine
 10
565.2907419865842
 20
940.8231499994571
 30
0.0
 11
555.7907419865842
 21
946.3079775567584
 31
0.0
  0
LINE
  5
31B
330
1B
100
AcDbEntity
  8
4
100
AcDbLine
 10
546.2907419865842
 20
929.8534948848541
 30
0.0
 11
555.7907419865842
 21
924.3686673275528
 31
0.0
  0
LINE
  5
31C
330
1B
100
AcDbEntity
  8
4
100
AcDbLine
 10
555.7907419865842
 20
924.3686673275528
 30
0.0
 11
565.2907419865842
 21
929.8534948848541
 31
0.0
  0
LINE
  5
31D
330
1B
100
AcDbEntity
  8
L-CENTER
 48
3.0
100
AcDbLine
 10
425.7907419865837
 20
565.9747248406366
 30
0.0
 11
425.7907419865837
 21
505.1775262309307
 31
0.0
  0
LINE
  5
31E
330
1B
100
AcDbEntity
  8
4
100
AcDbLine
 10
434.0179833225357
 20
562.3738849605325
 30
0.0
 11
417.5635006506313
 21
562.3738849605325
 31
0.0
  0
ARC
  5
31F
330
1B
100
AcDbEntity
  8
4
100
AcDbCircle
 10
425.7907419865837
 20
548.5781408253551
 30
0.0
 40
13.7957441351769
100
AcDbArc
 50
66.5734024913731
 51
113.4265975086269
  0
LINE
  5
320
330
1B
100
AcDbEntity
  8
4
100
AcDbLine
 10
414.8210868719807
 20
554.3738849605325
 30
0.0
 11
436.7603971011863
 21
554.3738849605325
 31
0.0
  0
LINE
  5
321
330
1B
100
AcDbEntity
  8
4
100
AcDbLine
 10
414.8210868719807
 20
551.3738849605325
 30
0.0
 11
436.7603971011863
 21
551.3738849605325
 31
0.0
  0
LINE
  5
322
330
1B
100
AcDbEntity
  8
4
100
AcDbLine
 10
420.305914429282
 20
561.2367040499057
 30
0.0
 11
420.305914429282
 21
554.3738849605325
 31
0.0
  0
LINE
  5
323
330
1B
100
AcDbEntity
  8
4
100
AcDbLine
 10
414.8210868719807
 20
561.2367040499057
 30
0.0
 11
414.8210868719807
 21
551.3738849605325
 31
0.0
  0
ARC
  5
324
330
1B
100
AcDbEntity
  8
4
100
AcDbCircle
 10
417.5635006506313
 20
558.4985060852532
 30
0.0
 40
3.875378875279244
100
AcDbArc
 50
44.955926762744
 51
135.044073237256
  0
LINE
  5
325
330
1B
100
AcDbEntity
  8
4
100
AcDbLine
 10
436.7603971011863
 20
551.3738849605325
 30
0.0
 11
436.7603971011863
 21
561.2367040499057
 31
0.0
  0
LINE
  5
326
330
1B
100
AcDbEntity
  8
4
100
AcDbLine
 10
431.275569543885
 20
561.2367040499057
 30
0.0
 11
431.275569543885
 21
554.3738849605325
 31
0.0
  0
ARC
  5
327
330
1B
100
AcDbEntity
  8
4
100
AcDbCircle
 10
434.0179833225357
 20
558.4985060852532
 30
0.0
 40
3.875378875279264
100
AcDbArc
 50
44.95592676274816
 51
135.0440732372519
  0
LINE
  5
328
330
1B
100
AcDbEntity
  8
L-CENTER
 48
3.0
100
AcDbLine
 10
555.7907419865842
 20
565.9747248406366
 30
0.0
 11
555.7907419865842
 21
505.1775262309307
 31
0.0
  0
LINE
  5
329
330
1B
100
AcDbEntity
  8
4
100
AcDbLine
 10
564.0179833225361
 20
562.3738849605325
 30
0.0
 11
547.5635006506318
 21
562.3738849605325
 31
0.0
  0
ARC
  5
32A
330
1B
100
AcDbEntity
  8
4
100
AcDbCircle
 10
555.7907419865842
 20
548.5781408253551
 30
0.0
 40
13.7957441351769
100
AcDbArc
 50
66.57340249137289
 51
113.4265975086271
  0
LINE
  5
32B
330
1B
100
AcDbEntity
  8
4
100
AcDbLine
 10
544.8210868719812
 20
554.3738849605325
 30
0.0
 11
566.7603971011868
 21
554.3738849605325
 31
0.0
  0
LINE
  5
32C
330
1B
100
AcDbEntity
  8
4
100
AcDbLine
 10
544.8210868719812
 20
551.3738849605325
 30
0.0
 11
566.7603971011868
 21
551.3738849605325
 31
0.0
  0
LINE
  5
32D
330
1B
100
AcDbEntity
  8
4
100
AcDbLine
 10
550.3059144292824
 20
561.2367040499057
 30
0.0
 11
550.3059144292824
 21
554.3738849605325
 31
0.0
  0
LINE
  5
32E
330
1B
100
AcDbEntity
  8
4
100
AcDbLine
 10
544.8210868719812
 20
561.2367040499057
 30
0.0
 11
544.8210868719812
 21
551.3738849605325
 31
0.0
  0
ARC
  5
32F
330
1B
100
AcDbEntity
  8
L-CENTER
 48
3.0
100
AcDbCircle
 10
547.5635006506318
 20
558.4985060852532
 30
0.0
 40
3.875378875279244
100
AcDbArc
 50
44.955926762744
 51
135.044073237256
  0
LINE
  5
330
330
1B
100
AcDbEntity
  8
4
100
AcDbLine
 10
566.7603971011868
 20
551.3738849605325
 30
0.0
 11
566.7603971011868
 21
561.2367040499057
 31
0.0
  0
LINE
  5
331
330
1B
100
AcDbEntity
  8
4
100
AcDbLine
 10
561.2755695438855
 20
561.2367040499057
 30
0.0
 11
561.2755695438855
 21
554.3738849605325
 31
0.0
  0
ARC
  5
332
330
1B
100
AcDbEntity
  8
4
100
AcDbCircle
 10
564.0179833225361
 20
558.4985060852532
 30
0.0
 40
3.875378875279264
100
AcDbArc
 50
44.95592676274758
 51
135.0440732372524
  0
ARC
  5
333
330
1B
100
AcDbEntity
  8
4
100
AcDbCircle
 10
807.5635006506309
 20
558.4985060852532
 30
0.0
 40
3.875378875279264
100
AcDbArc
 50
44.95592676274281
 51
135.0440732372524
  0
LINE
  5
334
330
1B
100
AcDbEntity
  8
4
100
AcDbLine
 10
810.305914429282
 20
561.2367040499057
 30
0.0
 11
810.305914429282
 21
554.3738849605325
 31
0.0
  0
LINE
  5
335
330
1B
100
AcDbEntity
  8
4
100
AcDbLine
 10
804.8210868719807
 20
551.3738849605325
 30
0.0
 11
804.8210868719807
 21
561.2367040499057
 31
0.0
  0
ARC
  5
336
330
1B
100
AcDbEntity
  8
4
100
AcDbCircle
 10
824.0179833225357
 20
558.4985060852532
 30
0.0
 40
3.875378875279244
100
AcDbArc
 50
44.955926762744
 51
135.0440732372595
  0
LINE
  5
337
330
1B
100
AcDbEntity
  8
4
100
AcDbLine
 10
826.7603971011858
 20
561.2367040499057
 30
0.0
 11
826.7603971011858
 21
551.3738849605325
 31
0.0
  0
LINE
  5
338
330
1B
100
AcDbEntity
  8
4
100
AcDbLine
 10
821.2755695438846
 20
561.2367040499057
 30
0.0
 11
821.2755695438846
 21
554.3738849605325
 31
0.0
  0
LINE
  5
339
330
1B
100
AcDbEntity
  8
4
100
AcDbLine
 10
826.7603971011858
 20
551.3738849605325
 30
0.0
 11
804.8210868719807
 21
551.3738849605325
 31
0.0
  0
LINE
  5
33A
330
1B
100
AcDbEntity
  8
4
100
AcDbLine
 10
826.7603971011858
 20
554.3738849605325
 30
0.0
 11
804.8210868719807
 21
554.3738849605325
 31
0.0
  0
ARC
  5
33B
330
1B
100
AcDbEntity
  8
4
100
AcDbCircle
 10
815.7907419865833
 20
548.5781408253551
 30
0.0
 40
13.7957441351769
100
AcDbArc
 50
66.57340249137289
 51
113.4265975086292
  0
LINE
  5
33C
330
1B
100
AcDbEntity
  8
4
100
AcDbLine
 10
807.5635006506309
 20
562.3738849605325
 30
0.0
 11
824.0179833225357
 21
562.3738849605325
 31
0.0
  0
LINE
  5
33D
330
1B
100
AcDbEntity
  8
L-CENTER
 48
3.0
100
AcDbLine
 10
815.7907419865833
 20
565.9747248406366
 30
0.0
 11
815.7907419865833
 21
505.1775262309307
 31
0.0
  0
ARC
  5
33E
330
1B
100
AcDbEntity
  8
4
100
AcDbCircle
 10
937.5635006506318
 20
558.4985060852532
 30
0.0
 40
3.875378875279264
100
AcDbArc
 50
44.95592676274758
 51
135.0440732372572
  0
LINE
  5
33F
330
1B
100
AcDbEntity
  8
4
100
AcDbLine
 10
940.305914429282
 20
561.2367040499057
 30
0.0
 11
940.305914429282
 21
554.3738849605325
 31
0.0
  0
LINE
  5
340
330
1B
100
AcDbEntity
  8
4
100
AcDbLine
 10
934.8210868719807
 20
551.3738849605325
 30
0.0
 11
934.8210868719807
 21
561.2367040499057
 31
0.0
  0
ARC
  5
341
330
1B
100
AcDbEntity
  8
4
100
AcDbCircle
 10
954.0179833225357
 20
558.4985060852532
 30
0.0
 40
3.875378875279244
100
AcDbArc
 50
44.95592676273806
 51
135.044073237256
  0
LINE
  5
342
330
1B
100
AcDbEntity
  8
4
100
AcDbLine
 10
956.7603971011868
 20
561.2367040499057
 30
0.0
 11
956.7603971011868
 21
551.3738849605325
 31
0.0
  0
LINE
  5
343
330
1B
100
AcDbEntity
  8
4
100
AcDbLine
 10
951.2755695438855
 20
561.2367040499057
 30
0.0
 11
951.2755695438855
 21
554.3738849605325
 31
0.0
  0
LINE
  5
344
330
1B
100
AcDbEntity
  8
4
100
AcDbLine
 10
956.7603971011868
 20
551.3738849605325
 30
0.0
 11
934.8210868719807
 21
551.3738849605325
 31
0.0
  0
LINE
  5
345
330
1B
100
AcDbEntity
  8
4
100
AcDbLine
 10
956.7603971011868
 20
554.3738849605325
 30
0.0
 11
934.8210868719807
 21
554.3738849605325
 31
0.0
  0
ARC
  5
346
330
1B
100
AcDbEntity
  8
4
100
AcDbCircle
 10
945.7907419865833
 20
548.5781408253551
 30
0.0
 40
13.7957441351769
100
AcDbArc
 50
66.57340249137077
 51
113.4265975086271
  0
LINE
  5
347
330
1B
100
AcDbEntity
  8
4
100
AcDbLine
 10
937.5635006506318
 20
562.3738849605325
 30
0.0
 11
954.0179833225357
 21
562.3738849605325
 31
0.0
  0
LINE
  5
348
330
1B
100
AcDbEntity
  8
L-CENTER
 48
3.0
100
AcDbLine
 10
945.7907419865833
 20
565.9747248406366
 30
0.0
 11
945.7907419865833
 21
505.1775262309307
 31
0.0
  0
LINE
  5
349
330
1B
100
AcDbEntity
  8
4
100
AcDbLine
 10
1563.388939429294
 20
569.2738849605325
 30
0.0
 11
1563.388939429294
 21
577.8703580146798
 31
0.0
  0
LINE
  5
34A
330
1B
100
AcDbEntity
  8
4
100
AcDbLine
 10
1578.11137129363
 20
577.8703580146798
 30
0.0
 11
1578.11137129363
 21
571.7738849605325
 31
0.0
  0
LINE
  5
34B
330
1B
100
AcDbEntity
  8
4
100
AcDbLine
 10
1568.296416717406
 20
577.8703580146798
 30
0.0
 11
1568.296416717406
 21
571.7738849605325
 31
0.0
  0
ARC
  5
34C
330
1B
100
AcDbEntity
  8
4
100
AcDbCircle
 10
1573.203894005517
 20
564.9947196630733
 30
0.0
 40
13.77916529745958
100
AcDbArc
 50
69.13593563608057
 51
110.8640643639194
  0
ARC
  5
34D
330
1B
100
AcDbEntity
  8
4
100
AcDbCircle
 10
1565.84267807335
 20
574.9902710314732
 30
0.0
 40
3.783613929059507
100
AcDbArc
 50
49.57010315516856
 51
130.4298968448315
  0
LINE
  5
34E
330
1B
100
AcDbEntity
  8
4
100
AcDbLine
 10
1583.018848581742
 20
577.8703580146798
 30
0.0
 11
1583.018848581742
 21
569.2738849605325
 31
0.0
  0
ARC
  5
34F
330
1B
100
AcDbEntity
  8
4
100
AcDbCircle
 10
1580.565109937685
 20
574.9902710314732
 30
0.0
 40
3.783613929059507
100
AcDbArc
 50
49.57010315517826
 51
130.4298968448217
  0
LINE
  5
350
330
1B
100
AcDbEntity
  8
4
100
AcDbLine
 10
1565.84267807335
 20
578.7738849605325
 30
0.0
 11
1580.565109937686
 21
578.7738849605325
 31
0.0
  0
LINE
  5
351
330
1B
100
AcDbEntity
  8
4
100
AcDbLine
 10
1583.018848581742
 20
571.7738849605325
 30
0.0
 11
1563.388939429294
 21
571.7738849605325
 31
0.0
  0
LINE
  5
352
330
1B
100
AcDbEntity
  8
4
100
AcDbLine
 10
1583.018848581742
 20
569.2738849605325
 30
0.0
 11
1563.388939429294
 21
569.2738849605325
 31
0.0
  0
LINE
  5
353
330
1B
100
AcDbEntity
  8
L-CENTER
 48
3.0
100
AcDbLine
 10
1573.203894005517
 20
547.6473624403891
 30
0.0
 11
1573.203894005517
 21
581.6418632151131
 31
0.0
  0
LINE
  5
354
330
1B
100
AcDbEntity
  8
4
100
AcDbLine
 10
1655.312820983526
 20
569.2738849605325
 30
0.0
 11
1674.942730135974
 21
569.2738849605325
 31
0.0
  0
LINE
  5
355
330
1B
100
AcDbEntity
  8
4
100
AcDbLine
 10
1655.312820983526
 20
571.7738849605325
 30
0.0
 11
1674.942730135974
 21
571.7738849605325
 31
0.0
  0
ARC
  5
356
330
1B
100
AcDbEntity
  8
4
100
AcDbCircle
 10
1657.766559627583
 20
574.9902710314732
 30
0.0
 40
3.783613929059507
100
AcDbArc
 50
49.57010315517826
 51
130.4298968448217
  0
LINE
  5
357
330
1B
100
AcDbEntity
  8
4
100
AcDbLine
 10
1672.488991491918
 20
578.7738849605325
 30
0.0
 11
1657.766559627582
 21
578.7738849605325
 31
0.0
  0
ARC
  5
358
330
1B
100
AcDbEntity
  8
4
100
AcDbCircle
 10
1672.488991491918
 20
574.9902710314732
 30
0.0
 40
3.783613929059507
100
AcDbArc
 50
49.57010315516856
 51
130.4298968448315
  0
ARC
  5
359
330
1B
100
AcDbEntity
  8
4
100
AcDbCircle
 10
1665.12777555975
 20
564.9947196630733
 30
0.0
 40
13.77916529745958
100
AcDbArc
 50
69.13593563608057
 51
110.8640643639194
  0
LINE
  5
35A
330
1B
100
AcDbEntity
  8
4
100
AcDbLine
 10
1670.035252847862
 20
577.8703580146798
 30
0.0
 11
1670.035252847862
 21
571.7738849605325
 31
0.0
  0
LINE
  5
35B
330
1B
100
AcDbEntity
  8
4
100
AcDbLine
 10
1660.220298271638
 20
577.8703580146798
 30
0.0
 11
1660.220298271638
 21
571.7738849605325
 31
0.0
  0
LINE
  5
35C
330
1B
100
AcDbEntity
  8
4
100
AcDbLine
 10
1674.942730135974
 20
569.2738849605325
 30
0.0
 11
1674.942730135974
 21
577.8703580146798
 31
0.0
  0
LINE
  5
35D
330
1B
100
AcDbEntity
  8
4
100
AcDbLine
 10
1655.312820983526
 20
577.8703580146798
 30
0.0
 11
1655.312820983526
 21
569.2738849605325
 31
0.0
  0
LINE
  5
35E
330
1B
100
AcDbEntity
  8
L-CENTER
 48
3.0
100
AcDbLine
 10
1665.12777555975
 20
547.6473624403891
 30
0.0
 11
1665.12777555975
 21
581.6418632151131
 31
0.0
  0
LINE
  5
35F
330
1B
100
AcDbEntity
  8
L-CENTER
 48
3.0
100
AcDbLine
 10
1407.999229798679
 20
565.9747248406366
 30
0.0
 11
1407.999229798679
 21
505.1775262309307
 31
0.0
  0
LINE
  5
360
330
1B
100
AcDbEntity
  8
4
100
AcDbLine
 10
1416.226471134632
 20
562.3738849605325
 30
0.0
 11
1399.771988462727
 21
562.3738849605325
 31
0.0
  0
ARC
  5
361
330
1B
100
AcDbEntity
  8
4
100
AcDbCircle
 10
1407.999229798679
 20
548.5781408253551
 30
0.0
 40
13.7957441351769
100
AcDbArc
 50
66.57340249137077
 51
113.4265975086273
  0
LINE
  5
362
330
1B
100
AcDbEntity
  8
4
100
AcDbLine
 10
1397.029574684077
 20
554.3738849605325
 30
0.0
 11
1418.968884913282
 21
554.3738849605325
 31
0.0
  0
LINE
  5
363
330
1B
100
AcDbEntity
  8
4
100
AcDbLine
 10
1397.029574684077
 20
551.3738849605325
 30
0.0
 11
1418.968884913282
 21
551.3738849605325
 31
0.0
  0
LINE
  5
364
330
1B
100
AcDbEntity
  8
4
100
AcDbLine
 10
1402.514402241378
 20
561.2367040499057
 30
0.0
 11
1402.514402241378
 21
554.3738849605325
 31
0.0
  0
LINE
  5
365
330
1B
100
AcDbEntity
  8
4
100
AcDbLine
 10
1397.029574684077
 20
561.2367040499057
 30
0.0
 11
1397.029574684077
 21
551.3738849605325
 31
0.0
  0
ARC
  5
366
330
1B
100
AcDbEntity
  8
4
100
AcDbCircle
 10
1399.771988462727
 20
558.4985060852532
 30
0.0
 40
3.875378875279244
100
AcDbArc
 50
44.95592676273687
 51
135.04407323725
  0
LINE
  5
367
330
1B
100
AcDbEntity
  8
4
100
AcDbLine
 10
1418.968884913282
 20
551.3738849605325
 30
0.0
 11
1418.968884913282
 21
561.2367040499057
 31
0.0
  0
LINE
  5
368
330
1B
100
AcDbEntity
  8
4
100
AcDbLine
 10
1413.484057355981
 20
561.2367040499057
 30
0.0
 11
1413.484057355981
 21
554.3738849605325
 31
0.0
  0
ARC
  5
369
330
1B
100
AcDbEntity
  8
4
100
AcDbCircle
 10
1416.226471134632
 20
558.4985060852532
 30
0.0
 40
3.875378875279264
100
AcDbArc
 50
44.95592676275113
 51
135.0440732372584
  0
ARC
  5
36A
330
1B
100
AcDbEntity
  8
4
100
AcDbCircle
 10
1641.393076118586
 20
558.4985060852532
 30
0.0
 40
3.875378875279264
100
AcDbArc
 50
44.95592676274758
 51
135.0440732372524
  0
LINE
  5
36B
330
1B
100
AcDbEntity
  8
4
100
AcDbLine
 10
1638.650662339935
 20
561.2367040499057
 30
0.0
 11
1638.650662339935
 21
554.3738849605325
 31
0.0
  0
LINE
  5
36C
330
1B
100
AcDbEntity
  8
4
100
AcDbLine
 10
1644.135489897237
 20
551.3738849605325
 30
0.0
 11
1644.135489897237
 21
561.2367040499057
 31
0.0
  0
ARC
  5
36D
330
1B
100
AcDbEntity
  8
4
100
AcDbCircle
 10
1624.938593446682
 20
558.4985060852532
 30
0.0
 40
3.875378875279244
100
AcDbArc
 50
44.95592676274519
 51
135.0440732372548
  0
LINE
  5
36E
330
1B
100
AcDbEntity
  8
4
100
AcDbLine
 10
1622.196179668031
 20
561.2367040499057
 30
0.0
 11
1622.196179668031
 21
551.3738849605325
 31
0.0
  0
LINE
  5
36F
330
1B
100
AcDbEntity
  8
4
100
AcDbLine
 10
1627.681007225332
 20
561.2367040499057
 30
0.0
 11
1627.681007225332
 21
554.3738849605325
 31
0.0
  0
LINE
  5
370
330
1B
100
AcDbEntity
  8
4
100
AcDbLine
 10
1622.196179668031
 20
551.3738849605325
 30
0.0
 11
1644.135489897237
 21
551.3738849605325
 31
0.0
  0
LINE
  5
371
330
1B
100
AcDbEntity
  8
4
100
AcDbLine
 10
1622.196179668031
 20
554.3738849605325
 30
0.0
 11
1644.135489897237
 21
554.3738849605325
 31
0.0
  0
ARC
  5
372
330
1B
100
AcDbEntity
  8
4
100
AcDbCircle
 10
1633.165834782634
 20
548.5781408253551
 30
0.0
 40
13.7957441351769
100
AcDbArc
 50
66.57340249137077
 51
113.4265975086292
  0
LINE
  5
373
330
1B
100
AcDbEntity
  8
4
100
AcDbLine
 10
1641.393076118586
 20
562.3738849605325
 30
0.0
 11
1624.938593446682
 21
562.3738849605325
 31
0.0
  0
ARC
  5
374
330
1B
100
AcDbEntity
  8
4
100
AcDbCircle
 10
1850.10519843064
 20
558.4985060851923
 30
0.0
 40
3.875378875279264
100
AcDbArc
 50
44.95592676273687
 51
135.0440732372441
  0
LINE
  5
375
330
1B
100
AcDbEntity
  8
4
100
AcDbLine
 10
1852.847612209291
 20
561.2367040498439
 30
0.0
 11
1852.847612209289
 21
554.3738849604706
 31
0.0
  0
LINE
  5
376
330
1B
100
AcDbEntity
  8
4
100
AcDbLine
 10
1847.362784651987
 20
551.373884960472
 30
0.0
 11
1847.36278465199
 21
561.2367040498452
 31
0.0
  0
LINE
  5
377
330
1B
100
AcDbEntity
  8
4
100
AcDbLine
 10
1863.817267323894
 20
561.2367040498407
 30
0.0
 11
1863.817267323892
 21
554.3738849604674
 31
0.0
  0
ARC
  5
378
330
1B
100
AcDbEntity
  8
4
100
AcDbCircle
 10
1858.332439766589
 20
548.5781408252917
 30
0.0
 40
13.7957441351769
100
AcDbArc
 50
66.57340249135639
 51
113.4265975086108
  0
LINE
  5
379
330
1B
100
AcDbEntity
  8
4
100
AcDbLine
 10
1850.105198430641
 20
562.3738849604715
 30
0.0
 11
1866.559681102545
 21
562.3738849604667
 31
0.0
  0
ARC
  5
37A
330
1B
100
AcDbEntity
  8
4
100
AcDbCircle
 10
1866.559681102544
 20
558.4985060851875
 30
0.0
 40
3.875378875279244
100
AcDbArc
 50
44.95592676272618
 51
135.0440732372334
  0
LINE
  5
37B
330
1B
100
AcDbEntity
  8
4
100
AcDbLine
 10
1869.302094881195
 20
561.2367040498393
 30
0.0
 11
1869.302094881192
 21
551.3738849604661
 31
0.0
  0
LINE
  5
37C
330
1B
100
AcDbEntity
  8
4
100
AcDbLine
 10
1869.302094881192
 20
551.3738849604661
 30
0.0
 11
1847.362784651987
 21
551.373884960472
 31
0.0
  0
LINE
  5
37D
330
1B
100
AcDbEntity
  8
L-CENTER
 48
3.0
100
AcDbLine
 10
1858.332439766594
 20
565.9747248405731
 30
0.0
 11
1858.332439766576
 21
505.1775262309307
 31
0.0
  0
LINE
  5
37E
330
1B
100
AcDbEntity
  8
4
100
AcDbLine
 10
372.294268932436
 20
435.6853999622112
 30
0.0
 11
380.8907419865833
 21
435.6853999622112
 31
0.0
  0
LINE
  5
37F
330
1B
100
AcDbEntity
  8
4
100
AcDbLine
 10
380.8907419865833
 20
455.3153091146587
 30
0.0
 11
372.294268932436
 21
455.3153091146587
 31
0.0
  0
LINE
  5
380
330
1B
100
AcDbEntity
  8
4
100
AcDbLine
 10
378.3907419865833
 20
435.6853999622112
 30
0.0
 11
378.3907419865833
 21
455.3153091146587
 31
0.0
  0
ARC
  5
381
330
1B
100
AcDbEntity
  8
4
100
AcDbCircle
 10
375.1743559156426
 20
452.8615704706026
 30
0.0
 40
3.783613929059507
100
AcDbArc
 50
139.5701031551704
 51
220.4298968448296
  0
ARC
  5
382
330
1B
100
AcDbEntity
  8
4
100
AcDbCircle
 10
385.1699072840426
 20
445.5003545384352
 30
0.0
 40
13.77916529745958
100
AcDbArc
 50
159.1359356360801
 51
200.8640643639199
  0
LINE
  5
383
330
1B
100
AcDbEntity
  8
4
100
AcDbLine
 10
371.3907419865833
 20
452.8615704706026
 30
0.0
 11
371.3907419865833
 21
438.1391386062674
 31
0.0
  0
ARC
  5
384
330
1B
100
AcDbEntity
  8
4
100
AcDbCircle
 10
375.1743559156426
 20
438.1391386062674
 30
0.0
 40
3.783613929059507
100
AcDbArc
 50
139.5701031551704
 51
220.4298968448296
  0
LINE
  5
385
330
1B
100
AcDbEntity
  8
4
100
AcDbLine
 10
372.294268932436
 20
450.407831826547
 30
0.0
 11
378.3907419865833
 21
450.407831826547
 31
0.0
  0
LINE
  5
386
330
1B
100
AcDbEntity
  8
4
100
AcDbLine
 10
372.294268932436
 20
440.592877250323
 30
0.0
 11
378.3907419865833
 21
440.592877250323
 31
0.0
  0
LINE
  5
387
330
1B
100
AcDbEntity
  8
4
100
AcDbLine
 10
380.8907419865833
 20
435.6853999622112
 30
0.0
 11
380.8907419865833
 21
455.3153091146587
 31
0.0
  0
CIRCLE
  5
388
330
1B
100
AcDbEntity
  8
4
100
AcDbCircle
 10
1751.739490618244
 20
445.5003545384351
 30
0.0
 40
8.5
  0
LINE
  5
389
330
1B
100
AcDbEntity
  8
4
100
AcDbLine
 10
1742.258972509215
 20
448.0406517095779
 30
0.0
 11
1744.799269680358
 21
438.5601336005492
 31
0.0
  0
LINE
  5
38A
330
1B
100
AcDbEntity
  8
4
100
AcDbLine
 10
1761.220008727272
 20
442.9600573672918
 30
0.0
 11
1758.67971155613
 21
452.4405754763208
 31
0.0
  0
LINE
  5
38B
330
1B
100
AcDbEntity
  8
4
100
AcDbLine
 10
1744.799269680358
 20
438.5601336005492
 30
0.0
 11
1754.279787789387
 21
436.0198364294064
 31
0.0
  0
LINE
  5
38C
330
1B
100
AcDbEntity
  8
4
100
AcDbLine
 10
1754.279787789387
 20
436.0198364294064
 30
0.0
 11
1761.220008727272
 21
442.9600573672918
 31
0.0
  0
LINE
  5
38D
330
1B
100
AcDbEntity
  8
4
100
AcDbLine
 10
1758.67971155613
 20
452.4405754763208
 30
0.0
 11
1749.199193447101
 21
454.9808726474633
 31
0.0
  0
LINE
  5
38E
330
1B
100
AcDbEntity
  8
4
100
AcDbLine
 10
1749.199193447101
 20
454.9808726474633
 30
0.0
 11
1742.258972509215
 21
448.0406517095779
 31
0.0
  0
CIRCLE
  5
38F
330
1B
100
AcDbEntity
  8
4
100
AcDbCircle
 10
1836.592241653827
 20
445.5002918317252
 30
0.0
 40
8.5
  0
LINE
  5
390
330
1B
100
AcDbEntity
  8
4
100
AcDbLine
 10
1827.111723544798
 20
448.040589002868
 30
0.0
 11
1829.652020715941
 21
438.5600708938393
 31
0.0
  0
LINE
  5
391
330
1B
100
AcDbEntity
  8
4
100
AcDbLine
 10
1846.072759762856
 20
442.959994660582
 30
0.0
 11
1843.532462591713
 21
452.4405127696109
 31
0.0
  0
LINE
  5
392
330
1B
100
AcDbEntity
  8
4
100
AcDbLine
 10
1829.652020715941
 20
438.5600708938393
 30
0.0
 11
1839.13253882497
 21
436.0197737226965
 31
0.0
  0
LINE
  5
393
330
1B
100
AcDbEntity
  8
4
100
AcDbLine
 10
1839.13253882497
 20
436.0197737226965
 30
0.0
 11
1846.072759762856
 21
442.959994660582
 31
0.0
  0
LINE
  5
394
330
1B
100
AcDbEntity
  8
4
100
AcDbLine
 10
1843.532462591713
 20
452.4405127696109
 30
0.0
 11
1834.051944482684
 21
454.9808099407535
 31
0.0
  0
LINE
  5
395
330
1B
100
AcDbEntity
  8
4
100
AcDbLine
 10
1834.051944482684
 20
454.9808099407535
 30
0.0
 11
1827.111723544798
 21
448.040589002868
 31
0.0
  0
CIRCLE
  5
396
330
1B
100
AcDbEntity
  8
4
100
AcDbCircle
 10
1751.739550411619
 20
360.6473555895163
 30
0.0
 40
8.5
  0
LINE
  5
397
330
1B
100
AcDbEntity
  8
4
100
AcDbLine
 10
1742.25903230259
 20
363.1876527606591
 30
0.0
 11
1744.799329473733
 21
353.7071346516304
 31
0.0
  0
LINE
  5
398
330
1B
100
AcDbEntity
  8
4
100
AcDbLine
 10
1761.220068520647
 20
358.1070584183731
 30
0.0
 11
1758.679771349504
 21
367.587576527402
 31
0.0
  0
LINE
  5
399
330
1B
100
AcDbEntity
  8
4
100
AcDbLine
 10
1744.799329473733
 20
353.7071346516304
 30
0.0
 11
1754.279847582761
 21
351.1668374804876
 31
0.0
  0
LINE
  5
39A
330
1B
100
AcDbEntity
  8
4
100
AcDbLine
 10
1754.279847582761
 20
351.1668374804876
 30
0.0
 11
1761.220068520647
 21
358.1070584183731
 31
0.0
  0
LINE
  5
39B
330
1B
100
AcDbEntity
  8
4
100
AcDbLine
 10
1758.679771349504
 20
367.587576527402
 30
0.0
 11
1749.199253240476
 21
370.1278736985446
 31
0.0
  0
LINE
  5
39C
330
1B
100
AcDbEntity
  8
4
100
AcDbLine
 10
1749.199253240476
 20
370.1278736985446
 30
0.0
 11
1742.25903230259
 21
363.1876527606591
 31
0.0
  0
CIRCLE
  5
39D
330
1B
100
AcDbEntity
  8
4
100
AcDbCircle
 10
1836.592187498037
 20
360.6474239336192
 30
0.0
 40
8.5
  0
LINE
  5
39E
330
1B
100
AcDbEntity
  8
4
100
AcDbLine
 10
1827.111669389009
 20
363.187721104762
 30
0.0
 11
1829.651966560152
 21
353.7072029957333
 31
0.0
  0
LINE
  5
39F
330
1B
100
AcDbEntity
  8
4
100
AcDbLine
 10
1846.072705607066
 20
358.1071267624759
 30
0.0
 11
1843.532408435923
 21
367.5876448715048
 31
0.0
  0
LINE
  5
3A0
330
1B
100
AcDbEntity
  8
4
100
AcDbLine
 10
1829.651966560152
 20
353.7072029957333
 30
0.0
 11
1839.13248466918
 21
351.1669058245905
 31
0.0
  0
LINE
  5
3A1
330
1B
100
AcDbEntity
  8
4
100
AcDbLine
 10
1839.13248466918
 20
351.1669058245905
 30
0.0
 11
1846.072705607066
 21
358.1071267624759
 31
0.0
  0
LINE
  5
3A2
330
1B
100
AcDbEntity
  8
4
100
AcDbLine
 10
1843.532408435923
 20
367.5876448715048
 30
0.0
 11
1834.051890326895
 21
370.1279420426474
 31
0.0
  0
LINE
  5
3A3
330
1B
100
AcDbEntity
  8
4
100
AcDbLine
 10
1834.051890326895
 20
370.1279420426474
 30
0.0
 11
1827.111669389009
 21
363.187721104762
 31
0.0
  0
LINE
  5
3A4
330
1B
100
AcDbEntity
  8
4
100
AcDbLine
 10
380.8907419865828
 20
350.8324608064069
 30
0.0
 11
372.2942689324356
 21
350.8324608064071
 31
0.0
  0
LINE
  5
3A5
330
1B
100
AcDbEntity
  8
4
100
AcDbLine
 10
372.2942689324356
 20
370.4623699588545
 30
0.0
 11
380.8907419865828
 21
370.4623699588543
 31
0.0
  0
LINE
  5
3A6
330
1B
100
AcDbEntity
  8
4
100
AcDbLine
 10
372.2942689324356
 20
365.5548926707428
 30
0.0
 11
378.3907419865828
 21
365.5548926707427
 31
0.0
  0
LINE
  5
3A7
330
1B
100
AcDbEntity
  8
4
100
AcDbLine
 10
372.2942689324356
 20
355.7399380945188
 30
0.0
 11
378.3907419865828
 21
355.7399380945187
 31
0.0
  0
ARC
  5
3A8
330
1B
100
AcDbEntity
  8
4
100
AcDbCircle
 10
375.1743559156422
 20
368.0086313147983
 30
0.0
 40
3.783613929059507
100
AcDbArc
 50
139.5701031551704
 51
220.4298968448296
  0
LINE
  5
3A9
330
1B
100
AcDbEntity
  8
4
100
AcDbLine
 10
371.3907419865828
 20
353.2861994504632
 30
0.0
 11
371.3907419865828
 21
368.0086313147984
 31
0.0
  0
ARC
  5
3AA
330
1B
100
AcDbEntity
  8
4
100
AcDbCircle
 10
385.1699072840421
 20
360.6474153826304
 30
0.0
 40
13.77916529745958
100
AcDbArc
 50
159.1359356360786
 51
200.8640643639189
  0
ARC
  5
3AB
330
1B
100
AcDbEntity
  8
4
100
AcDbCircle
 10
375.1743559156422
 20
353.2861994504631
 30
0.0
 40
3.783613929059507
100
AcDbArc
 50
139.5701031551704
 51
220.4298968448228
  0
LINE
  5
3AC
330
1B
100
AcDbEntity
  8
4
100
AcDbLine
 10
378.3907419865828
 20
370.4623699588544
 30
0.0
 11
378.3907419865828
 21
350.832460806407
 31
0.0
  0
LINE
  5
3AD
330
1B
100
AcDbEntity
  8
4
100
AcDbLine
 10
380.8907419865828
 20
370.4623699588543
 30
0.0
 11
380.8907419865828
 21
350.8324608064069
 31
0.0
  0
LINE
  5
3AE
330
1B
100
AcDbEntity
  8
4
100
AcDbLine
 10
990.6907419865837
 20
455.3153091146559
 30
0.0
 11
999.287215040731
 21
455.3153091146557
 31
0.0
  0
LINE
  5
3AF
330
1B
100
AcDbEntity
  8
4
100
AcDbLine
 10
999.2872150407305
 20
435.6853999622083
 30
0.0
 11
990.6907419865832
 21
435.6853999622084
 31
0.0
  0
LINE
  5
3B0
330
1B
100
AcDbEntity
  8
4
100
AcDbLine
 10
999.2872150407305
 20
440.59287725032
 30
0.0
 11
993.1907419865832
 21
440.59287725032
 31
0.0
  0
LINE
  5
3B1
330
1B
100
AcDbEntity
  8
4
100
AcDbLine
 10
999.2872150407305
 20
450.407831826544
 30
0.0
 11
993.1907419865832
 21
450.407831826544
 31
0.0
  0
ARC
  5
3B2
330
1B
100
AcDbEntity
  8
4
100
AcDbCircle
 10
996.4071280575239
 20
438.1391386062644
 30
0.0
 40
3.783613929059507
100
AcDbArc
 50
319.5701031551772
 51
40.42989684482285
  0
LINE
  5
3B3
330
1B
100
AcDbEntity
  8
4
100
AcDbLine
 10
1000.190741986583
 20
452.8615704705996
 30
0.0
 11
1000.190741986583
 21
438.1391386062644
 31
0.0
  0
ARC
  5
3B4
330
1B
100
AcDbEntity
  8
4
100
AcDbCircle
 10
986.411576689124
 20
445.5003545384324
 30
0.0
 40
13.77916529745958
100
AcDbArc
 50
339.1359356360801
 51
20.86406436391942
  0
ARC
  5
3B5
330
1B
100
AcDbEntity
  8
4
100
AcDbCircle
 10
996.4071280575239
 20
452.8615704705996
 30
0.0
 40
3.783613929059507
100
AcDbArc
 50
319.5701031551772
 51
40.42989684482285
  0
LINE
  5
3B6
330
1B
100
AcDbEntity
  8
4
100
AcDbLine
 10
993.1907419865832
 20
435.6853999622083
 30
0.0
 11
993.1907419865837
 21
455.3153091146557
 31
0.0
  0
LINE
  5
3B7
330
1B
100
AcDbEntity
  8
4
100
AcDbLine
 10
990.6907419865832
 20
370.4623699588515
 30
0.0
 11
990.6907419865832
 21
350.832460806404
 31
0.0
  0
LINE
  5
3B8
330
1B
100
AcDbEntity
  8
4
100
AcDbLine
 10
993.1907419865832
 20
370.4623699588515
 30
0.0
 11
993.1907419865832
 21
350.832460806404
 31
0.0
  0
ARC
  5
3B9
330
1B
100
AcDbEntity
  8
4
100
AcDbCircle
 10
996.4071280575239
 20
353.2861994504601
 30
0.0
 40
3.783613929059507
100
AcDbArc
 50
319.5701031551772
 51
40.42989684482285
  0
ARC
  5
3BA
330
1B
100
AcDbEntity
  8
4
100
AcDbCircle
 10
986.411576689124
 20
360.6474153826275
 30
0.0
 40
13.77916529745958
100
AcDbArc
 50
339.1359356360805
 51
20.86406436391987
  0
LINE
  5
3BB
330
1B
100
AcDbEntity
  8
4
100
AcDbLine
 10
1000.190741986583
 20
353.2861994504602
 30
0.0
 11
1000.190741986583
 21
368.0086313147955
 31
0.0
  0
ARC
  5
3BC
330
1B
100
AcDbEntity
  8
4
100
AcDbCircle
 10
996.4071280575239
 20
368.0086313147954
 30
0.0
 40
3.783613929059507
100
AcDbArc
 50
319.5701031551699
 51
40.42989684483014
  0
LINE
  5
3BD
330
1B
100
AcDbEntity
  8
4
100
AcDbLine
 10
999.2872150407305
 20
355.7399380945159
 30
0.0
 11
993.1907419865832
 21
355.7399380945158
 31
0.0
  0
LINE
  5
3BE
330
1B
100
AcDbEntity
  8
4
100
AcDbLine
 10
999.2872150407305
 20
365.5548926707398
 30
0.0
 11
993.1907419865832
 21
365.5548926707397
 31
0.0
  0
LINE
  5
3BF
330
1B
100
AcDbEntity
  8
4
100
AcDbLine
 10
999.2872150407305
 20
370.4623699588516
 30
0.0
 11
990.6907419865832
 21
370.4623699588515
 31
0.0
  0
LINE
  5
3C0
330
1B
100
AcDbEntity
  8
4
100
AcDbLine
 10
990.6907419865832
 20
350.832460806404
 30
0.0
 11
999.2872150407305
 21
350.8324608064041
 31
0.0
  0
LINE
  5
3C1
330
1B
100
AcDbEntity
  8
4
100
AcDbLine
 10
990.6907419865832
 20
1269.263503271981
 30
0.0
 11
999.2872150407305
 21
1269.263503271981
 31
0.0
  0
LINE
  5
3C2
330
1B
100
AcDbEntity
  8
4
100
AcDbLine
 10
999.2872150407301
 20
1288.893412424429
 30
0.0
 11
990.6907419865828
 21
1288.893412424429
 31
0.0
  0
LINE
  5
3C3
330
1B
100
AcDbEntity
  8
4
100
AcDbLine
 10
999.2872150407301
 20
1283.985935136317
 30
0.0
 11
993.1907419865828
 21
1283.985935136317
 31
0.0
  0
LINE
  5
3C4
330
1B
100
AcDbEntity
  8
4
100
AcDbLine
 10
999.2872150407305
 20
1274.170980560094
 30
0.0
 11
993.1907419865832
 21
1274.170980560094
 31
0.0
  0
ARC
  5
3C5
330
1B
100
AcDbEntity
  8
4
100
AcDbCircle
 10
996.4071280575234
 20
1286.439673780373
 30
0.0
 40
3.783613929059507
100
AcDbArc
 50
319.5701031551686
 51
40.42989684482285
  0
LINE
  5
3C6
330
1B
100
AcDbEntity
  8
4
100
AcDbLine
 10
1000.190741986583
 20
1271.717241916037
 30
0.0
 11
1000.190741986583
 21
1286.439673780373
 31
0.0
  0
ARC
  5
3C7
330
1B
100
AcDbEntity
  8
4
100
AcDbCircle
 10
986.4115766891235
 20
1279.078457848205
 30
0.0
 40
13.77916529745958
100
AcDbArc
 50
339.1359356360825
 51
20.86406436392153
  0
ARC
  5
3C8
330
1B
100
AcDbEntity
  8
4
100
AcDbCircle
 10
996.4071280575239
 20
1271.717241916037
 30
0.0
 40
3.783613929059507
100
AcDbArc
 50
319.5701031551772
 51
40.42989684483145
  0
LINE
  5
3C9
330
1B
100
AcDbEntity
  8
4
100
AcDbLine
 10
993.1907419865828
 20
1288.893412424429
 30
0.0
 11
993.1907419865832
 21
1269.263503271981
 31
0.0
  0
LINE
  5
3CA
330
1B
100
AcDbEntity
  8
4
100
AcDbLine
 10
990.6907419865828
 20
1288.893412424429
 30
0.0
 11
990.6907419865832
 21
1269.263503271981
 31
0.0
  0
LINE
  5
3CE
330
1B
100
AcDbEntity
  8
4
100
AcDbLine
 10
990.6907419865832
 20
1354.116442427785
 30
0.0
 11
990.6907419865832
 21
1373.746351580233
 31
0.0
  0
LINE
  5
3CF
330
1B
100
AcDbEntity
  8
4
100
AcDbLine
 10
993.1907419865832
 20
1354.116442427785
 30
0.0
 11
993.1907419865832
 21
1373.746351580233
 31
0.0
  0
ARC
  5
3D0
330
1B
100
AcDbEntity
  8
4
100
AcDbCircle
 10
996.4071280575239
 20
1371.292612936177
 30
0.0
 40
3.783613929059507
100
AcDbArc
 50
319.5701031551686
 51
40.42989684483145
  0
ARC
  5
3D1
330
1B
100
AcDbEntity
  8
4
100
AcDbCircle
 10
986.411576689124
 20
1363.93139700401
 30
0.0
 40
13.77916529745958
100
AcDbArc
 50
339.1359356360825
 51
20.86406436392153
  0
LINE
  5
3D2
330
1B
100
AcDbEntity
  8
4
100
AcDbLine
 10
1000.190741986583
 20
1371.292612936177
 30
0.0
 11
1000.190741986583
 21
1356.570181071841
 31
0.0
  0
ARC
  5
3D3
330
1B
100
AcDbEntity
  8
4
100
AcDbCircle
 10
996.4071280575239
 20
1356.570181071841
 30
0.0
 40
3.783613929059507
100
AcDbArc
 50
319.5701031551686
 51
40.42989684483145
  0
LINE
  5
3D4
330
1B
100
AcDbEntity
  8
4
100
AcDbLine
 10
999.2872150407305
 20
1368.838874292121
 30
0.0
 11
993.1907419865832
 21
1368.838874292121
 31
0.0
  0
LINE
  5
3D5
330
1B
100
AcDbEntity
  8
4
100
AcDbLine
 10
999.2872150407305
 20
1359.023919715898
 30
0.0
 11
993.1907419865832
 21
1359.023919715898
 31
0.0
  0
LINE
  5
3D6
330
1B
100
AcDbEntity
  8
4
100
AcDbLine
 10
999.2872150407305
 20
1354.116442427785
 30
0.0
 11
990.6907419865832
 21
1354.116442427785
 31
0.0
  0
LINE
  5
3D7
330
1B
100
AcDbEntity
  8
4
100
AcDbLine
 10
990.6907419865832
 20
1373.746351580233
 30
0.0
 11
999.2872150407305
 21
1373.746351580233
 31
0.0
  0
LINE
  5
3D8
330
1B
100
AcDbEntity
  8
4
100
AcDbLine
 10
380.8907419865833
 20
1384.00492742611
 30
0.0
 11
380.8907419865833
 21
1259.00492742611
 31
0.0
  0
LINE
  5
3D9
330
1B
100
AcDbEntity
  8
4
100
AcDbLine
 10
380.8907419865828
 20
1288.893412424432
 30
0.0
 11
380.8907419865824
 21
1269.263503271984
 31
0.0
  0
LINE
  5
3DA
330
1B
100
AcDbEntity
  8
4
100
AcDbLine
 10
378.3907419865828
 20
1288.893412424432
 30
0.0
 11
378.3907419865824
 21
1269.263503271984
 31
0.0
  0
ARC
  5
3DB
330
1B
100
AcDbEntity
  8
4
100
AcDbCircle
 10
375.1743559156417
 20
1271.71724191604
 30
0.0
 40
3.783613929059507
100
AcDbArc
 50
139.5701031551685
 51
220.4298968448228
  0
ARC
  5
3DC
330
1B
100
AcDbEntity
  8
4
100
AcDbCircle
 10
385.1699072840416
 20
1279.078457848208
 30
0.0
 40
13.77916529745958
100
AcDbArc
 50
159.1359356360786
 51
200.8640643639174
  0
LINE
  5
3DD
330
1B
100
AcDbEntity
  8
4
100
AcDbLine
 10
371.3907419865824
 20
1271.717241916041
 30
0.0
 11
371.3907419865824
 21
1286.439673780376
 31
0.0
  0
ARC
  5
3DE
330
1B
100
AcDbEntity
  8
4
100
AcDbCircle
 10
375.1743559156417
 20
1286.439673780376
 30
0.0
 40
3.783613929059507
100
AcDbArc
 50
139.5701031551772
 51
220.4298968448315
  0
LINE
  5
3DF
330
1B
100
AcDbEntity
  8
4
100
AcDbLine
 10
372.2942689324351
 20
1274.170980560096
 30
0.0
 11
378.3907419865824
 21
1274.170980560096
 31
0.0
  0
LINE
  5
3E0
330
1B
100
AcDbEntity
  8
4
100
AcDbLine
 10
372.2942689324351
 20
1283.98593513632
 30
0.0
 11
378.3907419865824
 21
1283.98593513632
 31
0.0
  0
LINE
  5
3E1
330
1B
100
AcDbEntity
  8
4
100
AcDbLine
 10
372.2942689324356
 20
1288.893412424432
 30
0.0
 11
380.8907419865828
 21
1288.893412424432
 31
0.0
  0
LINE
  5
3E2
330
1B
100
AcDbEntity
  8
4
100
AcDbLine
 10
380.8907419865824
 20
1269.263503271984
 30
0.0
 11
372.2942689324351
 21
1269.263503271985
 31
0.0
  0
LINE
  5
3E3
330
1B
100
AcDbEntity
  8
4
100
AcDbLine
 10
372.294268932436
 20
1354.116442427789
 30
0.0
 11
380.8907419865833
 21
1354.116442427789
 31
0.0
  0
LINE
  5
3E4
330
1B
100
AcDbEntity
  8
4
100
AcDbLine
 10
372.294268932436
 20
1359.0239197159
 30
0.0
 11
378.3907419865833
 21
1359.0239197159
 31
0.0
  0
ARC
  5
3E5
330
1B
100
AcDbEntity
  8
4
100
AcDbCircle
 10
375.1743559156426
 20
1356.570181071845
 30
0.0
 40
3.783613929059507
100
AcDbArc
 50
139.5701031551772
 51
220.4298968448228
  0
LINE
  5
3E6
330
1B
100
AcDbEntity
  8
4
100
AcDbLine
 10
371.3907419865833
 20
1371.29261293618
 30
0.0
 11
371.3907419865833
 21
1356.570181071845
 31
0.0
  0
ARC
  5
3E7
330
1B
100
AcDbEntity
  8
4
100
AcDbCircle
 10
385.1699072840426
 20
1363.931397004013
 30
0.0
 40
13.77916529745958
100
AcDbArc
 50
159.1359356360786
 51
200.8640643639174
  0
LINE
  5
3E8
330
1B
100
AcDbEntity
  8
4
100
AcDbLine
 10
378.3907419865833
 20
1354.116442427789
 30
0.0
 11
378.3907419865833
 21
1373.746351580236
 31
0.0
  0
LINE
  5
3E9
330
1B
100
AcDbEntity
  8
4
100
AcDbLine
 10
380.8907419865833
 20
1354.116442427789
 30
0.0
 11
380.8907419865833
 21
1373.746351580236
 31
0.0
  0
LINE
  5
3EA
330
1B
100
AcDbEntity
  8
4
100
AcDbLine
 10
380.8907419865833
 20
1373.746351580236
 30
0.0
 11
372.294268932436
 21
1373.746351580236
 31
0.0
  0
LINE
  5
3EB
330
1B
100
AcDbEntity
  8
4
100
AcDbLine
 10
372.294268932436
 20
1368.838874292125
 30
0.0
 11
378.3907419865833
 21
1368.838874292125
 31
0.0
  0
ARC
  5
3EC
330
1B
100
AcDbEntity
  8
4
100
AcDbCircle
 10
375.1743559156426
 20
1371.29261293618
 30
0.0
 40
3.783613929059507
100
AcDbArc
 50
139.5701031551772
 51
220.4298968448228
  0
ARC
  5
401
330
1B
100
AcDbEntity
  8
4
100
AcDbCircle
 10
685.7907419865833
 20
969.2549274261097
 30
0.0
 40
6.25
100
AcDbArc
 50
0.0
 51
180.0
  0
ARC
  5
402
330
1B
100
AcDbEntity
  8
4
100
AcDbCircle
 10
685.7907419865833
 20
945.5049274261097
 30
0.0
 40
15.0
100
AcDbArc
 50
294.6243183521641
 51
65.37568164783595
  0
ARC
  5
403
330
1B
100
AcDbEntity
  8
4
100
AcDbCircle
 10
685.7907419865833
 20
945.5049274261097
 30
0.0
 40
13.5
100
AcDbArc
 50
297.5784679781231
 51
62.42153202187692
  0
ARC
  5
404
330
1B
100
AcDbEntity
  8
4
100
AcDbCircle
 10
685.7907419865833
 20
945.5049274261097
 30
0.0
 40
13.5
100
AcDbArc
 50
117.5784679781231
 51
242.4215320218774
  0
ARC
  5
405
330
1B
100
AcDbEntity
  8
4
100
AcDbCircle
 10
685.7907419865833
 20
945.5049274261097
 30
0.0
 40
15.0
100
AcDbArc
 50
114.6243183521641
 51
245.3756816478359
  0
ARC
  5
406
330
1B
100
AcDbEntity
  8
4
100
AcDbCircle
 10
685.7907419865833
 20
921.7549274261097
 30
0.0
 40
6.25
100
AcDbArc
 50
180.0
 51
0.0
  0
LINE
  5
407
330
1B
100
AcDbEntity
  8
4
100
AcDbLine
 10
679.5407419865833
 20
921.7549274261097
 30
0.0
 11
679.5407419865833
 21
969.2549274261097
 31
0.0
  0
LINE
  5
408
330
1B
100
AcDbEntity
  8
4
100
AcDbLine
 10
692.0407419865833
 20
921.7549274261097
 30
0.0
 11
692.0407419865833
 21
969.2549274261097
 31
0.0
  0
ARC
  5
409
330
1B
100
AcDbEntity
  8
4
100
AcDbCircle
 10
685.7907419865833
 20
1399.25492742611
 30
0.0
 40
6.25
100
AcDbArc
 50
0.0
 51
180.0
  0
ARC
  5
40A
330
1B
100
AcDbEntity
  8
4
100
AcDbCircle
 10
685.7907419865833
 20
1375.50492742611
 30
0.0
 40
15.0
100
AcDbArc
 50
294.6243183521642
 51
65.37568164783578
  0
ARC
  5
40B
330
1B
100
AcDbEntity
  8
4
100
AcDbCircle
 10
685.7907419865833
 20
1375.50492742611
 30
0.0
 40
13.5
100
AcDbArc
 50
297.5784679781224
 51
62.42153202187886
  0
ARC
  5
40C
330
1B
100
AcDbEntity
  8
4
100
AcDbCircle
 10
685.7907419865833
 20
1375.50492742611
 30
0.0
 40
13.5
100
AcDbArc
 50
117.5784679781212
 51
242.4215320218776
  0
ARC
  5
40D
330
1B
100
AcDbEntity
  8
4
100
AcDbCircle
 10
685.7907419865833
 20
1351.75492742611
 30
0.0
 40
6.25
100
AcDbArc
 50
180.0
 51
0.0
  0
LINE
  5
40E
330
1B
100
AcDbEntity
  8
4
100
AcDbLine
 10
679.5407419865833
 20
1351.75492742611
 30
0.0
 11
679.5407419865833
 21
1399.25492742611
 31
0.0
  0
LINE
  5
40F
330
1B
100
AcDbEntity
  8
4
100
AcDbLine
 10
692.0407419865833
 20
1351.75492742611
 30
0.0
 11
692.0407419865833
 21
1399.25492742611
 31
0.0
  0
ARC
  5
410
330
1B
100
AcDbEntity
  8
4
100
AcDbCircle
 10
685.7907419865833
 20
1375.50492742611
 30
0.0
 40
15.0
100
AcDbArc
 50
114.6243183521642
 51
245.3756816478357
  0
ARC
  5
411
330
1B
100
AcDbEntity
  8
4
100
AcDbCircle
 10
685.7907419865837
 20
1375.50492742611
 30
0.0
 40
24.0
100
AcDbArc
 50
105.0947870995443
 51
254.9052129004557
  0
ARC
  5
412
330
1B
100
AcDbEntity
  8
4
100
AcDbCircle
 10
685.7907419865833
 20
945.5049274261102
 30
0.0
 40
24.0
100
AcDbArc
 50
285.0947870995432
 51
74.90521290045679
  0
LINE
  5
413
330
1B
100
AcDbEntity
  8
4
100
AcDbLine
 10
701.3787419865835
 20
1459.50492742611
 30
0.0
 11
701.378741986583
 21
1464.50492742611
 31
0.0
  0
LINE
  5
414
330
1B
100
AcDbEntity
  8
4
100
AcDbLine
 10
670.2027419865835
 20
1459.50492742611
 30
0.0
 11
670.2027419865835
 21
1464.50492742611
 31
0.0
  0
LINE
  5
415
330
1B
100
AcDbEntity
  8
4
100
AcDbLine
 10
702.7907419865833
 20
1457.50492742611
 30
0.0
 11
702.7907419865833
 21
1455.50492742611
 31
0.0
  0
LINE
  5
416
330
1B
100
AcDbEntity
  8
4
100
AcDbLine
 10
703.7907419865833
 20
1457.50492742611
 30
0.0
 11
703.7907419865837
 21
1459.50492742611
 31
0.0
  0
LINE
  5
417
330
1B
100
AcDbEntity
  8
4
100
AcDbLine
 10
670.2027419865835
 20
1464.50492742611
 30
0.0
 11
701.378741986583
 21
1464.50492742611
 31
0.0
  0
LINE
  5
418
330
1B
100
AcDbEntity
  8
4
100
AcDbLine
 10
667.7907419865833
 20
1457.50492742611
 30
0.0
 11
667.7907419865833
 21
1459.50492742611
 31
0.0
  0
LINE
  5
419
330
1B
100
AcDbEntity
  8
4
100
AcDbLine
 10
667.7907419865833
 20
1459.50492742611
 30
0.0
 11
703.7907419865833
 21
1459.50492742611
 31
0.0
  0
LINE
  5
41A
330
1B
100
AcDbEntity
  8
4
100
AcDbLine
 10
667.7907419865833
 20
1457.50492742611
 30
0.0
 11
703.7907419865833
 21
1457.50492742611
 31
0.0
  0
LINE
  5
41B
330
1B
100
AcDbEntity
  8
4
100
AcDbLine
 10
668.7907419865833
 20
1457.50492742611
 30
0.0
 11
668.7907419865833
 21
1455.50492742611
 31
0.0
  0
LINE
  5
41C
330
1B
100
AcDbEntity
  8
L-CENTER
 48
3.0
100
AcDbLine
 10
645.7907419865824
 20
1026.50492742611
 30
0.0
 11
725.7907419865833
 21
1026.50492742611
 31
0.0
  0
CIRCLE
  5
41D
330
1B
100
AcDbEntity
  8
4
100
AcDbCircle
 10
685.7907419865837
 20
1026.50492742611
 30
0.0
 40
25.0
  0
CIRCLE
  5
41E
330
1B
100
AcDbEntity
  8
4
100
AcDbCircle
 10
685.7907419865833
 20
1026.50492742611
 30
0.0
 40
23.0
  0
LWPOLYLINE
  5
41F
330
1B
100
AcDbEntity
  8
4
100
AcDbPolyline
 90
        6
 70
     1
 43
0.0
 10
685.7907419865833
 20
1049.50492742611
 10
665.8721576995413
 20
1038.00492742611
 10
665.8721576995413
 20
1015.00492742611
 10
685.7907419865833
 20
1003.50492742611
 10
705.7093262736253
 20
1015.00492742611
 10
705.7093262736253
 20
1038.00492742611
  0
LINE
  5
420
330
1B
100
AcDbEntity
  8
4
100
AcDbLine
 10
1477.165834782634
 20
557.3738849605325
 30
0.0
 11
1521.165834782634
 21
557.3738849605325
 31
0.0
  0
LINE
  5
421
330
1B
100
AcDbEntity
  8
4
100
AcDbLine
 10
1476.165834782634
 20
559.3738849605325
 30
0.0
 11
1522.165834782634
 21
559.3738849605325
 31
0.0
  0
LINE
  5
422
330
1B
100
AcDbEntity
  8
4
100
AcDbLine
 10
1524.165834782634
 20
557.3738849605325
 30
0.0
 11
1474.165834782634
 21
557.3738849605325
 31
0.0
  0
LINE
  5
423
330
1B
100
AcDbEntity
  8
4
100
AcDbLine
 10
1476.165834782634
 20
563.3738849605329
 30
0.0
 11
1522.165834782634
 21
563.3738849605329
 31
0.0
  0
LINE
  5
424
330
1B
100
AcDbEntity
  8
4
100
AcDbLine
 10
1476.165834782634
 20
568.3738849605329
 30
0.0
 11
1522.165834782634
 21
568.3738849605329
 31
0.0
  0
LINE
  5
425
330
1B
100
AcDbEntity
  8
4
100
AcDbLine
 10
1487.665834782634
 20
563.3738849605329
 30
0.0
 11
1487.665834782634
 21
568.3738849605329
 31
0.0
  0
LINE
  5
426
330
1B
100
AcDbEntity
  8
4
100
AcDbLine
 10
1477.165834782634
 20
559.3738849605325
 30
0.0
 11
1477.165834782634
 21
557.3738849605325
 31
0.0
  0
LINE
  5
427
330
1B
100
AcDbEntity
  8
4
100
AcDbLine
 10
1474.165834782634
 20
557.3738849605325
 30
0.0
 11
1474.165834782634
 21
551.3738849605325
 31
0.0
  0
LINE
  5
428
330
1B
100
AcDbEntity
  8
4
100
AcDbLine
 10
1476.165834782634
 20
559.3738849605325
 30
0.0
 11
1476.165834782634
 21
568.3738849605329
 31
0.0
  0
LINE
  5
429
330
1B
100
AcDbEntity
  8
L-CENTER
 48
3.0
100
AcDbLine
 10
1499.165834782634
 20
576.7227649605325
 30
0.0
 11
1499.165834782634
 21
535.9119699605326
 31
0.0
  0
LINE
  5
42A
330
1B
100
AcDbEntity
  8
4
100
AcDbLine
 10
1521.165834782634
 20
559.3738849605325
 30
0.0
 11
1521.165834782634
 21
557.3738849605325
 31
0.0
  0
LINE
  5
42B
330
1B
100
AcDbEntity
  8
4
100
AcDbLine
 10
1524.165834782634
 20
557.3738849605325
 30
0.0
 11
1524.165834782634
 21
551.3738849605325
 31
0.0
  0
LINE
  5
42C
330
1B
100
AcDbEntity
  8
4
100
AcDbLine
 10
1522.165834782634
 20
559.3738849605325
 30
0.0
 11
1522.165834782634
 21
568.3738849605329
 31
0.0
  0
LINE
  5
42D
330
1B
100
AcDbEntity
  8
4
100
AcDbLine
 10
1510.665834782634
 20
563.3738849605329
 30
0.0
 11
1510.665834782634
 21
568.3738849605329
 31
0.0
  0
LINE
  5
42E
330
1B
100
AcDbEntity
  8
4
100
AcDbLine
 10
663.7907419865837
 20
557.3738849605325
 30
0.0
 11
671.1499385203383
 21
557.3738849605325
 31
0.0
  0
LINE
  5
42F
330
1B
100
AcDbEntity
  8
4
100
AcDbLine
 10
700.431698061213
 20
557.3738849605325
 30
0.0
 11
707.7907419865837
 21
557.3738849605325
 31
0.0
  0
LINE
  5
430
330
1B
100
AcDbEntity
  8
4
100
AcDbLine
 10
662.7907419865837
 20
559.3738849605325
 30
0.0
 11
671.2547857930654
 21
559.3738849605325
 31
0.0
  0
LINE
  5
431
330
1B
100
AcDbEntity
  8
4
100
AcDbLine
 10
700.3268953339402
 20
559.3738849605325
 30
0.0
 11
708.7907419865837
 21
559.3738849605325
 31
0.0
  0
LINE
  5
432
330
1B
100
AcDbEntity
  8
4
100
AcDbLine
 10
710.7907419865837
 20
557.3738849605325
 30
0.0
 11
700.431698061213
 21
557.3738849605325
 31
0.0
  0
LINE
  5
433
330
1B
100
AcDbEntity
  8
4
100
AcDbLine
 10
671.1499385203383
 20
557.3738849605325
 30
0.0
 11
660.7907419865837
 21
557.3738849605325
 31
0.0
  0
LINE
  5
434
330
1B
100
AcDbEntity
  8
4
100
AcDbLine
 10
662.7907419865837
 20
563.3738849605329
 30
0.0
 11
679.5407419865837
 21
563.3738849605329
 31
0.0
  0
LINE
  5
435
330
1B
100
AcDbEntity
  8
4
100
AcDbLine
 10
692.0407419865837
 20
563.3738849605329
 30
0.0
 11
708.7907419865837
 21
563.3738849605329
 31
0.0
  0
LINE
  5
436
330
1B
100
AcDbEntity
  8
4
100
AcDbLine
 10
665.8721576995413
 20
568.3738849605329
 30
0.0
 11
679.5407419865837
 21
568.3738849605329
 31
0.0
  0
LINE
  5
437
330
1B
100
AcDbEntity
  8
4
100
AcDbLine
 10
692.0407419865837
 20
568.3738849605329
 30
0.0
 11
705.7093262736262
 21
568.3738849605329
 31
0.0
  0
LINE
  5
438
330
1B
100
AcDbEntity
  8
4
100
AcDbLine
 10
663.7907419865837
 20
559.3738849605325
 30
0.0
 11
663.7907419865837
 21
557.3738849605325
 31
0.0
  0
LINE
  5
439
330
1B
100
AcDbEntity
  8
4
100
AcDbLine
 10
660.7907419865837
 20
557.3738849605325
 30
0.0
 11
660.7907419865837
 21
551.3738849605325
 31
0.0
  0
LINE
  5
43A
330
1B
100
AcDbEntity
  8
4
100
AcDbLine
 10
662.7907419865837
 20
559.3738849605325
 30
0.0
 11
662.7907419865837
 21
563.3738849605329
 31
0.0
  0
LINE
  5
43B
330
1B
100
AcDbEntity
  8
4
100
AcDbLine
 10
707.7907419865837
 20
559.3738849605325
 30
0.0
 11
707.7907419865837
 21
557.3738849605325
 31
0.0
  0
LINE
  5
43C
330
1B
100
AcDbEntity
  8
4
100
AcDbLine
 10
710.7907419865837
 20
557.3738849605325
 30
0.0
 11
710.7907419865837
 21
551.3738849605325
 31
0.0
  0
LINE
  5
43D
330
1B
100
AcDbEntity
  8
4
100
AcDbLine
 10
708.7907419865837
 20
559.3738849605325
 30
0.0
 11
708.7907419865837
 21
563.3738849605329
 31
0.0
  0
LINE
  5
43E
330
1B
100
AcDbEntity
  8
4
100
AcDbLine
 10
665.8721576995413
 20
568.3738849605329
 30
0.0
 11
665.8721576995413
 21
563.3738849605329
 31
0.0
  0
LINE
  5
43F
330
1B
100
AcDbEntity
  8
4
100
AcDbLine
 10
705.7093262736262
 20
568.3738849605329
 30
0.0
 11
705.7093262736262
 21
563.3738849605329
 31
0.0
  0
LINE
  5
440
330
1B
100
AcDbEntity
  8
L-CENTER
 48
3.0
100
AcDbLine
 10
662.7203971258655
 20
300.5730450804286
 30
0.0
 11
662.7203971258655
 21
347.9593080752264
 31
0.0
  0
LINE
  5
441
330
1B
100
AcDbEntity
  8
L-CENTER
 48
3.0
100
AcDbLine
 10
1005.291581866687
 20
445.5003545384322
 30
0.0
 11
957.9053188718898
 21
445.5003545384322
 31
0.0
  0
LINE
  5
442
330
1B
100
AcDbEntity
  8
L-CENTER
 48
3.0
100
AcDbLine
 10
1005.291581866687
 20
360.647415382633
 30
0.0
 11
957.9053188718898
 21
360.647415382633
 31
0.0
  0
LINE
  5
443
330
1B
100
AcDbEntity
  8
L-CENTER
 48
3.0
100
AcDbLine
 10
366.2899021064792
 20
445.5003545384313
 30
0.0
 11
413.6761651012772
 21
445.5003545384315
 31
0.0
  0
LINE
  5
444
330
1B
100
AcDbEntity
  8
L-CENTER
 48
3.0
100
AcDbLine
 10
366.2899021064796
 20
360.6474153826321
 30
0.0
 11
413.6761651012772
 21
360.6474153826322
 31
0.0
  0
LINE
  5
445
330
1B
100
AcDbEntity
  8
L-CENTER
 48
3.0
100
AcDbLine
 10
1005.291581866688
 20
1363.931397004009
 30
0.0
 11
957.9053188718902
 21
1363.931397004009
 31
0.0
  0
LINE
  5
446
330
1B
100
AcDbEntity
  8
L-CENTER
 48
3.0
100
AcDbLine
 10
1005.291581866688
 20
1279.07845784821
 30
0.0
 11
957.9053188718902
 21
1279.07845784821
 31
0.0
  0
LINE
  5
447
330
1B
100
AcDbEntity
  8
L-CENTER
 48
3.0
100
AcDbLine
 10
366.2899021064792
 20
1363.931397004008
 30
0.0
 11
413.6761651012772
 21
1363.931397004008
 31
0.0
  0
LINE
  5
448
330
1B
100
AcDbEntity
  8
L-CENTER
 48
3.0
100
AcDbLine
 10
366.2899021064796
 20
1279.078457848209
 30
0.0
 11
413.6761651012777
 21
1279.078457848209
 31
0.0
  0
TEXT
  5
5DB
330
1B
100
AcDbEntity
  8
3
100
AcDbText
 10
1082.404154344324
 20
145.2920126500451
 30
0.0
 40
15.0
  1
LDC7-03
  7
KANJI
 72
     1
 11
1131.154154344324
 21
145.2920126500451
 31
0.0
100
AcDbText
  0
ARC
  5
5F8
330
1B
100
AcDbEntity
  8
4
100
AcDbCircle
 10
397.7907419865833
 20
524.0738849605327
 30
0.0
 40
2.0
100
AcDbArc
 50
90.0
 51
180.0
  0
ARC
  5
5F9
330
1B
100
AcDbEntity
  8
4
100
AcDbCircle
 10
973.7907419865833
 20
524.0738849605327
 30
0.0
 40
2.0
100
AcDbArc
 50
0.0
 51
90.0
  0
ARC
  5
5FA
330
1B
100
AcDbEntity
  8
4
100
AcDbCircle
 10
1345.165834782634
 20
524.0738849605327
 30
0.0
 40
2.0
100
AcDbArc
 50
90.0
 51
180.0
  0
ARC
  5
5FB
330
1B
100
AcDbEntity
  8
4
100
AcDbCircle
 10
1921.165834782634
 20
524.0738849605327
 30
0.0
 40
2.0
100
AcDbArc
 50
0.0
 51
90.0
  0
ARC
  5
5FC
330
1B
100
AcDbEntity
  8
4
100
AcDbCircle
 10
958.7907419865833
 20
549.3738849605325
 30
0.0
 40
2.0
100
AcDbArc
 50
0.0
 51
90.0
  0
ARC
  5
5FD
330
1B
100
AcDbEntity
  8
4
100
AcDbCircle
 10
412.7907419865833
 20
549.3738849605325
 30
0.0
 40
2.0
100
AcDbArc
 50
90.0
 51
180.0
  0
ARC
  5
5FE
330
1B
100
AcDbEntity
  8
4
100
AcDbCircle
 10
510.3808319865839
 20
568.2738849605325
 30
0.0
 40
1.0
100
AcDbArc
 50
90.0
 51
180.0
  0
ARC
  5
5FF
330
1B
100
AcDbEntity
  8
4
100
AcDbCircle
 10
698.3808319865839
 20
568.2738849605325
 30
0.0
 40
1.0
100
AcDbArc
 50
5.739170477287646
 51
90.0
  0
ARC
  5
600
330
1B
100
AcDbEntity
  8
4
100
AcDbCircle
 10
716.7907419865837
 20
568.2738849605325
 30
0.0
 40
1.0
100
AcDbArc
 50
90.0
 51
180.0
  0
ARC
  5
601
330
1B
100
AcDbEntity
  8
4
100
AcDbCircle
 10
874.7907419865837
 20
568.2738849605325
 30
0.0
 40
1.0
100
AcDbArc
 50
0.0
 51
90.0
  0
ARC
  5
602
330
1B
100
AcDbEntity
  8
4
100
AcDbCircle
 10
1360.165834782634
 20
549.3738849605325
 30
0.0
 40
2.0
100
AcDbArc
 50
90.0
 51
180.0
  0
ARC
  5
603
330
1B
100
AcDbEntity
  8
4
100
AcDbCircle
 10
1906.165834782634
 20
549.3738849605325
 30
0.0
 40
2.0
100
AcDbArc
 50
0.0
 51
90.0
  0
LINE
  5
604
330
1B
100
AcDbEntity
  8
4
100
AcDbLine
 10
1847.36278465199
 20
554.3738849604692
 30
0.0
 11
1869.302094881195
 21
554.3738849604692
 31
0.0
  0
ARC
  5
605
330
1B
100
AcDbEntity
  8
4
100
AcDbCircle
 10
1540.165834782634
 20
568.2738849605325
 30
0.0
 40
1.0
100
AcDbArc
 50
90.0
 51
180.0
  0
ARC
  5
606
330
1B
100
AcDbEntity
  8
4
100
AcDbCircle
 10
1698.165834782634
 20
568.2738849605325
 30
0.0
 40
1.0
100
AcDbArc
 50
0.0
 51
90.0
  0
ARC
  5
607
330
1B
100
AcDbEntity
  8
4
100
AcDbCircle
 10
1728.165837311494
 20
568.2738849605325
 30
0.0
 40
1.0
100
AcDbArc
 50
0.0001448901923671
 51
90.0
  0
ARC
  5
608
330
1B
100
AcDbEntity
  8
4
100
AcDbCircle
 10
698.3808319865839
 20
316.1738849605326
 30
0.0
 40
1.0
100
AcDbArc
 50
270.0
 51
0.0
  0
ARC
  5
609
330
1B
100
AcDbEntity
  8
4
100
AcDbCircle
 10
716.7907419865837
 20
316.1738849605326
 30
0.0
 40
1.0
100
AcDbArc
 50
180.0
 51
270.0
  0
ARC
  5
60A
330
1B
100
AcDbEntity
  8
4
100
AcDbCircle
 10
1539.165834782634
 20
316.1738849605326
 30
0.0
 40
1.0
100
AcDbArc
 50
180.0
 51
270.0
  0
ARC
  5
60B
330
1B
100
AcDbEntity
  8
4
100
AcDbCircle
 10
1698.165834782634
 20
316.1738849605326
 30
0.0
 40
1.0
100
AcDbArc
 50
270.0
 51
0.0
  0
ARC
  5
60C
330
1B
100
AcDbEntity
  8
4
100
AcDbCircle
 10
1727.165834782634
 20
316.1738849605326
 30
0.0
 40
1.0
100
AcDbArc
 50
270.0
 51
0.0
  0
LINE
  5
610
330
1B
100
AcDbEntity
  8
4
100
AcDbLine
 10
1682.6871896543
 20
569.2738849605325
 30
0.0
 11
1702.317098806747
 21
569.2738849605325
 31
0.0
  0
LINE
  5
611
330
1B
100
AcDbEntity
  8
4
100
AcDbLine
 10
1682.6871896543
 20
571.7738849605325
 30
0.0
 11
1702.317098806747
 21
571.7738849605325
 31
0.0
  0
ARC
  5
612
330
1B
100
AcDbEntity
  8
4
100
AcDbCircle
 10
1685.140928298356
 20
574.9902710314732
 30
0.0
 40
3.783613929059507
100
AcDbArc
 50
49.57010315517826
 51
130.4298968448217
  0
LINE
  5
613
330
1B
100
AcDbEntity
  8
4
100
AcDbLine
 10
1699.863360162691
 20
578.7738849605325
 30
0.0
 11
1685.140928298356
 21
578.7738849605325
 31
0.0
  0
ARC
  5
614
330
1B
100
AcDbEntity
  8
4
100
AcDbCircle
 10
1699.863360162691
 20
574.9902710314732
 30
0.0
 40
3.783613929059507
100
AcDbArc
 50
49.57010315516856
 51
130.4298968448315
  0
ARC
  5
615
330
1B
100
AcDbEntity
  8
4
100
AcDbCircle
 10
1692.502144230524
 20
564.9947196630733
 30
0.0
 40
13.77916529745958
100
AcDbArc
 50
69.13593563608057
 51
110.8640643639194
  0
LINE
  5
616
330
1B
100
AcDbEntity
  8
4
100
AcDbLine
 10
1697.409621518635
 20
577.8703580146798
 30
0.0
 11
1697.409621518635
 21
571.7738849605325
 31
0.0
  0
LINE
  5
617
330
1B
100
AcDbEntity
  8
4
100
AcDbLine
 10
1687.594666942412
 20
577.8703580146798
 30
0.0
 11
1687.594666942412
 21
571.7738849605325
 31
0.0
  0
LINE
  5
618
330
1B
100
AcDbEntity
  8
4
100
AcDbLine
 10
1702.317098806747
 20
569.2738849605325
 30
0.0
 11
1702.317098806747
 21
577.8703580146798
 31
0.0
  0
LINE
  5
619
330
1B
100
AcDbEntity
  8
4
100
AcDbLine
 10
1682.6871896543
 20
577.8703580146798
 30
0.0
 11
1682.6871896543
 21
569.2738849605325
 31
0.0
  0
LINE
  5
61A
330
1B
100
AcDbEntity
  8
L-CENTER
 48
3.0
100
AcDbLine
 10
1692.502144230524
 20
547.6473624403891
 30
0.0
 11
1692.502144230524
 21
581.6418632151131
 31
0.0
  0
LINE
  5
63F
330
1B
100
AcDbEntity
  8
2
100
AcDbLine
 10
1728.165834782634
 20
326.7738849605327
 30
0.0
 11
1538.165834782634
 21
326.7738849605327
 31
0.0
  0
LINE
  5
640
330
1B
100
AcDbEntity
  8
2
100
AcDbLine
 10
570.7907419865837
 20
326.7738849605327
 30
0.0
 11
699.3808319865839
 21
326.7738849605327
 31
0.0
  0
LINE
  5
641
330
1B
100
AcDbEntity
  8
2
100
AcDbLine
 10
715.7907419865837
 20
326.7738849605327
 30
0.0
 11
800.7907419865837
 21
326.7738849605327
 31
0.0
  0
ARC
  5
64B
330
1B
100
AcDbEntity
  8
4
100
AcDbCircle
 10
1565.842948850466
 20
309.4574988895919
 30
0.0
 40
3.783613929059507
100
AcDbArc
 50
229.5701031551771
 51
310.4298968448314
  0
ARC
  5
64C
330
1B
100
AcDbEntity
  8
4
100
AcDbCircle
 10
1573.204164782634
 20
319.4530502579918
 30
0.0
 40
13.77916529745958
100
AcDbArc
 50
249.1359356360806
 51
290.8640643639195
  0
LINE
  5
64D
330
1B
100
AcDbEntity
  8
4
100
AcDbLine
 10
1568.296687494522
 20
306.5774119063854
 30
0.0
 11
1568.296687494522
 21
312.6738849605326
 31
0.0
  0
LINE
  5
64E
330
1B
100
AcDbEntity
  8
4
100
AcDbLine
 10
1578.111642070746
 20
306.5774119063854
 30
0.0
 11
1578.111642070746
 21
312.6738849605326
 31
0.0
  0
LINE
  5
64F
330
1B
100
AcDbEntity
  8
4
100
AcDbLine
 10
1563.389210206411
 20
315.1738849605326
 30
0.0
 11
1563.389210206411
 21
306.5774119063854
 31
0.0
  0
LINE
  5
650
330
1B
100
AcDbEntity
  8
4
100
AcDbLine
 10
1583.019119358858
 20
306.5774119063854
 30
0.0
 11
1583.019119358858
 21
315.1738849605326
 31
0.0
  0
LINE
  5
651
330
1B
100
AcDbEntity
  8
4
100
AcDbLine
 10
1583.019119358858
 20
315.1738849605326
 30
0.0
 11
1563.389210206411
 21
315.1738849605326
 31
0.0
  0
LINE
  5
652
330
1B
100
AcDbEntity
  8
4
100
AcDbLine
 10
1583.019119358858
 20
312.6738849605326
 30
0.0
 11
1563.389210206411
 21
312.6738849605326
 31
0.0
  0
LINE
  5
653
330
1B
100
AcDbEntity
  8
4
100
AcDbLine
 10
1565.842948850467
 20
305.6738849605326
 30
0.0
 11
1580.565380714802
 21
305.6738849605326
 31
0.0
  0
ARC
  5
654
330
1B
100
AcDbEntity
  8
4
100
AcDbCircle
 10
1580.565380714802
 20
309.4574988895919
 30
0.0
 40
3.783613929059507
100
AcDbArc
 50
229.5701031551771
 51
310.4298968448314
  0
ARC
  5
655
330
1B
100
AcDbEntity
  8
4
100
AcDbCircle
 10
1657.766778850467
 20
309.4574988895919
 30
0.0
 40
3.783613929059507
100
AcDbArc
 50
229.5701031551771
 51
310.4298968448314
  0
ARC
  5
656
330
1B
100
AcDbEntity
  8
4
100
AcDbCircle
 10
1665.127994782634
 20
319.4530502579918
 30
0.0
 40
13.77916529745958
100
AcDbArc
 50
249.1359356360806
 51
290.8640643639195
  0
LINE
  5
657
330
1B
100
AcDbEntity
  8
4
100
AcDbLine
 10
1660.220517494522
 20
306.5774119063854
 30
0.0
 11
1660.220517494522
 21
312.6738849605326
 31
0.0
  0
LINE
  5
658
330
1B
100
AcDbEntity
  8
4
100
AcDbLine
 10
1670.035472070747
 20
306.5774119063854
 30
0.0
 11
1670.035472070747
 21
312.6738849605326
 31
0.0
  0
LINE
  5
659
330
1B
100
AcDbEntity
  8
4
100
AcDbLine
 10
1655.313040206411
 20
315.1738849605326
 30
0.0
 11
1655.313040206411
 21
306.5774119063854
 31
0.0
  0
LINE
  5
65A
330
1B
100
AcDbEntity
  8
4
100
AcDbLine
 10
1674.942949358858
 20
306.5774119063854
 30
0.0
 11
1674.942949358858
 21
315.1738849605326
 31
0.0
  0
LINE
  5
65B
330
1B
100
AcDbEntity
  8
4
100
AcDbLine
 10
1674.942949358858
 20
315.1738849605326
 30
0.0
 11
1655.313040206411
 21
315.1738849605326
 31
0.0
  0
LINE
  5
65C
330
1B
100
AcDbEntity
  8
4
100
AcDbLine
 10
1674.942949358858
 20
312.6738849605326
 30
0.0
 11
1655.313040206411
 21
312.6738849605326
 31
0.0
  0
LINE
  5
65D
330
1B
100
AcDbEntity
  8
4
100
AcDbLine
 10
1657.766778850467
 20
305.6738849605326
 30
0.0
 11
1672.489210714802
 21
305.6738849605326
 31
0.0
  0
ARC
  5
65E
330
1B
100
AcDbEntity
  8
4
100
AcDbCircle
 10
1672.489210714802
 20
309.4574988895919
 30
0.0
 40
3.783613929059507
100
AcDbArc
 50
229.5701031551771
 51
310.4298968448314
  0
ARC
  5
65F
330
1B
100
AcDbEntity
  8
4
100
AcDbCircle
 10
1685.141043850467
 20
309.4574988895919
 30
0.0
 40
3.783613929059507
100
AcDbArc
 50
229.5701031551771
 51
310.4298968448314
  0
ARC
  5
660
330
1B
100
AcDbEntity
  8
4
100
AcDbCircle
 10
1692.502259782634
 20
319.4530502579918
 30
0.0
 40
13.77916529745958
100
AcDbArc
 50
249.1359356360806
 51
290.8640643639195
  0
LINE
  5
661
330
1B
100
AcDbEntity
  8
4
100
AcDbLine
 10
1687.594782494522
 20
306.5774119063854
 30
0.0
 11
1687.594782494522
 21
312.6738849605326
 31
0.0
  0
LINE
  5
662
330
1B
100
AcDbEntity
  8
4
100
AcDbLine
 10
1697.409737070747
 20
306.5774119063854
 30
0.0
 11
1697.409737070747
 21
312.6738849605326
 31
0.0
  0
LINE
  5
663
330
1B
100
AcDbEntity
  8
4
100
AcDbLine
 10
1682.687305206411
 20
315.1738849605326
 30
0.0
 11
1682.687305206411
 21
306.5774119063854
 31
0.0
  0
LINE
  5
664
330
1B
100
AcDbEntity
  8
4
100
AcDbLine
 10
1702.317214358858
 20
306.5774119063854
 30
0.0
 11
1702.317214358858
 21
315.1738849605326
 31
0.0
  0
LINE
  5
665
330
1B
100
AcDbEntity
  8
4
100
AcDbLine
 10
1702.317214358858
 20
315.1738849605326
 30
0.0
 11
1682.687305206411
 21
315.1738849605326
 31
0.0
  0
LINE
  5
666
330
1B
100
AcDbEntity
  8
4
100
AcDbLine
 10
1702.317214358858
 20
312.6738849605326
 30
0.0
 11
1682.687305206411
 21
312.6738849605326
 31
0.0
  0
LINE
  5
667
330
1B
100
AcDbEntity
  8
4
100
AcDbLine
 10
1685.141043850467
 20
305.6738849605326
 30
0.0
 11
1699.863475714802
 21
305.6738849605326
 31
0.0
  0
ARC
  5
668
330
1B
100
AcDbEntity
  8
4
100
AcDbCircle
 10
1699.863475714802
 20
309.4574988895919
 30
0.0
 40
3.783613929059507
100
AcDbArc
 50
229.5701031551771
 51
310.4298968448314
  0
LINE
  5
66F
330
1B
100
AcDbEntity
  8
4
100
AcDbLine
 10
361.2907419865837
 20
424.5738849605326
 30
0.0
 11
286.2907419865837
 21
424.5738849605326
 31
0.0
  0
LINE
  5
670
330
1B
100
AcDbEntity
  8
4
100
AcDbLine
 10
366.2907419865837
 20
421.0738849605326
 30
0.0
 11
287.2907419865837
 21
421.0738849605326
 31
0.0
  0
LINE
  5
671
330
1B
100
AcDbEntity
  8
4
100
AcDbLine
 10
366.2907419865837
 20
385.0738849605326
 30
0.0
 11
287.2907419865837
 21
385.0738849605326
 31
0.0
  0
LINE
  5
672
330
1B
100
AcDbEntity
  8
4
100
AcDbLine
 10
379.8907419865837
 20
372.0738849605326
 30
0.0
 11
379.8907419865837
 21
434.0738849605326
 31
0.0
  0
LINE
  5
673
330
1B
100
AcDbEntity
  8
4
100
AcDbLine
 10
380.8907419865842
 20
372.0738849605326
 30
0.0
 11
379.8907419865837
 21
372.0738849605326
 31
0.0
  0
LINE
  5
674
330
1B
100
AcDbEntity
  8
4
100
AcDbLine
 10
379.8907419865837
 20
423.0738849605326
 30
0.0
 11
366.2907419865837
 21
423.0738849605326
 31
0.0
  0
LINE
  5
675
330
1B
100
AcDbEntity
  8
4
100
AcDbLine
 10
379.8907419865837
 20
383.0738849605326
 30
0.0
 11
366.2907419865837
 21
383.0738849605326
 31
0.0
  0
LINE
  5
676
330
1B
100
AcDbEntity
  8
4
100
AcDbLine
 10
380.8907419865842
 20
434.0738849605326
 30
0.0
 11
379.8907419865837
 21
434.0738849605326
 31
0.0
  0
LINE
  5
677
330
1B
100
AcDbEntity
  8
4
100
AcDbLine
 10
361.2907419865837
 20
421.0738849605326
 30
0.0
 11
361.2907419865837
 21
424.5738849605326
 31
0.0
  0
LINE
  5
678
330
1B
100
AcDbEntity
  8
4
100
AcDbLine
 10
366.2907419865837
 20
383.0738849605326
 30
0.0
 11
366.2907419865837
 21
423.0738849605326
 31
0.0
  0
LINE
  5
679
330
1B
100
AcDbEntity
  8
4
100
AcDbLine
 10
286.2907419865837
 20
420.0738849605326
 30
0.0
 11
287.2907419865837
 21
421.0738849605326
 31
0.0
  0
LINE
  5
67A
330
1B
100
AcDbEntity
  8
4
100
AcDbLine
 10
286.2907419865837
 20
386.0738849605326
 30
0.0
 11
287.2907419865837
 21
385.0738849605326
 31
0.0
  0
LINE
  5
67B
330
1B
100
AcDbEntity
  8
4
100
AcDbLine
 10
287.2907419865837
 20
385.0738849605326
 30
0.0
 11
287.2907419865837
 21
421.0738849605326
 31
0.0
  0
LINE
  5
67C
330
1B
100
AcDbEntity
  8
4
100
AcDbLine
 10
286.2907419865837
 20
424.5738849605326
 30
0.0
 11
286.2907419865837
 21
386.0738849605326
 31
0.0
  0
LINE
  5
67D
330
1B
100
AcDbEntity
  8
4
100
AcDbLine
 10
380.8907419865836
 20
1290.50492742611
 30
0.0
 11
379.8907419865836
 21
1290.50492742611
 31
0.0
  0
LINE
  5
67E
330
1B
100
AcDbEntity
  8
4
100
AcDbLine
 10
379.8907419865836
 20
1290.50492742611
 30
0.0
 11
379.8907419865834
 21
1352.504927426109
 31
0.0
  0
LINE
  5
67F
330
1B
100
AcDbEntity
  8
4
100
AcDbLine
 10
380.8907419865834
 20
1352.504927426109
 30
0.0
 11
379.8907419865834
 21
1352.504927426109
 31
0.0
  0
LINE
  5
680
330
1B
100
AcDbEntity
  8
4
100
AcDbLine
 10
365.2907419865835
 20
1303.50492742611
 30
0.0
 11
287.2907419865835
 21
1303.504927426109
 31
0.0
  0
LINE
  5
681
330
1B
100
AcDbEntity
  8
4
100
AcDbLine
 10
365.2907419865835
 20
1339.50492742611
 30
0.0
 11
287.2907419865835
 21
1339.504927426109
 31
0.0
  0
LINE
  5
682
330
1B
100
AcDbEntity
  8
4
100
AcDbLine
 10
356.2907419865835
 20
1326.504927426109
 30
0.0
 11
286.2907419865835
 21
1326.504927426109
 31
0.0
  0
LINE
  5
683
330
1B
100
AcDbEntity
  8
4
100
AcDbLine
 10
356.2907419865835
 20
1316.504927426109
 30
0.0
 11
286.2907419865835
 21
1316.504927426109
 31
0.0
  0
ARC
  5
684
330
1B
100
AcDbEntity
  8
4
100
AcDbCircle
 10
365.2907419865835
 20
1340.50492742611
 30
0.0
 40
1.0
100
AcDbArc
 50
270.0
 51
0.0
  0
ARC
  5
685
330
1B
100
AcDbEntity
  8
4
100
AcDbCircle
 10
356.2907419865835
 20
1321.504927426109
 30
0.0
 40
5.0
100
AcDbArc
 50
270.0
 51
90.0
  0
ARC
  5
686
330
1B
100
AcDbEntity
  8
4
100
AcDbCircle
 10
365.2907419865835
 20
1302.50492742611
 30
0.0
 40
1.0
100
AcDbArc
 50
0.0
 51
90.0
  0
LINE
  5
687
330
1B
100
AcDbEntity
  8
4
100
AcDbLine
 10
366.2907419865835
 20
1341.50492742611
 30
0.0
 11
366.2907419865835
 21
1301.50492742611
 31
0.0
  0
LINE
  5
688
330
1B
100
AcDbEntity
  8
4
100
AcDbLine
 10
287.2907419865835
 20
1339.504927426109
 30
0.0
 11
287.2907419865835
 21
1326.504927426109
 31
0.0
  0
LINE
  5
689
330
1B
100
AcDbEntity
  8
4
100
AcDbLine
 10
287.2907419865835
 20
1339.504927426109
 30
0.0
 11
286.2907419865835
 21
1338.504927426109
 31
0.0
  0
LINE
  5
68A
330
1B
100
AcDbEntity
  8
4
100
AcDbLine
 10
286.2907419865835
 20
1304.504927426109
 30
0.0
 11
287.2907419865835
 21
1303.504927426109
 31
0.0
  0
LINE
  5
68B
330
1B
100
AcDbEntity
  8
4
100
AcDbLine
 10
286.2907419865835
 20
1338.504927426109
 30
0.0
 11
286.2907419865835
 21
1304.504927426109
 31
0.0
  0
LINE
  5
68C
330
1B
100
AcDbEntity
  8
4
100
AcDbLine
 10
287.2907419865835
 20
1316.504927426109
 30
0.0
 11
287.2907419865835
 21
1303.504927426108
 31
0.0
  0
LINE
  5
68D
330
1B
100
AcDbEntity
  8
4
100
AcDbLine
 10
379.8907419865834
 20
1341.504927426109
 30
0.0
 11
366.2907419865835
 21
1341.504927426109
 31
0.0
  0
LINE
  5
68E
330
1B
100
AcDbEntity
  8
4
100
AcDbLine
 10
379.8907419865836
 20
1301.504927426109
 30
0.0
 11
366.2907419865835
 21
1301.504927426109
 31
0.0
  0
LINE
  5
6B5
330
1B
100
AcDbEntity
  8
4
100
AcDbLine
 10
642.3808319865834
 20
177.0738849605327
 30
0.0
 11
614.3808319865839
 21
177.0738849605327
 31
0.0
  0
LINE
  5
6B6
330
1B
100
AcDbEntity
  8
4
100
AcDbLine
 10
641.3808319865839
 20
176.0738849605327
 30
0.0
 11
567.3808319865839
 21
176.0738849605327
 31
0.0
  0
LINE
  5
6B7
330
1B
100
AcDbEntity
  8
4
100
AcDbLine
 10
644.3808319865839
 20
301.0738849605327
 30
0.0
 11
570.7907419865837
 21
301.0738849605327
 31
0.0
  0
LINE
  5
6B8
330
1B
100
AcDbEntity
  8
4
100
AcDbLine
 10
652.9054425496424
 20
313.8738849605325
 30
0.0
 11
570.7907419865837
 21
313.8738849605327
 31
0.0
  0
ARC
  5
6B9
330
1B
100
AcDbEntity
  8
4
100
AcDbCircle
 10
604.3808319865839
 20
276.0738849605327
 30
0.0
 40
10.0
100
AcDbArc
 50
90.0
 51
180.0
  0
ARC
  5
6BA
330
1B
100
AcDbEntity
  8
4
100
AcDbCircle
 10
604.3808319865839
 20
276.0738849605327
 30
0.0
 40
10.0
100
AcDbArc
 50
0.0
 51
90.0
  0
LINE
  5
6BB
330
1B
100
AcDbEntity
  8
4
100
AcDbLine
 10
566.3808319865839
 20
273.0738849605328
 30
0.0
 11
566.3808319865839
 21
177.0738849605327
 31
0.0
  0
LINE
  5
6BD
330
1B
100
AcDbEntity
  8
4
100
AcDbLine
 10
566.3808319865839
 20
177.0738849605327
 30
0.0
 11
594.3808319865839
 21
177.0738849605327
 31
0.0
  0
LINE
  5
6BE
330
1B
100
AcDbEntity
  8
4
100
AcDbLine
 10
567.3808319865839
 20
176.0738849605327
 30
0.0
 11
566.3808319865839
 21
177.0738849605327
 31
0.0
  0
LINE
  5
6BF
330
1B
100
AcDbEntity
  8
4
100
AcDbLine
 10
614.3808319865839
 20
176.0738849605327
 30
0.0
 11
614.3808319865839
 21
276.0738849605327
 31
0.0
  0
LINE
  5
6C0
330
1B
100
AcDbEntity
  8
4
100
AcDbLine
 10
594.3808319865839
 20
176.0738849605327
 30
0.0
 11
594.3808319865839
 21
276.0738849605327
 31
0.0
  0
LINE
  5
6C1
330
1B
100
AcDbEntity
  8
4
100
AcDbLine
 10
642.3808319865834
 20
301.0738849605327
 30
0.0
 11
642.3808319865834
 21
177.0738849605327
 31
0.0
  0
LINE
  5
6C2
330
1B
100
AcDbEntity
  8
4
100
AcDbLine
 10
644.3808319865839
 20
301.0738849605327
 30
0.0
 11
644.3808319865839
 21
313.8738849605325
 31
0.0
  0
LINE
  5
6C3
330
1B
100
AcDbEntity
  8
4
100
AcDbLine
 10
641.3808319865839
 20
176.0738849605327
 30
0.0
 11
642.3808319865834
 21
177.0738849605327
 31
0.0
  0
LINE
  5
6C4
330
1B
100
AcDbEntity
  8
4
100
AcDbLine
 10
1596.165834782634
 20
177.0738849605327
 30
0.0
 11
1672.165834782634
 21
177.0738849605327
 31
0.0
  0
LINE
  5
6C5
330
1B
100
AcDbEntity
  8
4
100
AcDbLine
 10
1671.165834782634
 20
176.0738849605327
 30
0.0
 11
1590.165834782634
 21
176.0738849605327
 31
0.0
  0
LINE
  5
6C6
330
1B
100
AcDbEntity
  8
4
100
AcDbLine
 10
1674.165834782634
 20
301.0738849605327
 30
0.0
 11
1594.165834782634
 21
301.0738849605327
 31
0.0
  0
LINE
  5
6C7
330
1B
100
AcDbEntity
  8
4
100
AcDbLine
 10
1583.018848581742
 20
313.8738849605325
 30
0.0
 11
1655.312820983527
 21
313.8738849605327
 31
0.0
  0
LINE
  5
6C8
330
1B
100
AcDbEntity
  8
4
100
AcDbLine
 10
1590.165834782634
 20
176.0738849605327
 30
0.0
 11
1590.165834782634
 21
286.0738849605327
 31
0.0
  0
LINE
  5
6C9
330
1B
100
AcDbEntity
  8
4
100
AcDbLine
 10
1596.165834782634
 20
301.0738849605327
 30
0.0
 11
1596.165834782634
 21
177.0738849605327
 31
0.0
  0
LINE
  5
6CA
330
1B
100
AcDbEntity
  8
4
100
AcDbLine
 10
1596.165834782634
 20
286.0738849605327
 30
0.0
 11
1590.165834782634
 21
286.0738849605327
 31
0.0
  0
LINE
  5
6CB
330
1B
100
AcDbEntity
  8
4
100
AcDbLine
 10
1594.165834782634
 20
313.8738849605325
 30
0.0
 11
1594.165834782634
 21
301.0738849605327
 31
0.0
  0
LINE
  5
6CC
330
1B
100
AcDbEntity
  8
4
100
AcDbLine
 10
1597.165834782634
 20
176.0738849605327
 30
0.0
 11
1596.165834782634
 21
177.0738849605327
 31
0.0
  0
LINE
  5
6CD
330
1B
100
AcDbEntity
  8
4
100
AcDbLine
 10
1672.165834782634
 20
301.0738849605327
 30
0.0
 11
1672.165834782634
 21
177.0738849605327
 31
0.0
  0
LINE
  5
6CE
330
1B
100
AcDbEntity
  8
4
100
AcDbLine
 10
1682.6871896543
 20
313.8738849605327
 30
0.0
 11
1674.942730135974
 21
313.8738849605329
 31
0.0
  0
LINE
  5
6CF
330
1B
100
AcDbEntity
  8
4
100
AcDbLine
 10
1674.165834782634
 20
305.7657543616901
 30
0.0
 11
1674.165834782634
 21
301.0738849605327
 31
0.0
  0
LINE
  5
6D0
330
1B
100
AcDbEntity
  8
4
100
AcDbLine
 10
1671.165834782634
 20
176.0738849605327
 30
0.0
 11
1672.165834782634
 21
177.0738849605327
 31
0.0
  0
CIRCLE
  5
6F4
330
1B
100
AcDbEntity
  8
4
100
AcDbCircle
 10
604.3775762951918
 20
1161.50492742611
 30
0.0
 40
60.0
  0
CIRCLE
  5
70F
330
1B
100
AcDbEntity
  8
4
100
AcDbCircle
 10
1794.165834782634
 20
403.0738849605326
 30
0.0
 40
47.0
  0
LINE
  5
71C
330
1B
100
AcDbEntity
  8
L-CENTER
 48
3.0
100
AcDbLine
 10
604.3808319865839
 20
128.6396536218117
 30
0.0
 11
604.3808319865839
 21
21.45623362181141
 31
0.0
  0
ARC
  5
71D
330
1B
100
AcDbEntity
  8
4
100
AcDbCircle
 10
604.3808319865839
 20
75.04794362181156
 30
0.0
 40
38.000005
100
AcDbArc
 50
105.2575212340481
 51
74.74247999999446
  0
LINE
  5
71E
330
1B
100
AcDbEntity
  8
L-CENTER
 48
3.0
100
AcDbLine
 10
550.7891219865842
 20
75.04794362181156
 30
0.0
 11
657.9725419865845
 21
75.04794362181156
 31
0.0
  0
LINE
  5
71F
330
1B
100
AcDbEntity
  8
4
100
AcDbLine
 10
594.3808319865839
 20
119.0479436218116
 30
0.0
 11
594.3808319865839
 21
106.0479436218116
 31
0.0
  0
LINE
  5
720
330
1B
100
AcDbEntity
  8
4
100
AcDbLine
 10
614.3808319865839
 20
106.0479436218116
 30
0.0
 11
614.3808319865839
 21
119.0479436218116
 31
0.0
  0
LINE
  5
722
330
1B
100
AcDbEntity
  8
4
100
AcDbLine
 10
614.3808319865839
 20
106.0479436218116
 30
0.0
 11
594.3808319865839
 21
106.0479436218116
 31
0.0
  0
LINE
  5
723
330
1B
100
AcDbEntity
  8
4
100
AcDbLine
 10
614.3808319865839
 20
119.0479436218116
 30
0.0
 11
594.3808319865839
 21
119.0479436218116
 31
0.0
  0
LINE
  5
725
330
1B
100
AcDbEntity
  8
L-CENTER
 48
3.0
100
AcDbLine
 10
222.1043491813014
 20
374.6082469205602
 30
0.0
 11
222.1043491813014
 21
431.539523000505
 31
0.0
  0
LINE
  5
726
330
1B
100
AcDbEntity
  8
L-CENTER
 48
3.0
100
AcDbLine
 10
250.5699872212734
 20
403.0738849605326
 30
0.0
 11
193.6387111413285
 21
403.0738849605326
 31
0.0
  0
ARC
  5
727
330
1B
100
AcDbEntity
  8
4
100
AcDbCircle
 10
222.1043491813014
 20
403.0738849605326
 30
0.0
 40
17.999995
100
AcDbArc
 50
106.127624815246
 51
73.87237500000144
  0
LINE
  5
728
330
1B
100
AcDbEntity
  8
4
100
AcDbLine
 10
227.1043491813014
 20
416.5738849605326
 30
0.0
 11
217.1043491813014
 21
416.5738849605326
 31
0.0
  0
LINE
  5
729
330
1B
100
AcDbEntity
  8
4
100
AcDbLine
 10
227.1043491813014
 20
424.5738849605326
 30
0.0
 11
217.1043491813014
 21
424.5738849605326
 31
0.0
  0
LINE
  5
72B
330
1B
100
AcDbEntity
  8
4
100
AcDbLine
 10
217.1043491813014
 20
424.5738849605326
 30
0.0
 11
217.1043491813014
 21
416.5738849605326
 31
0.0
  0
LINE
  5
72D
330
1B
100
AcDbEntity
  8
4
100
AcDbLine
 10
227.1043491813014
 20
416.5738849605326
 30
0.0
 11
227.1043491813014
 21
424.5738849605326
 31
0.0
  0
ENDSEC
  0
SECTION
  2
OBJECTS
  0
DICTIONARY
  5
9
330
0
100
AcDbDictionary
281
     1
  3
ACAD_COLOR
350
2F
  3
ACAD_GROUP
350
2D
  3
ACAD_LAYOUT
350
24
  3
ACAD_MATERIAL
350
B
  3
ACAD_MLEADERSTYLE
350
620
  3
ACAD_MLINESTYLE
350
19
  3
ACAD_PLOTSETTINGS
350
2E
  3
ACAD_PLOTSTYLENAME
350
8
  3
ACAD_SCALELIST
350
34
  3
ACAD_TABLESTYLE
350
61F
  3
ACAD_VISUALSTYLE
350
30
  3
ACDBHEADERROUNDTRIPXREC
350
731
  3
AcDbVariableDictionary
350
61D
  3
DWGPROPS
350
734
  0
DICTIONARY
  5
735
330
2C
100
AcDbDictionary
280
     1
281
     1
  3
ACAD_XREC_ROUNDTRIP
360
736
  0
DICTIONARY
  5
3
330
2
100
AcDbDictionary
280
     1
281
     1
  3
ACAD_LAYERSTATES
360
4
  0
DICTIONARY
  5
20
330
1F
100
AcDbDictionary
280
     1
281
     1
  3
ADSK_XREC_LAYER_RECONCILED
360
21
  0
DICTIONARY
  5
51B
330
51A
100
AcDbDictionary
280
     1
281
     1
  3
ADSK_XREC_LAYER_RECONCILED
360
51C
  0
DICTIONARY
  5
5
330
1
100
AcDbDictionary
280
     1
281
     1
  3
ADSK_XREC_LAYER_RECONCILED
360
6
  0
DICTIONARY
  5
6F
330
6E
100
AcDbDictionary
280
     1
281
     1
  3
ADSK_XREC_LAYER_RECONCILED
360
70
  0
DICTIONARY
  5
6A
330
69
100
AcDbDictionary
280
     1
281
     1
  3
ADSK_XREC_LAYER_RECONCILED
360
6B
  0
DICTIONARY
  5
19C
330
19B
100
AcDbDictionary
280
     1
281
     1
  3
ADSK_XREC_LAYER_RECONCILED
360
19D
  0
DICTIONARY
  5
5CF
330
5CE
100
AcDbDictionary
280
     1
281
     1
  3
ADSK_XREC_LAYER_RECONCILED
360
5D0
  0
DICTIONARY
  5
1C
330
1B
100
AcDbDictionary
280
     1
281
     1
  3
ACAD_SORTENTS
360
1D
  0
DICTIONARY
  5
2F
102
{ACAD_REACTORS
330
9
102
}
330
9
100
AcDbDictionary
281
     1
  0
DICTIONARY
  5
2D
102
{ACAD_REACTORS
330
9
102
}
330
9
100
AcDbDictionary
281
     1
  0
DICTIONARY
  5
24
102
{ACAD_REACTORS
330
9
102
}
330
9
100
AcDbDictionary
281
     1
  3
Model
350
23
  3
ﾚｲｱｳﾄ1
350
29
  0
DICTIONARY
  5
B
102
{ACAD_REACTORS
330
9
102
}
330
9
100
AcDbDictionary
281
     1
  3
ByBlock
350
67
  3
ByLayer
350
14
  3
Global
350
A
  0
DICTIONARY
  5
620
102
{ACAD_REACTORS
330
9
102
}
330
9
100
AcDbDictionary
281
     1
  3
Standard
350
63B
  0
DICTIONARY
  5
19
102
{ACAD_REACTORS
330
9
102
}
330
9
100
AcDbDictionary
281
     1
  3
STANDARD
350
18
  0
DICTIONARY
  5
2E
102
{ACAD_REACTORS
330
9
102
}
330
9
100
AcDbDictionary
281
     1
  0
ACDBDICTIONARYWDFLT
  5
8
102
{ACAD_REACTORS
330
9
102
}
330
9
100
AcDbDictionary
281
     1
  3
Normal
350
7
100
AcDbDictionaryWithDefault
340
7
  0
DICTIONARY
  5
34
102
{ACAD_REACTORS
330
9
102
}
330
9
100
AcDbDictionary
281
     1
  3
*A1
350
56
  3
*A10
350
5F
  3
*A11
350
60
  3
*A12
350
61
  3
*A13
350
62
  3
*A14
350
63
  3
*A15
350
64
  3
*A16
350
65
  3
*A17
350
66
  3
*A2
350
57
  3
*A3
350
58
  3
*A4
350
59
  3
*A5
350
5A
  3
*A6
350
5B
  3
*A7
350
5C
  3
*A8
350
5D
  3
*A9
350
5E
  0
DICTIONARY
  5
61F
102
{ACAD_REACTORS
330
9
102
}
330
9
100
AcDbDictionary
281
     1
  3
Standard
350
66A
  0
DICTIONARY
  5
30
102
{ACAD_REACTORS
330
9
102
}
330
9
100
AcDbDictionary
281
     1
  3
2dWireframe
350
627
  3
Basic
350
62A
  3
Brighten
350
62E
  3
ColorChange
350
632
  3
Conceptual
350
62C
  3
Dim
350
62D
  3
EdgeColorOff
350
635
  3
Facepattern
350
631
  3
Flat
350
623
  3
FlatWithEdges
350
624
  3
Gouraud
350
625
  3
GouraudWithEdges
350
626
  3
Hidden
350
629
  3
JitterOff
350
633
  3
Linepattern
350
630
  3
OverhangOff
350
634
  3
Realistic
350
62B
  3
Shaded
350
63A
  3
Shaded with edges
350
639
  3
Shades of Gray
350
636
  3
Sketchy
350
637
  3
Thicken
350
62F
  3
Wireframe
350
628
  3
X-Ray
350
638
  0
DICTIONARY
  5
731
102
{ACAD_REACTORS
330
9
102
}
330
9
100
AcDbDictionary
281
     1
  3
COLORDICT
350
732
  3
MATERIALDICT
350
733
  0
DICTIONARY
  5
61D
102
{ACAD_REACTORS
330
9
102
}
330
9
100
AcDbDictionary
281
     1
  3
CANNOSCALE
350
61E
  3
CMLEADERSTYLE
350
669
  3
CTABLESTYLE
350
66B
  3
DIMASSOC
350
72E
  3
HIDETEXT
350
72F
  3
MSLTSCALE
350
737
  3
XCLIPFRAME
350
730
  0
XRECORD
  5
734
102
{ACAD_REACTORS
330
9
102
}
330
9
100
AcDbXrecord
280
     1
  1
DWGPROPS COOKIE
  2

  3

  4

  6

  7

  8
sg-d03
  9

300
=
301
=
302
=
303
=
304
=
305
=
306
=
307
=
308
=
309
=
 40
0.0
 41
2457407.211298704
 42
2458115.274353484
  1

 90
        0
  0
XRECORD
  5
736
102
{ACAD_REACTORS
330
735
102
}
330
735
100
AcDbXrecord
280
     1
102
VTR_0.000_0.000_1.000_1.000_GRIDDISPLAY
 70
     3
102
VTR_0.000_0.000_1.000_1.000_GRIDMAJOR
 70
     5
102
VTR_0.000_0.000_1.000_1.000_DEFAULTLIGHTING
280
     1
102
VTR_0.000_0.000_1.000_1.000_DEFAULTLIGHTINGTYPE
 70
     1
102
VTR_0.000_0.000_1.000_1.000_BRIGHTNESS
141
0.0
102
VTR_0.000_0.000_1.000_1.000_CONTRAST
142
0.0
  0
DICTIONARY
  5
4
102
{ACAD_REACTORS
330
3
102
}
330
3
100
AcDbDictionary
281
     1
  0
XRECORD
  5
21
102
{ACAD_REACTORS
330
20
102
}
330
20
100
AcDbXrecord
280
     1
290
     1
  0
XRECORD
  5
51C
102
{ACAD_REACTORS
330
51B
102
}
330
51B
100
AcDbXrecord
280
     1
290
     1
  0
XRECORD
  5
6
102
{ACAD_REACTORS
330
5
102
}
330
5
100
AcDbXrecord
280
     1
290
     1
  0
XRECORD
  5
70
102
{ACAD_REACTORS
330
6F
102
}
330
6F
100
AcDbXrecord
280
     1
290
     1
  0
XRECORD
  5
6B
102
{ACAD_REACTORS
330
6A
102
}
330
6A
100
AcDbXrecord
280
     1
290
     1
  0
XRECORD
  5
19D
102
{ACAD_REACTORS
330
19C
102
}
330
19C
100
AcDbXrecord
280
     1
290
     1
  0
XRECORD
  5
5D0
102
{ACAD_REACTORS
330
5CF
102
}
330
5CF
100
AcDbXrecord
280
     1
290
     1
  0
SORTENTSTABLE
  5
1D
102
{ACAD_REACTORS
330
1C
102
}
330
1C
100
AcDbSortentsTable
330
1B
331
0
  5
E9
331
6D
  5
71
331
71
  5
72
331
72
  5
78
331
77
  5
79
331
78
  5
7A
331
79
  5
7B
331
7A
  5
7C
331
7B
  5
7D
331
7C
  5
7E
331
7D
  5
7F
331
7E
  5
80
331
7F
  5
81
331
80
  5
82
331
81
  5
83
331
82
  5
85
331
83
  5
86
331
84
  5
87
331
85
  5
88
331
86
  5
89
331
87
  5
8A
331
88
  5
8B
331
89
  5
8C
331
8A
  5
8D
331
8B
  5
8E
331
8C
  5
8F
331
8D
  5
90
331
8E
  5
91
331
8F
  5
92
331
90
  5
93
331
91
  5
94
331
92
  5
95
331
93
  5
96
331
94
  5
97
331
95
  5
98
331
96
  5
99
331
97
  5
9A
331
98
  5
9B
331
99
  5
9C
331
9A
  5
A5
331
A3
  5
A6
331
A4
  5
A7
331
A5
  5
A8
331
A6
  5
A9
331
A7
  5
AA
331
A8
  5
AB
331
A9
  5
AC
331
AA
  5
AE
331
AB
  5
AF
331
AC
  5
B0
331
AD
  5
B1
331
AE
  5
B2
331
AF
  5
B3
331
B0
  5
B4
331
B1
  5
B5
331
B2
  5
B6
331
B3
  5
B7
331
B4
  5
B8
331
B5
  5
B9
331
B6
  5
BA
331
B7
  5
BB
331
B8
  5
BC
331
B9
  5
BD
331
BA
  5
BE
331
BB
  5
BF
331
BC
  5
C0
331
BD
  5
C1
331
BE
  5
C3
331
C0
  5
C4
331
C1
  5
C5
331
C2
  5
C6
331
C3
  5
C8
331
C5
  5
C9
331
C6
  5
CA
331
C7
  5
CB
331
C8
  5
CC
331
C9
  5
CD
331
CA
  5
CE
331
CB
  5
CF
331
CC
  5
D1
331
CE
  5
D2
331
CF
  5
D3
331
D0
  5
D4
331
D1
  5
D5
331
D2
  5
D6
331
D3
  5
D7
331
D4
  5
D8
331
D5
  5
D9
331
D6
  5
DA
331
D7
  5
DB
331
D8
  5
DC
331
D9
  5
DD
331
DA
  5
DE
331
DB
  5
DF
331
DC
  5
E0
331
DD
  5
E1
331
DE
  5
E2
331
DF
  5
E3
331
E0
  5
E5
331
E1
  5
E6
331
E2
  5
E7
331
E3
  5
E8
331
E8
  5
ED
331
E9
  5
EE
331
EA
  5
EF
331
F5
  5
FA
331
F6
  5
FB
331
F7
  5
FC
331
F8
  5
FE
331
F9
  5
FF
331
FA
  5
100
331
FB
  5
101
331
FC
  5
102
331
FD
  5
103
331
FE
  5
109
331
FF
  5
111
331
105
  5
116
331
10D
  5
117
331
112
  5
11C
331
113
  5
124
331
118
  5
125
331
120
  5
126
331
121
  5
127
331
122
  5
128
331
123
  5
129
331
124
  5
12A
331
125
  5
12B
331
126
  5
12C
331
127
  5
12D
331
128
  5
12E
331
129
  5
12F
331
12A
  5
13D
331
137
  5
13F
331
139
  5
140
331
13A
  5
141
331
13B
  5
142
331
13C
  5
143
331
13D
  5
144
331
13E
  5
145
331
13F
  5
146
331
140
  5
147
331
141
  5
148
331
144
  5
14B
331
145
  5
14C
331
146
  5
14D
331
147
  5
14E
331
148
  5
14F
331
149
  5
150
331
14A
  5
151
331
14B
  5
152
331
14C
  5
153
331
14D
  5
154
331
14E
  5
155
331
14F
  5
156
331
150
  5
157
331
151
  5
158
331
152
  5
159
331
153
  5
15A
331
154
  5
15B
331
155
  5
15C
331
156
  5
15D
331
157
  5
15E
331
15C
  5
163
331
15D
  5
164
331
15E
  5
165
331
15F
  5
166
331
160
  5
167
331
161
  5
168
331
162
  5
169
331
163
  5
16A
331
164
  5
16B
331
165
  5
16C
331
166
  5
16D
331
167
  5
16E
331
168
  5
16F
331
169
  5
170
331
16A
  5
171
331
16B
  5
172
331
16C
  5
173
331
16D
  5
174
331
16E
  5
175
331
16F
  5
176
331
170
  5
177
331
171
  5
178
331
172
  5
179
331
173
  5
17A
331
174
  5
17B
331
175
  5
17C
331
176
  5
17D
331
177
  5
17E
331
178
  5
17F
331
179
  5
180
331
17A
  5
181
331
17B
  5
182
331
17C
  5
183
331
17D
  5
184
331
17E
  5
185
331
17F
  5
186
331
180
  5
187
331
181
  5
188
331
182
  5
189
331
183
  5
18A
331
184
  5
18B
331
185
  5
18C
331
186
  5
18D
331
187
  5
18E
331
188
  5
18F
331
189
  5
190
331
18A
  5
191
331
18B
  5
192
331
18C
  5
193
331
18D
  5
194
331
18E
  5
195
331
18F
  5
196
331
190
  5
197
331
191
  5
198
331
192
  5
199
331
193
  5
19A
331
194
  5
19E
331
0
  5
19F
331
0
  5
1A0
331
0
  5
1A1
331
0
  5
1A2
331
0
  5
1A3
331
0
  5
1AA
331
0
  5
1AB
331
0
  5
1AC
331
0
  5
1AD
331
0
  5
1AE
331
0
  5
1AF
331
0
  5
1B0
331
0
  5
1B1
331
0
  5
1B2
331
0
  5
1B3
331
0
  5
1B4
331
0
  5
1B5
331
0
  5
1B6
331
0
  5
1BC
331
0
  5
1C2
331
0
  5
1C3
331
0
  5
1C4
331
0
  5
1C5
331
0
  5
1C6
331
0
  5
1C7
331
0
  5
1C8
331
0
  5
1C9
331
0
  5
1CA
331
0
  5
1CB
331
0
  5
1CC
331
0
  5
1CD
331
0
  5
1CE
331
0
  5
1CF
331
0
  5
1D0
331
0
  5
1D1
331
0
  5
1D2
331
0
  5
1D3
331
0
  5
1D4
331
0
  5
1D5
331
0
  5
1D6
331
0
  5
1D7
331
0
  5
1D8
331
0
  5
1D9
331
0
  5
1DA
331
0
  5
1DB
331
0
  5
1DC
331
0
  5
1DD
331
0
  5
1DE
331
0
  5
1EB
331
0
  5
1EC
331
0
  5
1ED
331
0
  5
1EE
331
0
  5
1FB
331
0
  5
1FC
331
0
  5
1FD
331
0
  5
1FE
331
0
  5
1FF
331
0
  5
200
331
0
  5
201
331
0
  5
202
331
0
  5
203
331
0
  5
204
331
0
  5
205
331
0
  5
206
331
0
  5
207
331
0
  5
208
331
0
  5
209
331
0
  5
20A
331
0
  5
20B
331
0
  5
20C
331
0
  5
20D
331
0
  5
211
331
20E
  5
215
331
20F
  5
216
331
210
  5
217
331
211
  5
218
331
212
  5
219
331
213
  5
21A
331
214
  5
21B
331
215
  5
21C
331
216
  5
21D
331
217
  5
21E
331
218
  5
21F
331
219
  5
220
331
21A
  5
221
331
21B
  5
222
331
21C
  5
223
331
21D
  5
224
331
21E
  5
225
331
21F
  5
226
331
220
  5
227
331
221
  5
228
331
222
  5
229
331
223
  5
22A
331
224
  5
22B
331
225
  5
22C
331
226
  5
22D
331
227
  5
22E
331
228
  5
22F
331
229
  5
230
331
22A
  5
231
331
22B
  5
232
331
22C
  5
233
331
22D
  5
234
331
22E
  5
235
331
22F
  5
236
331
230
  5
237
331
231
  5
238
331
232
  5
239
331
233
  5
23A
331
234
  5
23B
331
235
  5
23C
331
236
  5
23D
331
237
  5
23E
331
238
  5
23F
331
239
  5
240
331
23A
  5
241
331
23B
  5
242
331
23C
  5
243
331
23D
  5
244
331
23E
  5
245
331
23F
  5
246
331
240
  5
247
331
241
  5
248
331
242
  5
249
331
243
  5
24A
331
244
  5
24B
331
245
  5
24C
331
246
  5
24D
331
247
  5
24E
331
248
  5
24F
331
249
  5
250
331
24A
  5
251
331
24B
  5
252
331
24C
  5
253
331
24D
  5
254
331
24E
  5
255
331
24F
  5
256
331
250
  5
257
331
251
  5
258
331
252
  5
259
331
253
  5
25A
331
254
  5
25B
331
255
  5
25C
331
256
  5
25D
331
257
  5
25E
331
258
  5
25F
331
259
  5
260
331
25A
  5
261
331
25B
  5
262
331
25C
  5
263
331
25D
  5
264
331
25E
  5
265
331
25F
  5
266
331
260
  5
267
331
261
  5
268
331
262
  5
269
331
263
  5
26A
331
264
  5
26B
331
265
  5
26C
331
266
  5
26D
331
267
  5
26E
331
268
  5
26F
331
269
  5
270
331
26A
  5
271
331
26B
  5
272
331
26C
  5
273
331
26D
  5
275
331
26F
  5
276
331
270
  5
277
331
271
  5
278
331
272
  5
279
331
273
  5
27A
331
274
  5
27B
331
275
  5
27C
331
276
  5
27D
331
277
  5
27E
331
278
  5
27F
331
279
  5
280
331
27A
  5
281
331
27B
  5
282
331
27C
  5
283
331
27D
  5
284
331
27E
  5
285
331
27F
  5
286
331
280
  5
287
331
281
  5
288
331
282
  5
289
331
283
  5
28A
331
284
  5
28B
331
285
  5
28C
331
286
  5
28D
331
287
  5
28E
331
288
  5
28F
331
289
  5
290
331
28A
  5
291
331
28B
  5
292
331
28C
  5
293
331
28D
  5
294
331
28E
  5
295
331
28F
  5
296
331
290
  5
297
331
291
  5
298
331
292
  5
299
331
293
  5
29A
331
294
  5
29B
331
295
  5
29C
331
296
  5
29D
331
297
  5
29E
331
298
  5
29F
331
299
  5
2A0
331
29A
  5
2A1
331
29B
  5
2A2
331
29C
  5
2A3
331
29D
  5
2A4
331
29E
  5
2A5
331
29F
  5
2A6
331
2A0
  5
2A7
331
2A1
  5
2A8
331
2A2
  5
2A9
331
2A3
  5
2AA
331
2A4
  5
2AB
331
2A5
  5
2AC
331
2A6
  5
2AD
331
2A7
  5
2AE
331
2A8
  5
2AF
331
2A9
  5
2B0
331
2AA
  5
2B1
331
2AB
  5
2B2
331
2AC
  5
2B3
331
2AD
  5
2B4
331
2AE
  5
2B5
331
2AF
  5
2B6
331
2B0
  5
2B7
331
2B1
  5
2B8
331
2B2
  5
2B9
331
2B3
  5
2BA
331
2B4
  5
2BB
331
2B5
  5
2BC
331
2B6
  5
2BD
331
2B7
  5
2BE
331
2B8
  5
2BF
331
2B9
  5
2C0
331
2BA
  5
2C1
331
2BB
  5
2C2
331
2BC
  5
2C3
331
2BD
  5
2C4
331
2BE
  5
2C5
331
2BF
  5
2C6
331
2C0
  5
2C7
331
2C1
  5
2C8
331
2C2
  5
2C9
331
2C3
  5
2CA
331
2C4
  5
2CB
331
2C5
  5
2CC
331
2C6
  5
2CD
331
2C7
  5
2CE
331
2C8
  5
2CF
331
2C9
  5
2D0
331
2CA
  5
2D1
331
2CB
  5
2D2
331
2CC
  5
2D3
331
2CD
  5
2D4
331
2CE
  5
2D5
331
2CF
  5
2D6
331
2D0
  5
2D7
331
2D1
  5
2D8
331
2D2
  5
2D9
331
2D3
  5
2DA
331
2D4
  5
2DB
331
2D5
  5
2DC
331
2D6
  5
2DD
331
2D7
  5
2DE
331
2D8
  5
2DF
331
2D9
  5
2E0
331
2DA
  5
2E1
331
2DB
  5
2E2
331
2DC
  5
2E3
331
2DD
  5
2E4
331
2DE
  5
2E5
331
2DF
  5
2E6
331
2E0
  5
2E7
331
2E1
  5
2E8
331
2E2
  5
2E9
331
2E3
  5
2EA
331
2E4
  5
2EB
331
2E5
  5
2EC
331
2E6
  5
2ED
331
2E7
  5
2EE
331
2E8
  5
2EF
331
2E9
  5
2F0
331
2EA
  5
2F1
331
2EB
  5
2F2
331
2EC
  5
2F3
331
2ED
  5
2F4
331
2EE
  5
2F5
331
2EF
  5
2F6
331
2F0
  5
2F7
331
2F1
  5
2F8
331
2F2
  5
2F9
331
2F3
  5
2FA
331
2F4
  5
2FB
331
2F5
  5
2FC
331
2F6
  5
2FD
331
2F7
  5
2FE
331
2F8
  5
2FF
331
2F9
  5
300
331
2FA
  5
301
331
2FB
  5
302
331
2FC
  5
303
331
2FD
  5
304
331
2FE
  5
305
331
2FF
  5
306
331
300
  5
307
331
301
  5
308
331
302
  5
309
331
303
  5
30A
331
304
  5
30B
331
305
  5
30C
331
306
  5
30D
331
307
  5
30E
331
308
  5
30F
331
309
  5
310
331
30A
  5
311
331
30B
  5
312
331
30C
  5
313
331
30D
  5
314
331
30E
  5
315
331
30F
  5
316
331
310
  5
317
331
311
  5
318
331
312
  5
319
331
313
  5
31A
331
314
  5
31B
331
315
  5
31C
331
316
  5
31D
331
317
  5
31E
331
318
  5
31F
331
319
  5
320
331
31A
  5
321
331
31B
  5
322
331
31C
  5
323
331
31D
  5
324
331
31E
  5
325
331
31F
  5
326
331
320
  5
327
331
321
  5
328
331
322
  5
329
331
323
  5
32A
331
324
  5
32B
331
325
  5
32C
331
326
  5
32D
331
327
  5
32E
331
328
  5
32F
331
329
  5
330
331
32A
  5
331
331
32B
  5
332
331
32C
  5
333
331
32D
  5
334
331
32E
  5
335
331
32F
  5
336
331
330
  5
337
331
331
  5
338
331
332
  5
339
331
333
  5
33A
331
334
  5
33B
331
335
  5
33C
331
336
  5
33D
331
337
  5
33E
331
338
  5
33F
331
339
  5
340
331
33A
  5
341
331
33B
  5
342
331
33C
  5
343
331
33D
  5
344
331
33E
  5
345
331
33F
  5
346
331
340
  5
347
331
341
  5
348
331
342
  5
349
331
343
  5
34A
331
344
  5
34B
331
345
  5
34C
331
346
  5
34D
331
347
  5
34E
331
348
  5
34F
331
349
  5
350
331
34A
  5
351
331
34B
  5
352
331
34C
  5
353
331
34D
  5
354
331
34E
  5
355
331
34F
  5
356
331
350
  5
357
331
351
  5
358
331
352
  5
359
331
353
  5
35A
331
354
  5
35B
331
355
  5
35C
331
356
  5
35D
331
357
  5
35E
331
358
  5
35F
331
359
  5
360
331
35A
  5
361
331
35B
  5
362
331
35C
  5
363
331
35D
  5
364
331
35E
  5
365
331
35F
  5
366
331
360
  5
367
331
361
  5
368
331
362
  5
369
331
363
  5
36A
331
364
  5
36B
331
365
  5
36C
331
366
  5
36D
331
367
  5
36E
331
368
  5
36F
331
369
  5
370
331
36A
  5
371
331
36B
  5
372
331
36C
  5
373
331
36D
  5
374
331
36E
  5
375
331
36F
  5
376
331
370
  5
377
331
371
  5
378
331
372
  5
379
331
373
  5
37A
331
374
  5
37B
331
375
  5
37C
331
376
  5
37D
331
377
  5
37E
331
378
  5
37F
331
379
  5
380
331
37A
  5
381
331
37B
  5
382
331
37C
  5
383
331
37D
  5
384
331
37E
  5
385
331
37F
  5
386
331
380
  5
387
331
381
  5
388
331
382
  5
389
331
383
  5
38A
331
384
  5
38B
331
385
  5
38C
331
386
  5
38D
331
387
  5
38E
331
388
  5
38F
331
389
  5
390
331
38A
  5
391
331
38B
  5
392
331
38C
  5
393
331
38D
  5
394
331
38E
  5
395
331
38F
  5
396
331
390
  5
397
331
391
  5
398
331
392
  5
399
331
393
  5
39A
331
394
  5
39B
331
395
  5
39C
331
396
  5
39D
331
397
  5
39E
331
398
  5
39F
331
399
  5
3A0
331
39A
  5
3A1
331
39B
  5
3A2
331
39C
  5
3A3
331
39D
  5
3A4
331
39E
  5
3A5
331
39F
  5
3A6
331
3A0
  5
3A7
331
3A1
  5
3A8
331
3A2
  5
3A9
331
3A3
  5
3AA
331
3A4
  5
3AB
331
3A5
  5
3AC
331
3A6
  5
3AD
331
3A7
  5
3AE
331
3A8
  5
3AF
331
3A9
  5
3B0
331
3AA
  5
3B1
331
3AB
  5
3B2
331
3AC
  5
3B3
331
3AD
  5
3B4
331
3AE
  5
3B5
331
3AF
  5
3B6
331
3B0
  5
3B7
331
3B1
  5
3B8
331
3B2
  5
3B9
331
3B3
  5
3BA
331
3B4
  5
3BB
331
3B5
  5
3BC
331
3B6
  5
3BD
331
3B7
  5
3BE
331
3B8
  5
3BF
331
3B9
  5
3C0
331
3BA
  5
3C1
331
3BB
  5
3C2
331
3BC
  5
3C3
331
3BD
  5
3C4
331
3BE
  5
3C5
331
3BF
  5
3C6
331
3C0
  5
3C7
331
3C1
  5
3C8
331
3C2
  5
3C9
331
3C3
  5
3CA
331
3C4
  5
3CB
331
3C5
  5
3CC
331
3C6
  5
3CD
331
3C7
  5
3CE
331
3C8
  5
3CF
331
3C9
  5
3D0
331
3CA
  5
3D1
331
3CE
  5
3D5
331
3CF
  5
3D6
331
3D0
  5
3D7
331
3D1
  5
3D8
331
3D2
  5
3D9
331
3D3
  5
3DA
331
3D4
  5
3DB
331
3D5
  5
3DC
331
3D6
  5
3DD
331
3D7
  5
3DE
331
3D8
  5
3DF
331
3D9
  5
3E0
331
3DA
  5
3E1
331
3DB
  5
3E2
331
3DC
  5
3E3
331
3DD
  5
3E4
331
3DE
  5
3E5
331
3DF
  5
3E6
331
3E0
  5
3E7
331
3E1
  5
3E8
331
3E2
  5
3E9
331
3E3
  5
3EA
331
3E4
  5
3EB
331
3E5
  5
3EC
331
3E6
  5
3ED
331
3E7
  5
3EE
331
3E8
  5
3EF
331
3E9
  5
3F0
331
3EA
  5
3F1
331
3EB
  5
3F2
331
3EC
  5
3F8
331
401
  5
408
331
402
  5
409
331
403
  5
40A
331
404
  5
40B
331
405
  5
40C
331
406
  5
40D
331
407
  5
40E
331
408
  5
40F
331
409
  5
410
331
40A
  5
411
331
40B
  5
412
331
40C
  5
413
331
40D
  5
414
331
40E
  5
415
331
40F
  5
416
331
410
  5
417
331
411
  5
418
331
412
  5
419
331
413
  5
41A
331
414
  5
41B
331
415
  5
41C
331
416
  5
41D
331
417
  5
41E
331
418
  5
41F
331
419
  5
420
331
41A
  5
421
331
41B
  5
422
331
41C
  5
423
331
41D
  5
424
331
41E
  5
425
331
41F
  5
426
331
420
  5
427
331
421
  5
428
331
422
  5
429
331
423
  5
42A
331
424
  5
42B
331
425
  5
42C
331
426
  5
42D
331
427
  5
42E
331
428
  5
42F
331
429
  5
430
331
42A
  5
431
331
42B
  5
432
331
42C
  5
433
331
42D
  5
434
331
42E
  5
435
331
42F
  5
436
331
430
  5
437
331
431
  5
438
331
432
  5
439
331
433
  5
43A
331
434
  5
43B
331
435
  5
43C
331
436
  5
43D
331
437
  5
43E
331
438
  5
43F
331
439
  5
440
331
43A
  5
441
331
43B
  5
442
331
43C
  5
443
331
43D
  5
444
331
43E
  5
445
331
43F
  5
446
331
440
  5
447
331
441
  5
448
331
442
  5
449
331
443
  5
44A
331
444
  5
44B
331
445
  5
44C
331
446
  5
44D
331
447
  5
44E
331
448
  5
44F
331
0
  5
450
331
0
  5
451
331
0
  5
452
331
0
  5
453
331
0
  5
454
331
0
  5
455
331
0
  5
456
331
0
  5
457
331
0
  5
458
331
0
  5
459
331
0
  5
45A
331
0
  5
45B
331
0
  5
45C
331
0
  5
45D
331
0
  5
45E
331
0
  5
45F
331
0
  5
460
331
0
  5
461
331
0
  5
462
331
0
  5
463
331
0
  5
464
331
0
  5
465
331
0
  5
466
331
0
  5
467
331
0
  5
468
331
0
  5
469
331
0
  5
46A
331
0
  5
46B
331
0
  5
46C
331
0
  5
46D
331
0
  5
46E
331
0
  5
46F
331
0
  5
470
331
0
  5
471
331
0
  5
472
331
0
  5
473
331
0
  5
474
331
0
  5
475
331
0
  5
476
331
0
  5
477
331
0
  5
478
331
0
  5
479
331
0
  5
47A
331
0
  5
47B
331
0
  5
47C
331
0
  5
47D
331
0
  5
47E
331
0
  5
47F
331
0
  5
480
331
0
  5
481
331
0
  5
482
331
0
  5
483
331
0
  5
484
331
0
  5
485
331
0
  5
486
331
0
  5
487
331
0
  5
488
331
0
  5
489
331
0
  5
48A
331
0
  5
48B
331
0
  5
48C
331
0
  5
48D
331
0
  5
48E
331
0
  5
48F
331
0
  5
490
331
0
  5
491
331
0
  5
492
331
0
  5
493
331
0
  5
494
331
0
  5
495
331
0
  5
496
331
0
  5
497
331
0
  5
498
331
0
  5
499
331
0
  5
49A
331
0
  5
49B
331
0
  5
49C
331
0
  5
49D
331
0
  5
49E
331
0
  5
49F
331
0
  5
4A0
331
0
  5
4A1
331
0
  5
4A2
331
0
  5
4A3
331
0
  5
4A4
331
0
  5
4A5
331
0
  5
4A6
331
0
  5
4A7
331
0
  5
4A8
331
0
  5
4A9
331
0
  5
4AA
331
0
  5
4AB
331
0
  5
4AC
331
0
  5
4AD
331
0
  5
4AE
331
0
  5
4AF
331
0
  5
4B0
331
0
  5
4B1
331
0
  5
4B2
331
0
  5
4B3
331
0
  5
4B4
331
0
  5
4B5
331
0
  5
4B6
331
0
  5
4B7
331
0
  5
4B8
331
0
  5
4B9
331
0
  5
4BA
331
0
  5
4BB
331
0
  5
4BC
331
0
  5
4BD
331
0
  5
4BE
331
0
  5
4BF
331
0
  5
4C0
331
0
  5
4C1
331
0
  5
4C2
331
0
  5
4C3
331
0
  5
4C4
331
0
  5
4C5
331
0
  5
4C6
331
0
  5
4C7
331
0
  5
4C8
331
0
  5
4C9
331
0
  5
4CA
331
0
  5
4CB
331
0
  5
4CC
331
0
  5
4CD
331
0
  5
4CE
331
0
  5
4CF
331
0
  5
4D0
331
0
  5
4D1
331
0
  5
4D2
331
0
  5
4D3
331
0
  5
4D4
331
0
  5
4D5
331
0
  5
4D6
331
0
  5
4D7
331
0
  5
4D8
331
0
  5
4D9
331
0
  5
4DA
331
0
  5
4DB
331
0
  5
4DC
331
0
  5
4DD
331
0
  5
4DE
331
0
  5
4DF
331
0
  5
4E0
331
0
  5
4E1
331
0
  5
4E2
331
0
  5
4E3
331
0
  5
4E4
331
0
  5
4E5
331
0
  5
4E6
331
0
  5
4E7
331
0
  5
4E8
331
0
  5
4E9
331
0
  5
4EA
331
0
  5
4EB
331
0
  5
4EC
331
0
  5
4ED
331
0
  5
4EE
331
0
  5
4EF
331
0
  5
4F0
331
0
  5
4F1
331
0
  5
4F2
331
0
  5
4F3
331
0
  5
4F4
331
0
  5
4F5
331
0
  5
4F6
331
0
  5
4F7
331
0
  5
4F8
331
0
  5
4F9
331
0
  5
4FA
331
0
  5
4FB
331
0
  5
4FC
331
0
  5
4FD
331
0
  5
4FE
331
0
  5
4FF
331
0
  5
500
331
0
  5
501
331
0
  5
502
331
0
  5
503
331
0
  5
504
331
0
  5
505
331
0
  5
506
331
0
  5
507
331
0
  5
508
331
0
  5
509
331
0
  5
50A
331
0
  5
50B
331
0
  5
50C
331
0
  5
50D
331
0
  5
50E
331
0
  5
50F
331
0
  5
510
331
0
  5
511
331
0
  5
512
331
0
  5
513
331
0
  5
514
331
0
  5
515
331
0
  5
516
331
0
  5
517
331
0
  5
518
331
0
  5
519
331
0
  5
51D
331
0
  5
51E
331
0
  5
51F
331
0
  5
520
331
0
  5
521
331
0
  5
522
331
0
  5
523
331
0
  5
524
331
0
  5
525
331
0
  5
526
331
0
  5
527
331
0
  5
528
331
0
  5
529
331
0
  5
52A
331
0
  5
52B
331
0
  5
52C
331
0
  5
52D
331
0
  5
52E
331
0
  5
52F
331
0
  5
530
331
0
  5
531
331
0
  5
532
331
0
  5
533
331
0
  5
534
331
0
  5
535
331
0
  5
536
331
0
  5
537
331
0
  5
538
331
0
  5
539
331
0
  5
53A
331
0
  5
53B
331
0
  5
53C
331
0
  5
53D
331
0
  5
53E
331
0
  5
53F
331
0
  5
540
331
0
  5
541
331
0
  5
542
331
0
  5
543
331
0
  5
544
331
0
  5
545
331
0
  5
546
331
0
  5
547
331
0
  5
548
331
0
  5
549
331
0
  5
54A
331
0
  5
54B
331
0
  5
54C
331
0
  5
54D
331
0
  5
54E
331
0
  5
54F
331
0
  5
550
331
0
  5
551
331
0
  5
552
331
0
  5
553
331
0
  5
554
331
0
  5
555
331
0
  5
556
331
0
  5
557
331
0
  5
558
331
0
  5
559
331
0
  5
55A
331
0
  5
55B
331
0
  5
55C
331
0
  5
55D
331
0
  5
55E
331
0
  5
55F
331
0
  5
560
331
0
  5
561
331
0
  5
562
331
0
  5
563
331
0
  5
564
331
0
  5
565
331
0
  5
566
331
0
  5
567
331
0
  5
568
331
0
  5
569
331
0
  5
56A
331
0
  5
56B
331
0
  5
56C
331
0
  5
56D
331
0
  5
56E
331
0
  5
56F
331
0
  5
570
331
0
  5
571
331
0
  5
572
331
0
  5
573
331
0
  5
574
331
0
  5
575
331
0
  5
576
331
0
  5
577
331
0
  5
578
331
0
  5
579
331
0
  5
57A
331
0
  5
57B
331
0
  5
57C
331
0
  5
57D
331
0
  5
57E
331
0
  5
57F
331
0
  5
580
331
0
  5
581
331
0
  5
582
331
0
  5
583
331
0
  5
584
331
0
  5
585
331
0
  5
586
331
0
  5
587
331
0
  5
588
331
0
  5
589
331
0
  5
58A
331
0
  5
58B
331
0
  5
58C
331
0
  5
58D
331
0
  5
58E
331
0
  5
58F
331
0
  5
590
331
0
  5
591
331
0
  5
592
331
0
  5
593
331
0
  5
594
331
0
  5
595
331
0
  5
596
331
0
  5
597
331
0
  5
598
331
0
  5
599
331
0
  5
59A
331
0
  5
59B
331
0
  5
59C
331
0
  5
59D
331
0
  5
59E
331
0
  5
59F
331
0
  5
5A0
331
0
  5
5A1
331
0
  5
5A2
331
0
  5
5A3
331
0
  5
5A4
331
0
  5
5A5
331
0
  5
5A6
331
0
  5
5A7
331
0
  5
5A8
331
0
  5
5A9
331
0
  5
5AA
331
0
  5
5AB
331
0
  5
5AC
331
0
  5
5AD
331
0
  5
5AE
331
0
  5
5AF
331
0
  5
5B0
331
0
  5
5B1
331
0
  5
5B2
331
0
  5
5B3
331
0
  5
5B4
331
0
  5
5B5
331
0
  5
5B6
331
0
  5
5B7
331
0
  5
5B8
331
0
  5
5B9
331
0
  5
5BA
331
0
  5
5BB
331
0
  5
5BC
331
0
  5
5BD
331
0
  5
5BE
331
0
  5
5BF
331
0
  5
5C0
331
0
  5
5C1
331
0
  5
5C2
331
0
  5
5C3
331
0
  5
5C4
331
0
  5
5C5
331
0
  5
5C6
331
0
  5
5C7
331
0
  5
5C8
331
0
  5
5C9
331
0
  5
5CA
331
0
  5
5CB
331
0
  5
5CC
331
0
  5
5CD
331
0
  5
5D1
331
0
  5
5D2
331
0
  5
5D3
331
0
  5
5D4
331
0
  5
5D5
331
0
  5
5D6
331
0
  5
5D7
331
0
  5
5D8
331
0
  5
5D9
331
0
  5
5DA
331
0
  5
5DB
331
0
  5
5DC
331
0
  5
5DD
331
0
  5
5DE
331
0
  5
5DF
331
0
  5
5E0
331
0
  5
5E1
331
5DB
  5
5E2
331
0
  5
5E3
331
0
  5
5E4
331
0
  5
5E5
331
0
  5
5E6
331
0
  5
5E7
331
0
  5
5E8
331
0
  5
5E9
331
0
  5
5EA
331
0
  5
5EB
331
0
  5
5EC
331
0
  5
5ED
331
0
  5
5EE
331
0
  5
5EF
331
0
  5
5F0
331
0
  5
5F1
331
0
  5
5F2
331
0
  5
5F3
331
0
  5
5F4
331
0
  5
5F5
331
0
  5
5F6
331
0
  5
5F7
331
0
  5
5F8
331
0
  5
5F9
331
0
  5
5FA
331
0
  5
5FB
331
0
  5
5FC
331
0
  5
5FD
331
0
  5
5FE
331
5F8
  5
5FF
331
5F9
  5
600
331
5FA
  5
601
331
5FB
  5
602
331
5FC
  5
603
331
5FD
  5
604
331
5FE
  5
605
331
5FF
  5
606
331
600
  5
607
331
601
  5
608
331
602
  5
609
331
603
  5
60A
331
604
  5
60B
331
605
  5
60C
331
606
  5
60D
331
607
  5
60E
331
608
  5
60F
331
609
  5
610
331
60A
  5
611
331
60B
  5
612
331
60C
  5
613
331
610
  5
617
331
611
  5
618
331
612
  5
619
331
613
  5
61A
331
614
  5
61B
331
615
  5
61C
331
616
  5
63D
331
617
  5
63E
331
618
  5
63F
331
619
  5
640
331
61A
  5
641
331
0
  5
64B
331
0
  5
64C
331
63F
  5
E4
331
640
  5
84
331
641
  5
AD
331
64B
  5
64D
331
64C
  5
64E
331
64D
  5
64F
331
64E
  5
650
331
64F
  5
651
331
650
  5
652
331
651
  5
653
331
652
  5
654
331
653
  5
655
331
654
  5
656
331
655
  5
657
331
656
  5
658
331
657
  5
659
331
658
  5
65A
331
659
  5
65B
331
65A
  5
65C
331
65B
  5
65D
331
65C
  5
65E
331
65D
  5
65F
331
65E
  5
660
331
65F
  5
661
331
660
  5
662
331
661
  5
663
331
662
  5
664
331
663
  5
665
331
664
  5
666
331
665
  5
667
331
666
  5
668
331
667
  5
66C
331
668
  5
66D
331
66F
  5
671
331
670
  5
672
331
671
  5
673
331
672
  5
674
331
673
  5
675
331
674
  5
676
331
675
  5
677
331
676
  5
678
331
677
  5
679
331
678
  5
67A
331
679
  5
67D
331
67A
  5
67E
331
67B
  5
67F
331
67C
  5
680
331
67D
  5
681
331
67E
  5
682
331
67F
  5
683
331
680
  5
684
331
681
  5
685
331
682
  5
686
331
683
  5
687
331
684
  5
688
331
685
  5
689
331
686
  5
68A
331
687
  5
68B
331
688
  5
68C
331
689
  5
68D
331
68A
  5
68E
331
68B
  5
690
331
68C
  5
691
331
68D
  5
692
331
68E
  5
695
331
0
  5
696
331
0
  5
697
331
0
  5
698
331
0
  5
699
331
0
  5
69A
331
0
  5
6A8
331
0
  5
6A9
331
0
  5
6AA
331
0
  5
6AB
331
0
  5
6AC
331
0
  5
6AD
331
0
  5
6AE
331
0
  5
6AF
331
0
  5
6B0
331
0
  5
6B1
331
6B5
  5
6B8
331
6B6
  5
6B9
331
6B7
  5
6BA
331
6B8
  5
6BB
331
6B9
  5
6BD
331
6BA
  5
6BE
331
6BB
  5
6BF
331
6BD
  5
6C0
331
6BE
  5
6C1
331
6BF
  5
6C2
331
6C0
  5
6C3
331
6C1
  5
6C4
331
6C2
  5
6C5
331
6C3
  5
6C6
331
6C4
  5
6C7
331
6C5
  5
6C8
331
6C6
  5
6C9
331
6C7
  5
6CA
331
6C8
  5
6CB
331
6C9
  5
6CC
331
6CA
  5
6CD
331
6CB
  5
6CE
331
6CC
  5
6CF
331
6CD
  5
6D0
331
6CE
  5
6D5
331
6CF
  5
6D6
331
6D0
  5
6D7
331
0
  5
6DA
331
0
  5
6DB
331
0
  5
6DC
331
0
  5
6DD
331
0
  5
6DE
331
0
  5
6DF
331
0
  5
6E0
331
0
  5
6E1
331
0
  5
6E8
331
0
  5
6E9
331
0
  5
6EA
331
0
  5
6EB
331
0
  5
6EC
331
0
  5
6ED
331
0
  5
6F4
331
0
  5
6F7
331
0
  5
6F8
331
6F4
  5
6F9
331
0
  5
6FA
331
0
  5
6FB
331
0
  5
6FC
331
0
  5
6FD
331
0
  5
6FE
331
0
  5
6FF
331
0
  5
700
331
0
  5
701
331
0
  5
702
331
0
  5
703
331
0
  5
704
331
0
  5
705
331
0
  5
706
331
0
  5
707
331
0
  5
708
331
0
  5
709
331
0
  5
70A
331
0
  5
70B
  0
LAYOUT
  5
23
102
{ACAD_REACTORS
330
24
102
}
330
24
100
AcDbPlotSettings
  1

  2
Bullzip PDF Printer.pc3
  4
A3
  6

 40
0.2
 41
0.0
 42
0.0
 43
0.0
 44
420.2
 45
297.1
 46
25.0
 47
12.0
 48
149.9999997666664
 49
10.0
140
2059.999995391666
141
1372.499996820832
142
1.0
143
5.0
 70
 11936
 72
     1
 73
     0
 74
     4
  7
monochrome.ctb
 75
     0
147
0.2
148
-149.9999997666664
149
-10.0
100
AcDbLayout
  1
Model
 70
     0
 71
     0
 10
0.0
 20
0.0
 11
12.0
 21
9.0
 12
0.0
 22
0.0
 32
0.0
 14
193.6387111413285
 24
21.45623362181141
 34
0.0
 15
1945.470769782634
 25
1471.50492742611
 35
0.0
146
0.0
 13
0.0
 23
0.0
 33
0.0
 16
1.0
 26
0.0
 36
0.0
 17
0.0
 27
1.0
 37
0.0
 76
     0
330
1B
331
31
1001
ACAD_PSEXT
1000
Bullzip PDF Printer.pc3
1000
Bullzip PDF Printer
1000
BULLZIP
1000
Bullzip PDF Printer 10.1.0.1871
1070
     0
  0
LAYOUT
  5
29
102
{ACAD_REACTORS
330
24
102
}
330
24
100
AcDbPlotSettings
  1

  2
SR-LP8300F
  4

  6

 40
0.0
 41
0.0
 42
0.0
 43
0.0
 44
0.0
 45
0.0
 46
0.0
 47
0.0
 48
0.0
 49
0.0
140
0.0
141
0.0
142
1.0
143
1.0
 70
   688
 72
     0
 73
     0
 74
     5
  7
monochrome.ctb
 75
    16
147
1.0
148
0.0
149
0.0
100
AcDbLayout
  1
ﾚｲｱｳﾄ1
 70
     0
 71
     1
 10
0.0
 20
0.0
 11
12.0
 21
9.0
 12
0.0
 22
0.0
 32
0.0
 14
1000000000000000E+20
 24
1000000000000000E+20
 34
1000000000000000E+20
 15
-1000000000000000E+20
 25
-1000000000000000E+20
 35
-1000000000000000E+20
146
0.0
 13
0.0
 23
0.0
 33
0.0
 16
1.0
 26
0.0
 36
0.0
 17
0.0
 27
1.0
 37
0.0
 76
     0
330
26
  0
MATERIAL
  5
67
102
{ACAD_REACTORS
330
B
102
}
102
{ACAD_XDICTIONARY
360
73C
102
}
330
B
100
AcDbMaterial
  1
ByBlock
 72
     0
 73
     2
 43
0.0208333333333333
 43
0.0
 43
0.0
 43
0.0
 43
0.0
 43
0.0208333333333333
 43
0.0
 43
0.0
 43
0.0
 43
0.0
 43
1.0
 43
0.0
 43
0.0
 43
0.0
 43
0.0
 43
1.0
 77
     0
 78
     2
 47
0.0208333333333333
 47
0.0
 47
0.0
 47
0.0
 47
0.0
 47
0.0208333333333333
 47
0.0
 47
0.0
 47
0.0
 47
0.0
 47
1.0
 47
0.0
 47
0.0
 47
0.0
 47
0.0
 47
1.0
171
     0
172
     2
 49
0.0208333333333333
 49
0.0
 49
0.0
 49
0.0
 49
0.0
 49
0.0208333333333333
 49
0.0
 49
0.0
 49
0.0
 49
0.0
 49
1.0
 49
0.0
 49
0.0
 49
0.0
 49
0.0
 49
1.0
175
     0
176
     2
142
0.0208333333333333
142
0.0
142
0.0
142
0.0
142
0.0
142
0.0208333333333333
142
0.0
142
0.0
142
0.0
142
0.0
142
1.0
142
0.0
142
0.0
142
0.0
142
0.0
142
1.0
179
     0
270
     2
144
0.0208333333333333
144
0.0
144
0.0
144
0.0
144
0.0
144
0.0208333333333333
144
0.0
144
0.0
144
0.0
144
0.0
144
1.0
144
0.0
144
0.0
144
0.0
144
0.0
144
1.0
274
     2
147
0.0208333333333333
147
0.0
147
0.0
147
0.0
147
0.0
147
0.0208333333333333
147
0.0
147
0.0
147
0.0
147
0.0
147
1.0
147
0.0
147
0.0
147
0.0
147
0.0
147
1.0
  0
MATERIAL
  5
14
102
{ACAD_REACTORS
330
B
102
}
102
{ACAD_XDICTIONARY
360
738
102
}
330
B
100
AcDbMaterial
  1
ByLayer
 72
     0
 73
     2
 43
0.0208333333333333
 43
0.0
 43
0.0
 43
0.0
 43
0.0
 43
0.0208333333333333
 43
0.0
 43
0.0
 43
0.0
 43
0.0
 43
1.0
 43
0.0
 43
0.0
 43
0.0
 43
0.0
 43
1.0
 77
     0
 78
     2
 47
0.0208333333333333
 47
0.0
 47
0.0
 47
0.0
 47
0.0
 47
0.0208333333333333
 47
0.0
 47
0.0
 47
0.0
 47
0.0
 47
1.0
 47
0.0
 47
0.0
 47
0.0
 47
0.0
 47
1.0
171
     0
172
     2
 49
0.0208333333333333
 49
0.0
 49
0.0
 49
0.0
 49
0.0
 49
0.0208333333333333
 49
0.0
 49
0.0
 49
0.0
 49
0.0
 49
1.0
 49
0.0
 49
0.0
 49
0.0
 49
0.0
 49
1.0
175
     0
176
     2
142
0.0208333333333333
142
0.0
142
0.0
142
0.0
142
0.0
142
0.0208333333333333
142
0.0
142
0.0
142
0.0
142
0.0
142
1.0
142
0.0
142
0.0
142
0.0
142
0.0
142
1.0
179
     0
270
     2
144
0.0208333333333333
144
0.0
144
0.0
144
0.0
144
0.0
144
0.0208333333333333
144
0.0
144
0.0
144
0.0
144
0.0
144
1.0
144
0.0
144
0.0
144
0.0
144
0.0
144
1.0
274
     2
147
0.0208333333333333
147
0.0
147
0.0
147
0.0
147
0.0
147
0.0208333333333333
147
0.0
147
0.0
147
0.0
147
0.0
147
1.0
147
0.0
147
0.0
147
0.0
147
0.0
147
1.0
  0
MATERIAL
  5
A
102
{ACAD_REACTORS
330
B
102
}
102
{ACAD_XDICTIONARY
360
73A
102
}
330
B
100
AcDbMaterial
  1
Global
 72
     0
 73
     2
 43
0.0208333333333333
 43
0.0
 43
0.0
 43
0.0
 43
0.0
 43
0.0208333333333333
 43
0.0
 43
0.0
 43
0.0
 43
0.0
 43
1.0
 43
0.0
 43
0.0
 43
0.0
 43
0.0
 43
1.0
 77
     0
 78
     2
 47
0.0208333333333333
 47
0.0
 47
0.0
 47
0.0
 47
0.0
 47
0.0208333333333333
 47
0.0
 47
0.0
 47
0.0
 47
0.0
 47
1.0
 47
0.0
 47
0.0
 47
0.0
 47
0.0
 47
1.0
171
     0
172
     2
 49
0.0208333333333333
 49
0.0
 49
0.0
 49
0.0
 49
0.0
 49
0.0208333333333333
 49
0.0
 49
0.0
 49
0.0
 49
0.0
 49
1.0
 49
0.0
 49
0.0
 49
0.0
 49
0.0
 49
1.0
175
     0
176
     2
142
0.0208333333333333
142
0.0
142
0.0
142
0.0
142
0.0
142
0.0208333333333333
142
0.0
142
0.0
142
0.0
142
0.0
142
1.0
142
0.0
142
0.0
142
0.0
142
0.0
142
1.0
179
     0
270
     2
144
0.0208333333333333
144
0.0
144
0.0
144
0.0
144
0.0
144
0.0208333333333333
144
0.0
144
0.0
144
0.0
144
0.0
144
1.0
144
0.0
144
0.0
144
0.0
144
0.0
144
1.0
274
     2
147
0.0208333333333333
147
0.0
147
0.0
147
0.0
147
0.0
147
0.0208333333333333
147
0.0
147
0.0
147
0.0
147
0.0
147
1.0
147
0.0
147
0.0
147
0.0
147
0.0
147
1.0
1001
ACAD
1070
    -1
1070
     3
1070
     0
1000

1071
        0
  0
MLEADERSTYLE
  5
63B
102
{ACAD_REACTORS
330
620
102
}
102
{ACAD_XDICTIONARY
360
76E
102
}
330
620
100
AcDbMLeaderStyle
170
     2
171
     1
172
     0
 90
        2
 40
0.0
 41
0.0
173
     1
 91
-1056964608
340
11
 92
       -2
290
     1
 42
0.09
291
     1
 43
0.36
  3
Standard
341
0
 44
0.18
300

342
12
174
     1
178
     6
175
     1
176
     0
 93
-1056964608
 45
0.18
292
     0
297
     0
 46
0.18
343
0
 94
-1056964608
 47
1.0
 49
1.0
140
1.0
293
     1
141
0.0
294
     1
177
     0
142
1.0
295
     0
296
     0
143
0.125
1001
ACAD_MLEADERVER
1070
     2
  0
MLINESTYLE
  5
18
102
{ACAD_REACTORS
330
19
102
}
330
19
100
AcDbMlineStyle
  2
STANDARD
 70
     0
  3

 62
     0
 51
90.0
 52
90.0
 71
     2
 49
0.5
 62
   256
  6
BYLAYER
 49
-0.5
 62
   256
  6
BYLAYER
  0
ACDBPLACEHOLDER
  5
7
102
{ACAD_REACTORS
330
8
102
}
330
8
  0
SCALE
  5
56
102
{ACAD_REACTORS
330
34
102
}
330
34
100
AcDbScale
 70
     0
300
1:1
140
1.0
141
1.0
290
     1
  0
SCALE
  5
5F
102
{ACAD_REACTORS
330
34
102
}
330
34
100
AcDbScale
 70
     0
300
3/8" = 1'-0"
140
0.375
141
12.0
290
     0
  0
SCALE
  5
60
102
{ACAD_REACTORS
330
34
102
}
330
34
100
AcDbScale
 70
     0
300
1/2" = 1'-0"
140
0.5
141
12.0
290
     0
  0
SCALE
  5
61
102
{ACAD_REACTORS
330
34
102
}
330
34
100
AcDbScale
 70
     0
300
3/4" = 1'-0"
140
0.75
141
12.0
290
     0
  0
SCALE
  5
62
102
{ACAD_REACTORS
330
34
102
}
330
34
100
AcDbScale
 70
     0
300
1" = 1'-0"
140
1.0
141
12.0
290
     0
  0
SCALE
  5
63
102
{ACAD_REACTORS
330
34
102
}
330
34
100
AcDbScale
 70
     0
300
1-1/2" = 1'-0"
140
1.5
141
12.0
290
     0
  0
SCALE
  5
64
102
{ACAD_REACTORS
330
34
102
}
330
34
100
AcDbScale
 70
     0
300
3" = 1'-0"
140
3.0
141
12.0
290
     0
  0
SCALE
  5
65
102
{ACAD_REACTORS
330
34
102
}
330
34
100
AcDbScale
 70
     0
300
6" = 1'-0"
140
6.0
141
12.0
290
     0
  0
SCALE
  5
66
102
{ACAD_REACTORS
330
34
102
}
330
34
100
AcDbScale
 70
     0
300
1'-0" = 1'-0"
140
12.0
141
12.0
290
     0
  0
SCALE
  5
57
102
{ACAD_REACTORS
330
34
102
}
330
34
100
AcDbScale
 70
     0
300
1/128" = 1'-0"
140
0.0078125
141
12.0
290
     0
  0
SCALE
  5
58
102
{ACAD_REACTORS
330
34
102
}
330
34
100
AcDbScale
 70
     0
300
1/64" = 1'-0"
140
0.015625
141
12.0
290
     0
  0
SCALE
  5
59
102
{ACAD_REACTORS
330
34
102
}
330
34
100
AcDbScale
 70
     0
300
1/32" = 1'-0"
140
0.03125
141
12.0
290
     0
  0
SCALE
  5
5A
102
{ACAD_REACTORS
330
34
102
}
330
34
100
AcDbScale
 70
     0
300
1/16" = 1'-0"
140
0.0625
141
12.0
290
     0
  0
SCALE
  5
5B
102
{ACAD_REACTORS
330
34
102
}
330
34
100
AcDbScale
 70
     0
300
3/32" = 1'-0"
140
0.09375
141
12.0
290
     0
  0
SCALE
  5
5C
102
{ACAD_REACTORS
330
34
102
}
330
34
100
AcDbScale
 70
     0
300
1/8" = 1'-0"
140
0.125
141
12.0
290
     0
  0
SCALE
  5
5D
102
{ACAD_REACTORS
330
34
102
}
330
34
100
AcDbScale
 70
     0
300
3/16" = 1'-0"
140
0.1875
141
12.0
290
     0
  0
SCALE
  5
5E
102
{ACAD_REACTORS
330
34
102
}
330
34
100
AcDbScale
 70
     0
300
1/4" = 1'-0"
140
0.25
141
12.0
290
     0
  0
TABLESTYLE
  5
66A
102
{ACAD_REACTORS
330
61F
102
}
330
61F
100
AcDbTableStyle
  3
Standard
 70
     0
 71
     0
 40
0.06
 41
0.06
280
     0
281
     0
  7
STANDARD
140
0.18
170
     2
 62
     0
 63
   257
283
     0
274
    -2
284
     1
 64
     0
275
    -2
285
     1
 65
     0
276
    -2
286
     1
 66
     0
277
    -2
287
     1
 67
     0
278
    -2
288
     1
 68
     0
279
    -2
289
     1
 69
     0
  7
STANDARD
140
0.25
170
     5
 62
     0
 63
   257
283
     0
274
    -2
284
     1
 64
     0
275
    -2
285
     1
 65
     0
276
    -2
286
     1
 66
     0
277
    -2
287
     1
 67
     0
278
    -2
288
     1
 68
     0
279
    -2
289
     1
 69
     0
  7
STANDARD
140
0.18
170
     5
 62
     0
 63
   257
283
     0
274
    -2
284
     1
 64
     0
275
    -2
285
     1
 65
     0
276
    -2
286
     1
 66
     0
277
    -2
287
     1
 67
     0
278
    -2
288
     1
 68
     0
279
    -2
289
     1
 69
     0
  0
VISUALSTYLE
  5
627
102
{ACAD_REACTORS
330
30
102
}
102
{ACAD_XDICTIONARY
360
746
102
}
330
30
100
AcDbVisualStyle
  2
2dWireframe
 70
     4
 71
     0
 72
     2
 73
     0
 90
        0
 40
0.6
 41
30.0
 62
     5
 63
     7
 74
     1
 91
        4
 64
     7
 65
   257
 75
     1
175
     1
 42
1.0
 92
        0
 66
   257
 43
1.0
 76
     1
 77
     6
 78
     2
 67
     7
 79
     5
170
     0
171
     0
290
     0
174
     0
 93
        1
 44
0.0
173
     0
291
     0
 45
0.0
1001
ACAD
1000
AcDbSavedByObjectVersion
1070
     0
  0
VISUALSTYLE
  5
62A
102
{ACAD_REACTORS
330
30
102
}
102
{ACAD_XDICTIONARY
360
74C
102
}
330
30
100
AcDbVisualStyle
  2
Basic
 70
     7
 71
     1
 72
     0
 73
     1
 90
        0
 40
0.6
 41
30.0
 62
     5
 63
     7
 74
     0
 91
        4
 64
     7
 65
   257
 75
     1
175
     1
 42
1.0
 92
        8
 66
     7
 43
1.0
 76
     1
 77
     6
 78
     2
 67
     7
 79
     5
170
     0
171
     0
290
     0
174
     0
 93
        1
 44
0.0
173
     0
291
     1
 45
0.0
1001
ACAD
1000
AcDbSavedByObjectVersion
1070
     0
  0
VISUALSTYLE
  5
62E
102
{ACAD_REACTORS
330
30
102
}
102
{ACAD_XDICTIONARY
360
754
102
}
330
30
100
AcDbVisualStyle
  2
Brighten
 70
    12
 71
     2
 72
     2
 73
     0
 90
        0
 40
0.6
 41
30.0
 62
     5
 63
     7
 74
     1
 91
        4
 64
     7
 65
   257
 75
     1
175
     1
 42
1.0
 92
        8
 66
     7
 43
1.0
 76
     1
 77
     6
 78
     2
 67
     7
 79
     5
170
     0
171
     0
290
     0
174
     0
 93
        1
 44
50.0
173
     0
291
     1
 45
0.0
1001
ACAD
1000
AcDbSavedByObjectVersion
1070
     0
  0
VISUALSTYLE
  5
632
102
{ACAD_REACTORS
330
30
102
}
102
{ACAD_XDICTIONARY
360
75C
102
}
330
30
100
AcDbVisualStyle
  2
ColorChange
 70
    16
 71
     2
 72
     2
 73
     3
 90
        0
 40
0.6
 41
30.0
 62
     5
 63
     8
 74
     1
 91
        4
 64
     7
 65
   257
 75
     1
175
     1
 42
1.0
 92
        8
 66
     8
 43
1.0
 76
     1
 77
     6
 78
     2
 67
     7
 79
     5
170
     0
171
     0
290
     0
174
     0
 93
        1
 44
0.0
173
     0
291
     1
 45
0.0
1001
ACAD
1000
AcDbSavedByObjectVersion
1070
     0
  0
VISUALSTYLE
  5
62C
102
{ACAD_REACTORS
330
30
102
}
102
{ACAD_XDICTIONARY
360
750
102
}
330
30
100
AcDbVisualStyle
  2
Conceptual
 70
     9
 71
     3
 72
     2
 73
     0
 90
        0
 40
0.6
 41
30.0
 62
     5
 63
     7
 74
     2
 91
        2
 64
     7
 65
   257
 75
     1
175
     1
 42
40.0
 92
        8
 66
     7
 43
1.0
 76
     1
 77
     6
 78
     2
 67
     7
 79
     3
170
     0
171
     0
290
     0
174
     0
 93
        1
 44
0.0
173
     0
291
     0
 45
0.0
1001
ACAD
1000
AcDbSavedByObjectVersion
1070
     0
  0
VISUALSTYLE
  5
62D
102
{ACAD_REACTORS
330
30
102
}
102
{ACAD_XDICTIONARY
360
752
102
}
330
30
100
AcDbVisualStyle
  2
Dim
 70
    11
 71
     2
 72
     2
 73
     0
 90
        0
 40
0.6
 41
30.0
 62
     5
 63
     7
 74
     1
 91
        4
 64
     7
 65
   257
 75
     1
175
     1
 42
1.0
 92
        8
 66
     7
 43
1.0
 76
     1
 77
     6
 78
     2
 67
     7
 79
     5
170
     0
171
     0
290
     0
174
     0
 93
        1
 44
-50.0
173
     0
291
     1
 45
0.0
1001
ACAD
1000
AcDbSavedByObjectVersion
1070
     0
  0
VISUALSTYLE
  5
635
102
{ACAD_REACTORS
330
30
102
}
102
{ACAD_XDICTIONARY
360
762
102
}
330
30
100
AcDbVisualStyle
  2
EdgeColorOff
 70
    22
 71
     2
 72
     2
 73
     0
 90
        0
 40
0.6
 41
30.0
 62
     5
 63
     7
 74
     1
 91
        4
 64
     7
 65
   257
 75
     1
175
     1
 42
1.0
 92
        8
 66
     7
 43
1.0
 76
     1
 77
     6
 78
     2
 67
     7
 79
     5
170
     0
171
     0
290
     0
174
     0
 93
        1
 44
0.0
173
     0
291
     1
 45
0.0
1001
ACAD
1000
AcDbSavedByObjectVersion
1070
     0
  0
VISUALSTYLE
  5
631
102
{ACAD_REACTORS
330
30
102
}
102
{ACAD_XDICTIONARY
360
75A
102
}
330
30
100
AcDbVisualStyle
  2
Facepattern
 70
    15
 71
     2
 72
     2
 73
     0
 90
        0
 40
0.6
 41
30.0
 62
     5
 63
     7
 74
     1
 91
        4
 64
     7
 65
   257
 75
     1
175
     1
 42
1.0
 92
        8
 66
     7
 43
1.0
 76
     1
 77
     6
 78
     2
 67
     7
 79
     5
170
     0
171
     0
290
     0
174
     0
 93
        1
 44
0.0
173
     0
291
     1
 45
0.0
1001
ACAD
1000
AcDbSavedByObjectVersion
1070
     0
  0
VISUALSTYLE
  5
623
102
{ACAD_REACTORS
330
30
102
}
102
{ACAD_XDICTIONARY
360
73E
102
}
330
30
100
AcDbVisualStyle
  2
Flat
 70
     0
 71
     2
 72
     1
 73
     1
 90
        2
 40
0.6
 41
30.0
 62
     5
 63
     7
 74
     0
 91
        4
 64
     7
 65
   257
 75
     1
175
     1
 42
1.0
 92
        8
 66
     7
 43
1.0
 76
     1
 77
     6
 78
     2
 67
     7
 79
     5
170
     0
171
     0
290
     0
174
     0
 93
       13
 44
0.0
173
     0
291
     1
 45
0.0
1001
ACAD
1000
AcDbSavedByObjectVersion
1070
     0
  0
VISUALSTYLE
  5
624
102
{ACAD_REACTORS
330
30
102
}
102
{ACAD_XDICTIONARY
360
740
102
}
330
30
100
AcDbVisualStyle
  2
FlatWithEdges
 70
     1
 71
     2
 72
     1
 73
     1
 90
        2
 40
0.6
 41
30.0
 62
     5
 63
     7
 74
     1
 91
        4
 64
     7
 65
   257
 75
     1
175
     1
 42
1.0
 92
        0
 66
   257
 43
1.0
 76
     1
 77
     6
 78
     2
 67
     7
 79
     5
170
     0
171
     0
290
     0
174
     0
 93
       13
 44
0.0
173
     0
291
     1
 45
0.0
1001
ACAD
1000
AcDbSavedByObjectVersion
1070
     0
  0
VISUALSTYLE
  5
625
102
{ACAD_REACTORS
330
30
102
}
102
{ACAD_XDICTIONARY
360
742
102
}
330
30
100
AcDbVisualStyle
  2
Gouraud
 70
     2
 71
     2
 72
     2
 73
     1
 90
        2
 40
0.6
 41
30.0
 62
     5
 63
     7
 74
     0
 91
        4
 64
     7
 65
   257
 75
     1
175
     1
 42
1.0
 92
        0
 66
     7
 43
1.0
 76
     1
 77
     6
 78
     2
 67
     7
 79
     5
170
     0
171
     0
290
     0
174
     0
 93
       13
 44
0.0
173
     0
291
     1
 45
0.0
1001
ACAD
1000
AcDbSavedByObjectVersion
1070
     0
  0
VISUALSTYLE
  5
626
102
{ACAD_REACTORS
330
30
102
}
102
{ACAD_XDICTIONARY
360
744
102
}
330
30
100
AcDbVisualStyle
  2
GouraudWithEdges
 70
     3
 71
     2
 72
     2
 73
     1
 90
        2
 40
0.6
 41
30.0
 62
     5
 63
     7
 74
     1
 91
        4
 64
     7
 65
   257
 75
     1
175
     1
 42
1.0
 92
        0
 66
   257
 43
1.0
 76
     1
 77
     6
 78
     2
 67
     7
 79
     5
170
     0
171
     0
290
     0
174
     0
 93
       13
 44
0.0
173
     0
291
     1
 45
0.0
1001
ACAD
1000
AcDbSavedByObjectVersion
1070
     0
  0
VISUALSTYLE
  5
629
102
{ACAD_REACTORS
330
30
102
}
102
{ACAD_XDICTIONARY
360
74A
102
}
330
30
100
AcDbVisualStyle
  2
Hidden
 70
     6
 71
     1
 72
     2
 73
     2
 90
        0
 40
0.6
 41
30.0
 62
     5
 63
     7
 74
     2
 91
        2
 64
     7
 65
   257
 75
     2
175
     1
 42
40.0
 92
        0
 66
   257
 43
1.0
 76
     1
 77
     6
 78
     2
 67
     7
 79
     3
170
     0
171
     0
290
     0
174
     0
 93
        1
 44
0.0
173
     0
291
     0
 45
0.0
1001
ACAD
1000
AcDbSavedByObjectVersion
1070
     0
  0
VISUALSTYLE
  5
633
102
{ACAD_REACTORS
330
30
102
}
102
{ACAD_XDICTIONARY
360
75E
102
}
330
30
100
AcDbVisualStyle
  2
JitterOff
 70
    20
 71
     2
 72
     2
 73
     0
 90
        0
 40
0.6
 41
30.0
 62
     5
 63
     7
 74
     1
 91
        4
 64
     7
 65
   257
 75
     1
175
     1
 42
1.0
 92
       10
 66
     7
 43
1.0
 76
     1
 77
     6
 78
     2
 67
     7
 79
     5
170
     0
171
     0
290
     0
174
     0
 93
        1
 44
0.0
173
     0
291
     1
 45
0.0
1001
ACAD
1000
AcDbSavedByObjectVersion
1070
     0
  0
VISUALSTYLE
  5
630
102
{ACAD_REACTORS
330
30
102
}
102
{ACAD_XDICTIONARY
360
758
102
}
330
30
100
AcDbVisualStyle
  2
Linepattern
 70
    14
 71
     2
 72
     2
 73
     0
 90
        0
 40
0.6
 41
30.0
 62
     5
 63
     7
 74
     1
 91
        4
 64
     7
 65
   257
 75
     7
175
     7
 42
1.0
 92
        8
 66
     7
 43
1.0
 76
     1
 77
     6
 78
     2
 67
     7
 79
     5
170
     0
171
     0
290
     0
174
     0
 93
        1
 44
0.0
173
     0
291
     1
 45
0.0
1001
ACAD
1000
AcDbSavedByObjectVersion
1070
     0
  0
VISUALSTYLE
  5
634
102
{ACAD_REACTORS
330
30
102
}
102
{ACAD_XDICTIONARY
360
760
102
}
330
30
100
AcDbVisualStyle
  2
OverhangOff
 70
    21
 71
     2
 72
     2
 73
     0
 90
        0
 40
0.6
 41
30.0
 62
     5
 63
     7
 74
     1
 91
        4
 64
     7
 65
   257
 75
     1
175
     1
 42
1.0
 92
        9
 66
     7
 43
1.0
 76
     1
 77
     6
 78
     2
 67
     7
 79
     5
170
     0
171
     0
290
     0
174
     0
 93
        1
 44
0.0
173
     0
291
     1
 45
0.0
1001
ACAD
1000
AcDbSavedByObjectVersion
1070
     0
  0
VISUALSTYLE
  5
62B
102
{ACAD_REACTORS
330
30
102
}
102
{ACAD_XDICTIONARY
360
74E
102
}
330
30
100
AcDbVisualStyle
  2
Realistic
 70
     8
 71
     2
 72
     3
 73
     0
 90
        2
 40
0.6
 41
30.0
 62
     5
 63
     7
 74
     0
 91
        0
 64
     7
 65
   257
 75
     1
175
     1
 42
1.0
 92
        8
 66
   257
 43
1.0
 76
     1
 77
     6
 78
     2
 67
     7
 79
     3
170
     0
171
     0
290
     0
174
     0
 93
       13
 44
0.0
173
     0
291
     0
 45
0.0
1001
ACAD
1000
AcDbSavedByObjectVersion
1070
     0
  0
VISUALSTYLE
  5
63A
102
{ACAD_REACTORS
330
30
102
}
102
{ACAD_XDICTIONARY
360
76C
102
}
330
30
100
AcDbVisualStyle
  2
Shaded
 70
    27
 71
     2
 72
     2
 73
     1
 90
        2
 40
0.6
 41
30.0
 62
     5
 63
     7
 74
     0
 91
        4
 64
     7
 65
   257
 75
     1
175
     1
 42
1.0
 92
        8
 66
   257
 43
1.0
 76
     1
 77
     6
 78
     2
 67
   251
 79
     3
170
     0
171
     0
290
     0
174
     0
 93
        5
 44
0.0
173
     0
291
     0
 45
0.0
1001
ACAD
1000
AcDbSavedByObjectVersion
1070
     0
  0
VISUALSTYLE
  5
639
102
{ACAD_REACTORS
330
30
102
}
102
{ACAD_XDICTIONARY
360
76A
102
}
330
30
100
AcDbVisualStyle
  2
Shaded with edges
 70
    26
 71
     2
 72
     2
 73
     1
 90
        2
 40
0.6
 41
30.0
 62
     5
 63
     7
 74
     1
 91
       10
 64
     7
 65
   257
 75
     2
175
     1
 42
1.0
 92
        8
 66
   257
 43
1.0
 76
     1
 77
     6
 78
     2
 67
     7
 79
     3
170
     0
171
     0
290
     0
174
     0
 93
        5
 44
0.0
173
     0
291
     0
 45
0.0
1001
ACAD
1000
AcDbSavedByObjectVersion
1070
     0
  0
VISUALSTYLE
  5
636
102
{ACAD_REACTORS
330
30
102
}
102
{ACAD_XDICTIONARY
360
764
102
}
330
30
100
AcDbVisualStyle
  2
Shades of Gray
 70
    23
 71
     2
 72
     2
 73
     3
 90
        0
 40
0.6
 41
30.0
 62
     5
 63
     7
 74
     2
 91
        2
 64
     7
 65
     7
 75
     1
175
     1
 42
40.0
 92
        8
 66
     7
 43
1.0
 76
     1
 77
     6
 78
     2
 67
     7
 79
     3
170
     0
171
     0
290
     0
174
     0
 93
        1
 44
0.0
173
     0
291
     0
 45
0.0
1001
ACAD
1000
AcDbSavedByObjectVersion
1070
     0
  0
VISUALSTYLE
  5
637
102
{ACAD_REACTORS
330
30
102
}
102
{ACAD_XDICTIONARY
360
766
102
}
330
30
100
AcDbVisualStyle
  2
Sketchy
 70
    24
 71
     1
 72
     2
 73
     2
 90
        0
 40
0.6
 41
30.0
 62
     5
 63
     7
 74
     2
 91
        2
 64
     7
 65
     7
 75
     1
175
     1
 42
40.0
 92
       11
 66
     7
 43
1.0
 76
     1
 77
     6
 78
     2
 67
     7
 79
     6
170
     0
171
     0
290
     0
174
     0
 93
        1
 44
0.0
173
     0
291
     0
 45
0.0
1001
ACAD
1000
AcDbSavedByObjectVersion
1070
     0
  0
VISUALSTYLE
  5
62F
102
{ACAD_REACTORS
330
30
102
}
102
{ACAD_XDICTIONARY
360
756
102
}
330
30
100
AcDbVisualStyle
  2
Thicken
 70
    13
 71
     2
 72
     2
 73
     0
 90
        0
 40
0.6
 41
30.0
 62
     5
 63
     7
 74
     1
 91
        4
 64
     7
 65
   257
 75
     1
175
     1
 42
1.0
 92
       12
 66
     7
 43
1.0
 76
     1
 77
     6
 78
     2
 67
     7
 79
     5
170
     0
171
     0
290
     0
174
     0
 93
        1
 44
0.0
173
     0
291
     1
 45
0.0
1001
ACAD
1000
AcDbSavedByObjectVersion
1070
     0
  0
VISUALSTYLE
  5
628
102
{ACAD_REACTORS
330
30
102
}
102
{ACAD_XDICTIONARY
360
748
102
}
330
30
100
AcDbVisualStyle
  2
Wireframe
 70
     5
 71
     0
 72
     2
 73
     0
 90
        0
 40
0.6
 41
30.0
 62
     5
 63
     7
 74
     1
 91
        4
 64
     7
 65
   257
 75
     1
175
     1
 42
1.0
 92
        0
 66
   257
 43
1.0
 76
     1
 77
     6
 78
     2
 67
     7
 79
     5
170
     0
171
     0
290
     0
174
     0
 93
        1
 44
0.0
173
     0
291
     0
 45
0.0
1001
ACAD
1000
AcDbSavedByObjectVersion
1070
     0
  0
VISUALSTYLE
  5
638
102
{ACAD_REACTORS
330
30
102
}
102
{ACAD_XDICTIONARY
360
768
102
}
330
30
100
AcDbVisualStyle
  2
X-Ray
 70
    25
 71
     2
 72
     2
 73
     1
 90
        1
 40
0.5
 41
30.0
 62
     5
 63
     7
 74
     1
 91
        0
 64
     7
 65
   257
 75
     1
175
     1
 42
1.0
 92
        8
 66
     7
 43
1.0
 76
     1
 77
     6
 78
     2
 67
     7
 79
     3
170
     0
171
     0
290
     0
174
     0
 93
       13
 44
0.0
173
     0
291
     0
 45
0.0
1001
ACAD
1000
AcDbSavedByObjectVersion
1070
     0
  0
XRECORD
  5
732
102
{ACAD_REACTORS
330
731
102
}
330
731
100
AcDbXrecord
280
     1
340
2F
  0
XRECORD
  5
733
102
{ACAD_REACTORS
330
731
102
}
330
731
100
AcDbXrecord
280
     1
340
B
  0
DICTIONARYVAR
  5
61E
102
{ACAD_REACTORS
330
61D
102
}
330
61D
100
DictionaryVariables
280
     0
  1
1:1
  0
DICTIONARYVAR
  5
669
102
{ACAD_REACTORS
330
61D
102
}
330
61D
100
DictionaryVariables
280
     0
  1
Standard
  0
DICTIONARYVAR
  5
66B
102
{ACAD_REACTORS
330
61D
102
}
330
61D
100
DictionaryVariables
280
     0
  1
Standard
  0
DICTIONARYVAR
  5
72E
102
{ACAD_REACTORS
330
61D
102
}
330
61D
100
DictionaryVariables
280
     0
  1
0
  0
DICTIONARYVAR
  5
72F
102
{ACAD_REACTORS
330
61D
102
}
330
61D
100
DictionaryVariables
280
     0
  1
0
  0
DICTIONARYVAR
  5
737
102
{ACAD_REACTORS
330
61D
102
}
330
61D
100
DictionaryVariables
280
     0
  1
1
  0
DICTIONARYVAR
  5
730
102
{ACAD_REACTORS
330
61D
102
}
330
61D
100
DictionaryVariables
280
     0
  1
0
  0
DICTIONARY
  5
73C
330
67
100
AcDbDictionary
280
     1
281
     1
  3
ACAD_XREC_ROUNDTRIP
360
73D
  0
DICTIONARY
  5
738
330
14
100
AcDbDictionary
280
     1
281
     1
  3
ACAD_XREC_ROUNDTRIP
360
739
  0
DICTIONARY
  5
73A
330
A
100
AcDbDictionary
280
     1
281
     1
  3
ACAD_XREC_ROUNDTRIP
360
73B
  0
DICTIONARY
  5
76E
330
63B
100
AcDbDictionary
280
     1
281
     1
  3
ACAD_XREC_ROUNDTRIP
360
76F
  0
DICTIONARY
  5
746
330
627
100
AcDbDictionary
280
     1
281
     1
  3
ACAD_XREC_ROUNDTRIP
360
747
  0
DICTIONARY
  5
74C
330
62A
100
AcDbDictionary
280
     1
281
     1
  3
ACAD_XREC_ROUNDTRIP
360
74D
  0
DICTIONARY
  5
754
330
62E
100
AcDbDictionary
280
     1
281
     1
  3
ACAD_XREC_ROUNDTRIP
360
755
  0
DICTIONARY
  5
75C
330
632
100
AcDbDictionary
280
     1
281
     1
  3
ACAD_XREC_ROUNDTRIP
360
75D
  0
DICTIONARY
  5
750
330
62C
100
AcDbDictionary
280
     1
281
     1
  3
ACAD_XREC_ROUNDTRIP
360
751
  0
DICTIONARY
  5
752
330
62D
100
AcDbDictionary
280
     1
281
     1
  3
ACAD_XREC_ROUNDTRIP
360
753
  0
DICTIONARY
  5
762
330
635
100
AcDbDictionary
280
     1
281
     1
  3
ACAD_XREC_ROUNDTRIP
360
763
  0
DICTIONARY
  5
75A
330
631
100
AcDbDictionary
280
     1
281
     1
  3
ACAD_XREC_ROUNDTRIP
360
75B
  0
DICTIONARY
  5
73E
330
623
100
AcDbDictionary
280
     1
281
     1
  3
ACAD_XREC_ROUNDTRIP
360
73F
  0
DICTIONARY
  5
740
330
624
100
AcDbDictionary
280
     1
281
     1
  3
ACAD_XREC_ROUNDTRIP
360
741
  0
DICTIONARY
  5
742
330
625
100
AcDbDictionary
280
     1
281
     1
  3
ACAD_XREC_ROUNDTRIP
360
743
  0
DICTIONARY
  5
744
330
626
100
AcDbDictionary
280
     1
281
     1
  3
ACAD_XREC_ROUNDTRIP
360
745
  0
DICTIONARY
  5
74A
330
629
100
AcDbDictionary
280
     1
281
     1
  3
ACAD_XREC_ROUNDTRIP
360
74B
  0
DICTIONARY
  5
75E
330
633
100
AcDbDictionary
280
     1
281
     1
  3
ACAD_XREC_ROUNDTRIP
360
75F
  0
DICTIONARY
  5
758
330
630
100
AcDbDictionary
280
     1
281
     1
  3
ACAD_XREC_ROUNDTRIP
360
759
  0
DICTIONARY
  5
760
330
634
100
AcDbDictionary
280
     1
281
     1
  3
ACAD_XREC_ROUNDTRIP
360
761
  0
DICTIONARY
  5
74E
330
62B
100
AcDbDictionary
280
     1
281
     1
  3
ACAD_XREC_ROUNDTRIP
360
74F
  0
DICTIONARY
  5
76C
330
63A
100
AcDbDictionary
280
     1
281
     1
  3
ACAD_XREC_ROUNDTRIP
360
76D
  0
DICTIONARY
  5
76A
330
639
100
AcDbDictionary
280
     1
281
     1
  3
ACAD_XREC_ROUNDTRIP
360
76B
  0
DICTIONARY
  5
764
330
636
100
AcDbDictionary
280
     1
281
     1
  3
ACAD_XREC_ROUNDTRIP
360
765
  0
DICTIONARY
  5
766
330
637
100
AcDbDictionary
280
     1
281
     1
  3
ACAD_XREC_ROUNDTRIP
360
767
  0
DICTIONARY
  5
756
330
62F
100
AcDbDictionary
280
     1
281
     1
  3
ACAD_XREC_ROUNDTRIP
360
757
  0
DICTIONARY
  5
748
330
628
100
AcDbDictionary
280
     1
281
     1
  3
ACAD_XREC_ROUNDTRIP
360
749
  0
DICTIONARY
  5
768
330
638
100
AcDbDictionary
280
     1
281
     1
  3
ACAD_XREC_ROUNDTRIP
360
769
  0
XRECORD
  5
73D
102
{ACAD_REACTORS
330
73C
102
}
330
73C
100
AcDbXrecord
280
     1
102
MATERIAL
148
0.0
149
0.0
149
0.0
 93
        0
 94
      127
282
     0
 72
     0
 77
     0
171
     0
175
     0
179
     0
273
     0
  0
XRECORD
  5
739
102
{ACAD_REACTORS
330
738
102
}
330
738
100
AcDbXrecord
280
     1
102
MATERIAL
148
0.0
149
0.0
149
0.0
 93
        0
 94
      127
282
     0
 72
     0
 77
     0
171
     0
175
     0
179
     0
273
     0
  0
XRECORD
  5
73B
102
{ACAD_REACTORS
330
73A
102
}
330
73A
100
AcDbXrecord
280
     1
102
MATERIAL
148
0.0
149
0.0
149
0.0
 93
        0
 94
      127
282
     0
 72
     0
 77
     0
171
     0
175
     0
179
     0
273
     0
  0
XRECORD
  5
76F
102
{ACAD_REACTORS
330
76E
102
}
330
76E
100
AcDbXrecord
280
     1
102
ACAD_ROUNDTRIP_2010_MLEADER_STYLE
  0
XRECORD
  5
747
102
{ACAD_REACTORS
330
746
102
}
330
746
100
AcDbXrecord
280
     1
102
RTVSPropertyOp0
 70
     1
102
RTVSPropertyOp1
 70
     1
102
RTVSPropertyOp2
 70
     1
102
RTVSPropertyOp3
 70
     1
102
RTVSPropertyOp4
 70
     1
102
RTVSPropertyOp5
 70
     1
102
RTVSPropertyOp6
 70
     1
102
RTVSPropertyOp7
 70
     1
102
RTVSPropertyOp8
 70
     1
102
RTVSPropertyOp9
 70
     1
102
RTVSPropertyOp10
 70
     1
102
RTVSPropertyOp11
 70
     1
102
RTVSPropertyOp12
 70
     1
102
RTVSPropertyOp13
 70
     1
102
RTVSPropertyOp14
 70
     1
102
RTVSPropertyOp15
 70
     1
102
RTVSPropertyOp16
 70
     1
102
RTVSPropertyOp17
 70
     1
102
RTVSPropertyOp18
 70
     1
102
RTVSPropertyOp19
 70
     1
102
RTVSPropertyOp20
 70
     1
102
RTVSPropertyOp21
 70
     1
102
RTVSPropertyOp22
 70
     1
102
RTVSPropertyOp23
 70
     1
102
RTVSPropertyOp24
 70
     1
102
RTVSPropertyOp25
 70
     1
102
RTVSPropertyOp26
 70
     1
102
RTVSPropertyOp27
 70
     1
102
RTVSPropertyOp28
 70
     1
102
RTVSPropertyOp29
 70
     1
102
RTVSPropertyOp30
 70
     1
102
RTVSPropertyOp31
 70
     1
102
RTVSPropertyOp32
 70
     1
102
RTVSPropertyOp33
 70
     1
102
RTVSPropertyOp34
 70
     1
102
RTVSPropertyOp35
 70
     1
102
RTVSPropertyOp36
 70
     1
102
RTVSPropertyOp37
 70
     1
102
RTVSPropertyOp38
 70
     1
102
RTVSPropertyOp39
 70
     1
102
RTVSPropertyOp40
 70
     1
102
RTVSPropertyOp41
 70
     1
102
RTVSPropertyOp42
 70
     1
102
RTVSPropertyOp43
 70
     1
102
RTVSPropertyOp44
 70
     1
102
RTVSPropertyOp45
 70
     1
102
RTVSPropertyOp46
 70
     1
102
RTVSPropertyOp47
 70
     1
102
RTVSPropertyOp48
 70
     1
102
RTVSPropertyOp49
 70
     1
102
RTVSPropertyOp50
 70
     1
102
RTVSPropertyOp51
 70
     0
102
RTVSPropertyOp52
 70
     0
102
RTVSPropertyOp53
 70
     1
102
RTVSPropertyOp54
 70
     1
102
RTVSPropertyOp55
 70
     1
102
RTVSPropertyOp56
 70
     1
102
RTVSPropertyOp57
 70
     1
102
RTVSPost2010Prop28
280
     1
102
RTVSPost2010PropOp28
 70
     1
102
RTVSPost2010Prop29
280
     1
102
RTVSPost2010PropOp29
 70
     1
102
RTVSPost2010Prop30
280
     0
102
RTVSPost2010PropOp30
 70
     1
102
RTVSPost2010Prop31
280
     0
102
RTVSPost2010PropOp31
 70
     1
102
RTVSPost2010Prop32
280
     0
102
RTVSPost2010PropOp32
 70
     1
102
RTVSPost2010Prop33
280
     0
102
RTVSPost2010PropOp33
 70
     1
102
RTVSPost2010Prop34
280
     0
102
RTVSPost2010PropOp34
 70
     1
102
RTVSPost2010Prop35
280
     0
102
RTVSPost2010PropOp35
 70
     1
102
RTVSPost2010Prop36
280
     0
102
RTVSPost2010PropOp36
 70
     1
102
RTVSPost2010Prop37
 90
       50
102
RTVSPost2010PropOp37
 70
     1
102
RTVSPost2010Prop38
140
0.0
102
RTVSPost2010PropOp38
 70
     1
102
RTVSPost2010Prop39
140
1.0
102
RTVSPost2010PropOp39
 70
     1
102
RTVSPost2010Prop40
 90
        0
102
RTVSPost2010PropOp40
 70
     1
102
RTVSPost2010Prop41ColorIndex
 90
       18
102
RTVSPost2010Prop41ColorRGB
 90
        0
102
RTVSPost2010PropOp41
 70
     1
102
RTVSPost2010Prop42
 90
       50
102
RTVSPost2010PropOp42
 70
     1
102
RTVSPost2010Prop43
 90
        3
102
RTVSPost2010PropOp43
 70
     1
102
RTVSPost2010Prop44ColorIndex
 90
        5
102
RTVSPost2010Prop44ColorRGB
 90
      255
102
RTVSPost2010PropOp44
 70
     1
102
RTVSPost2010Prop45
280
     0
102
RTVSPost2010PropOp45
 70
     1
102
RTVSPost2010Prop46
 90
       50
102
RTVSPost2010PropOp46
 70
     1
102
RTVSPost2010Prop47
 90
       50
102
RTVSPost2010PropOp47
 70
     1
102
RTVSPost2010Prop48
 90
       50
102
RTVSPost2010PropOp48
 70
     1
102
RTVSPost2010Prop49
280
     0
102
RTVSPost2010PropOp49
 70
     1
102
RTVSPost2010Prop50
 90
       50
102
RTVSPost2010PropOp50
 70
     1
102
RTVSPost2010Prop51ColorIndex
 90
      256
102
RTVSPost2010Prop51ColorRGB
 90
-16777216
102
RTVSPost2010PropOp51
 70
     0
102
RTVSPost2010Prop52
140
1.0
102
RTVSPost2010PropOp52
 70
     0
102
RTVSPost2010Prop53
 90
        2
102
RTVSPost2010PropOp53
 70
     1
102
RTVSPost2010Prop54
  1
strokes_ogs.tif
102
RTVSPost2010PropOp54
 70
     1
102
RTVSPost2010Prop55
280
     0
102
RTVSPost2010PropOp55
 70
     1
102
RTVSPost2010Prop56
140
1.0
102
RTVSPost2010PropOp56
 70
     1
102
RTVSPost2010Prop57
140
1.0
102
RTVSPost2010PropOp57
 70
     1
  0
XRECORD
  5
74D
102
{ACAD_REACTORS
330
74C
102
}
330
74C
100
AcDbXrecord
280
     1
102
RTVSPropertyOp0
 70
     1
102
RTVSPropertyOp1
 70
     1
102
RTVSPropertyOp2
 70
     1
102
RTVSPropertyOp3
 70
     1
102
RTVSPropertyOp4
 70
     1
102
RTVSPropertyOp5
 70
     1
102
RTVSPropertyOp6
 70
     1
102
RTVSPropertyOp7
 70
     1
102
RTVSPropertyOp8
 70
     1
102
RTVSPropertyOp9
 70
     1
102
RTVSPropertyOp10
 70
     1
102
RTVSPropertyOp11
 70
     1
102
RTVSPropertyOp12
 70
     1
102
RTVSPropertyOp13
 70
     1
102
RTVSPropertyOp14
 70
     1
102
RTVSPropertyOp15
 70
     1
102
RTVSPropertyOp16
 70
     1
102
RTVSPropertyOp17
 70
     1
102
RTVSPropertyOp18
 70
     1
102
RTVSPropertyOp19
 70
     1
102
RTVSPropertyOp20
 70
     1
102
RTVSPropertyOp21
 70
     1
102
RTVSPropertyOp22
 70
     1
102
RTVSPropertyOp23
 70
     1
102
RTVSPropertyOp24
 70
     1
102
RTVSPropertyOp25
 70
     1
102
RTVSPropertyOp26
 70
     1
102
RTVSPropertyOp27
 70
     1
102
RTVSPropertyOp28
 70
     1
102
RTVSPropertyOp29
 70
     1
102
RTVSPropertyOp30
 70
     1
102
RTVSPropertyOp31
 70
     1
102
RTVSPropertyOp32
 70
     1
102
RTVSPropertyOp33
 70
     1
102
RTVSPropertyOp34
 70
     1
102
RTVSPropertyOp35
 70
     1
102
RTVSPropertyOp36
 70
     1
102
RTVSPropertyOp37
 70
     1
102
RTVSPropertyOp38
 70
     1
102
RTVSPropertyOp39
 70
     1
102
RTVSPropertyOp40
 70
     1
102
RTVSPropertyOp41
 70
     1
102
RTVSPropertyOp42
 70
     1
102
RTVSPropertyOp43
 70
     1
102
RTVSPropertyOp44
 70
     1
102
RTVSPropertyOp45
 70
     1
102
RTVSPropertyOp46
 70
     1
102
RTVSPropertyOp47
 70
     1
102
RTVSPropertyOp48
 70
     1
102
RTVSPropertyOp49
 70
     1
102
RTVSPropertyOp50
 70
     1
102
RTVSPropertyOp51
 70
     0
102
RTVSPropertyOp52
 70
     0
102
RTVSPropertyOp53
 70
     1
102
RTVSPropertyOp54
 70
     1
102
RTVSPropertyOp55
 70
     1
102
RTVSPropertyOp56
 70
     1
102
RTVSPropertyOp57
 70
     1
102
RTVSPost2010Prop28
280
     0
102
RTVSPost2010PropOp28
 70
     1
102
RTVSPost2010Prop29
280
     1
102
RTVSPost2010PropOp29
 70
     1
102
RTVSPost2010Prop30
280
     1
102
RTVSPost2010PropOp30
 70
     1
102
RTVSPost2010Prop31
280
     0
102
RTVSPost2010PropOp31
 70
     1
102
RTVSPost2010Prop32
280
     0
102
RTVSPost2010PropOp32
 70
     1
102
RTVSPost2010Prop33
280
     0
102
RTVSPost2010PropOp33
 70
     1
102
RTVSPost2010Prop34
280
     0
102
RTVSPost2010PropOp34
 70
     1
102
RTVSPost2010Prop35
280
     0
102
RTVSPost2010PropOp35
 70
     1
102
RTVSPost2010Prop36
280
     0
102
RTVSPost2010PropOp36
 70
     1
102
RTVSPost2010Prop37
 90
       50
102
RTVSPost2010PropOp37
 70
     1
102
RTVSPost2010Prop38
140
0.0
102
RTVSPost2010PropOp38
 70
     1
102
RTVSPost2010Prop39
140
1.0
102
RTVSPost2010PropOp39
 70
     1
102
RTVSPost2010Prop40
 90
        0
102
RTVSPost2010PropOp40
 70
     1
102
RTVSPost2010Prop41ColorIndex
 90
       18
102
RTVSPost2010Prop41ColorRGB
 90
        0
102
RTVSPost2010PropOp41
 70
     1
102
RTVSPost2010Prop42
 90
       50
102
RTVSPost2010PropOp42
 70
     1
102
RTVSPost2010Prop43
 90
        3
102
RTVSPost2010PropOp43
 70
     1
102
RTVSPost2010Prop44ColorIndex
 90
        5
102
RTVSPost2010Prop44ColorRGB
 90
      255
102
RTVSPost2010PropOp44
 70
     1
102
RTVSPost2010Prop45
280
     0
102
RTVSPost2010PropOp45
 70
     1
102
RTVSPost2010Prop46
 90
       50
102
RTVSPost2010PropOp46
 70
     1
102
RTVSPost2010Prop47
 90
       50
102
RTVSPost2010PropOp47
 70
     1
102
RTVSPost2010Prop48
 90
       50
102
RTVSPost2010PropOp48
 70
     1
102
RTVSPost2010Prop49
280
     0
102
RTVSPost2010PropOp49
 70
     1
102
RTVSPost2010Prop50
 90
       50
102
RTVSPost2010PropOp50
 70
     1
102
RTVSPost2010Prop51ColorIndex
 90
      256
102
RTVSPost2010Prop51ColorRGB
 90
-16777216
102
RTVSPost2010PropOp51
 70
     0
102
RTVSPost2010Prop52
140
1.0
102
RTVSPost2010PropOp52
 70
     0
102
RTVSPost2010Prop53
 90
        2
102
RTVSPost2010PropOp53
 70
     1
102
RTVSPost2010Prop54
  1
strokes_ogs.tif
102
RTVSPost2010PropOp54
 70
     1
102
RTVSPost2010Prop55
280
     0
102
RTVSPost2010PropOp55
 70
     1
102
RTVSPost2010Prop56
140
1.0
102
RTVSPost2010PropOp56
 70
     1
102
RTVSPost2010Prop57
140
1.0
102
RTVSPost2010PropOp57
 70
     1
  0
XRECORD
  5
755
102
{ACAD_REACTORS
330
754
102
}
330
754
100
AcDbXrecord
280
     1
102
RTVSPropertyOp0
 70
     1
102
RTVSPropertyOp1
 70
     1
102
RTVSPropertyOp2
 70
     1
102
RTVSPropertyOp3
 70
     1
102
RTVSPropertyOp4
 70
     1
102
RTVSPropertyOp5
 70
     1
102
RTVSPropertyOp6
 70
     1
102
RTVSPropertyOp7
 70
     1
102
RTVSPropertyOp8
 70
     1
102
RTVSPropertyOp9
 70
     1
102
RTVSPropertyOp10
 70
     1
102
RTVSPropertyOp11
 70
     1
102
RTVSPropertyOp12
 70
     1
102
RTVSPropertyOp13
 70
     1
102
RTVSPropertyOp14
 70
     1
102
RTVSPropertyOp15
 70
     1
102
RTVSPropertyOp16
 70
     1
102
RTVSPropertyOp17
 70
     1
102
RTVSPropertyOp18
 70
     1
102
RTVSPropertyOp19
 70
     1
102
RTVSPropertyOp20
 70
     1
102
RTVSPropertyOp21
 70
     1
102
RTVSPropertyOp22
 70
     1
102
RTVSPropertyOp23
 70
     1
102
RTVSPropertyOp24
 70
     1
102
RTVSPropertyOp25
 70
     1
102
RTVSPropertyOp26
 70
     1
102
RTVSPropertyOp27
 70
     1
102
RTVSPropertyOp28
 70
     1
102
RTVSPropertyOp29
 70
     1
102
RTVSPropertyOp30
 70
     1
102
RTVSPropertyOp31
 70
     1
102
RTVSPropertyOp32
 70
     1
102
RTVSPropertyOp33
 70
     1
102
RTVSPropertyOp34
 70
     1
102
RTVSPropertyOp35
 70
     1
102
RTVSPropertyOp36
 70
     1
102
RTVSPropertyOp37
 70
     1
102
RTVSPropertyOp38
 70
     1
102
RTVSPropertyOp39
 70
     1
102
RTVSPropertyOp40
 70
     1
102
RTVSPropertyOp41
 70
     1
102
RTVSPropertyOp42
 70
     1
102
RTVSPropertyOp43
 70
     1
102
RTVSPropertyOp44
 70
     1
102
RTVSPropertyOp45
 70
     1
102
RTVSPropertyOp46
 70
     1
102
RTVSPropertyOp47
 70
     1
102
RTVSPropertyOp48
 70
     1
102
RTVSPropertyOp49
 70
     1
102
RTVSPropertyOp50
 70
     1
102
RTVSPropertyOp51
 70
     0
102
RTVSPropertyOp52
 70
     0
102
RTVSPropertyOp53
 70
     1
102
RTVSPropertyOp54
 70
     1
102
RTVSPropertyOp55
 70
     1
102
RTVSPropertyOp56
 70
     1
102
RTVSPropertyOp57
 70
     1
102
RTVSPost2010Prop28
280
     0
102
RTVSPost2010PropOp28
 70
     1
102
RTVSPost2010Prop29
280
     1
102
RTVSPost2010PropOp29
 70
     1
102
RTVSPost2010Prop30
280
     1
102
RTVSPost2010PropOp30
 70
     1
102
RTVSPost2010Prop31
280
     0
102
RTVSPost2010PropOp31
 70
     1
102
RTVSPost2010Prop32
280
     0
102
RTVSPost2010PropOp32
 70
     1
102
RTVSPost2010Prop33
280
     0
102
RTVSPost2010PropOp33
 70
     1
102
RTVSPost2010Prop34
280
     0
102
RTVSPost2010PropOp34
 70
     1
102
RTVSPost2010Prop35
280
     0
102
RTVSPost2010PropOp35
 70
     1
102
RTVSPost2010Prop36
280
     0
102
RTVSPost2010PropOp36
 70
     1
102
RTVSPost2010Prop37
 90
       50
102
RTVSPost2010PropOp37
 70
     1
102
RTVSPost2010Prop38
140
0.0
102
RTVSPost2010PropOp38
 70
     1
102
RTVSPost2010Prop39
140
1.0
102
RTVSPost2010PropOp39
 70
     1
102
RTVSPost2010Prop40
 90
        0
102
RTVSPost2010PropOp40
 70
     1
102
RTVSPost2010Prop41ColorIndex
 90
       18
102
RTVSPost2010Prop41ColorRGB
 90
        0
102
RTVSPost2010PropOp41
 70
     1
102
RTVSPost2010Prop42
 90
       50
102
RTVSPost2010PropOp42
 70
     1
102
RTVSPost2010Prop43
 90
        3
102
RTVSPost2010PropOp43
 70
     1
102
RTVSPost2010Prop44ColorIndex
 90
        5
102
RTVSPost2010Prop44ColorRGB
 90
      255
102
RTVSPost2010PropOp44
 70
     1
102
RTVSPost2010Prop45
280
     0
102
RTVSPost2010PropOp45
 70
     1
102
RTVSPost2010Prop46
 90
       50
102
RTVSPost2010PropOp46
 70
     1
102
RTVSPost2010Prop47
 90
       50
102
RTVSPost2010PropOp47
 70
     1
102
RTVSPost2010Prop48
 90
       50
102
RTVSPost2010PropOp48
 70
     1
102
RTVSPost2010Prop49
280
     0
102
RTVSPost2010PropOp49
 70
     1
102
RTVSPost2010Prop50
 90
       50
102
RTVSPost2010PropOp50
 70
     1
102
RTVSPost2010Prop51ColorIndex
 90
      256
102
RTVSPost2010Prop51ColorRGB
 90
-16777216
102
RTVSPost2010PropOp51
 70
     0
102
RTVSPost2010Prop52
140
1.0
102
RTVSPost2010PropOp52
 70
     0
102
RTVSPost2010Prop53
 90
        2
102
RTVSPost2010PropOp53
 70
     1
102
RTVSPost2010Prop54
  1
strokes_ogs.tif
102
RTVSPost2010PropOp54
 70
     1
102
RTVSPost2010Prop55
280
     0
102
RTVSPost2010PropOp55
 70
     1
102
RTVSPost2010Prop56
140
1.0
102
RTVSPost2010PropOp56
 70
     1
102
RTVSPost2010Prop57
140
1.0
102
RTVSPost2010PropOp57
 70
     1
  0
XRECORD
  5
75D
102
{ACAD_REACTORS
330
75C
102
}
330
75C
100
AcDbXrecord
280
     1
102
RTVSPropertyOp0
 70
     1
102
RTVSPropertyOp1
 70
     1
102
RTVSPropertyOp2
 70
     1
102
RTVSPropertyOp3
 70
     1
102
RTVSPropertyOp4
 70
     1
102
RTVSPropertyOp5
 70
     1
102
RTVSPropertyOp6
 70
     1
102
RTVSPropertyOp7
 70
     1
102
RTVSPropertyOp8
 70
     1
102
RTVSPropertyOp9
 70
     1
102
RTVSPropertyOp10
 70
     1
102
RTVSPropertyOp11
 70
     1
102
RTVSPropertyOp12
 70
     1
102
RTVSPropertyOp13
 70
     1
102
RTVSPropertyOp14
 70
     1
102
RTVSPropertyOp15
 70
     1
102
RTVSPropertyOp16
 70
     1
102
RTVSPropertyOp17
 70
     1
102
RTVSPropertyOp18
 70
     1
102
RTVSPropertyOp19
 70
     1
102
RTVSPropertyOp20
 70
     1
102
RTVSPropertyOp21
 70
     1
102
RTVSPropertyOp22
 70
     1
102
RTVSPropertyOp23
 70
     1
102
RTVSPropertyOp24
 70
     1
102
RTVSPropertyOp25
 70
     1
102
RTVSPropertyOp26
 70
     1
102
RTVSPropertyOp27
 70
     1
102
RTVSPropertyOp28
 70
     1
102
RTVSPropertyOp29
 70
     1
102
RTVSPropertyOp30
 70
     1
102
RTVSPropertyOp31
 70
     1
102
RTVSPropertyOp32
 70
     1
102
RTVSPropertyOp33
 70
     1
102
RTVSPropertyOp34
 70
     1
102
RTVSPropertyOp35
 70
     1
102
RTVSPropertyOp36
 70
     1
102
RTVSPropertyOp37
 70
     1
102
RTVSPropertyOp38
 70
     1
102
RTVSPropertyOp39
 70
     1
102
RTVSPropertyOp40
 70
     1
102
RTVSPropertyOp41
 70
     1
102
RTVSPropertyOp42
 70
     1
102
RTVSPropertyOp43
 70
     1
102
RTVSPropertyOp44
 70
     1
102
RTVSPropertyOp45
 70
     1
102
RTVSPropertyOp46
 70
     1
102
RTVSPropertyOp47
 70
     1
102
RTVSPropertyOp48
 70
     1
102
RTVSPropertyOp49
 70
     1
102
RTVSPropertyOp50
 70
     1
102
RTVSPropertyOp51
 70
     0
102
RTVSPropertyOp52
 70
     0
102
RTVSPropertyOp53
 70
     1
102
RTVSPropertyOp54
 70
     1
102
RTVSPropertyOp55
 70
     1
102
RTVSPropertyOp56
 70
     1
102
RTVSPropertyOp57
 70
     1
102
RTVSPost2010Prop28
280
     0
102
RTVSPost2010PropOp28
 70
     1
102
RTVSPost2010Prop29
280
     1
102
RTVSPost2010PropOp29
 70
     1
102
RTVSPost2010Prop30
280
     1
102
RTVSPost2010PropOp30
 70
     1
102
RTVSPost2010Prop31
280
     0
102
RTVSPost2010PropOp31
 70
     1
102
RTVSPost2010Prop32
280
     0
102
RTVSPost2010PropOp32
 70
     1
102
RTVSPost2010Prop33
280
     0
102
RTVSPost2010PropOp33
 70
     1
102
RTVSPost2010Prop34
280
     0
102
RTVSPost2010PropOp34
 70
     1
102
RTVSPost2010Prop35
280
     0
102
RTVSPost2010PropOp35
 70
     1
102
RTVSPost2010Prop36
280
     0
102
RTVSPost2010PropOp36
 70
     1
102
RTVSPost2010Prop37
 90
       50
102
RTVSPost2010PropOp37
 70
     1
102
RTVSPost2010Prop38
140
0.0
102
RTVSPost2010PropOp38
 70
     1
102
RTVSPost2010Prop39
140
1.0
102
RTVSPost2010PropOp39
 70
     1
102
RTVSPost2010Prop40
 90
        0
102
RTVSPost2010PropOp40
 70
     1
102
RTVSPost2010Prop41ColorIndex
 90
       18
102
RTVSPost2010Prop41ColorRGB
 90
        0
102
RTVSPost2010PropOp41
 70
     1
102
RTVSPost2010Prop42
 90
       50
102
RTVSPost2010PropOp42
 70
     1
102
RTVSPost2010Prop43
 90
        3
102
RTVSPost2010PropOp43
 70
     1
102
RTVSPost2010Prop44ColorIndex
 90
        5
102
RTVSPost2010Prop44ColorRGB
 90
      255
102
RTVSPost2010PropOp44
 70
     1
102
RTVSPost2010Prop45
280
     0
102
RTVSPost2010PropOp45
 70
     1
102
RTVSPost2010Prop46
 90
       50
102
RTVSPost2010PropOp46
 70
     1
102
RTVSPost2010Prop47
 90
       50
102
RTVSPost2010PropOp47
 70
     1
102
RTVSPost2010Prop48
 90
       50
102
RTVSPost2010PropOp48
 70
     1
102
RTVSPost2010Prop49
280
     0
102
RTVSPost2010PropOp49
 70
     1
102
RTVSPost2010Prop50
 90
       50
102
RTVSPost2010PropOp50
 70
     1
102
RTVSPost2010Prop51ColorIndex
 90
      256
102
RTVSPost2010Prop51ColorRGB
 90
-16777216
102
RTVSPost2010PropOp51
 70
     0
102
RTVSPost2010Prop52
140
1.0
102
RTVSPost2010PropOp52
 70
     0
102
RTVSPost2010Prop53
 90
        2
102
RTVSPost2010PropOp53
 70
     1
102
RTVSPost2010Prop54
  1
strokes_ogs.tif
102
RTVSPost2010PropOp54
 70
     1
102
RTVSPost2010Prop55
280
     0
102
RTVSPost2010PropOp55
 70
     1
102
RTVSPost2010Prop56
140
1.0
102
RTVSPost2010PropOp56
 70
     1
102
RTVSPost2010Prop57
140
1.0
102
RTVSPost2010PropOp57
 70
     1
  0
XRECORD
  5
751
102
{ACAD_REACTORS
330
750
102
}
330
750
100
AcDbXrecord
280
     1
102
RTVSPropertyOp0
 70
     1
102
RTVSPropertyOp1
 70
     1
102
RTVSPropertyOp2
 70
     1
102
RTVSPropertyOp3
 70
     1
102
RTVSPropertyOp4
 70
     1
102
RTVSPropertyOp5
 70
     1
102
RTVSPropertyOp6
 70
     1
102
RTVSPropertyOp7
 70
     1
102
RTVSPropertyOp8
 70
     1
102
RTVSPropertyOp9
 70
     1
102
RTVSPropertyOp10
 70
     1
102
RTVSPropertyOp11
 70
     1
102
RTVSPropertyOp12
 70
     1
102
RTVSPropertyOp13
 70
     1
102
RTVSPropertyOp14
 70
     1
102
RTVSPropertyOp15
 70
     1
102
RTVSPropertyOp16
 70
     1
102
RTVSPropertyOp17
 70
     1
102
RTVSPropertyOp18
 70
     1
102
RTVSPropertyOp19
 70
     1
102
RTVSPropertyOp20
 70
     1
102
RTVSPropertyOp21
 70
     1
102
RTVSPropertyOp22
 70
     1
102
RTVSPropertyOp23
 70
     1
102
RTVSPropertyOp24
 70
     1
102
RTVSPropertyOp25
 70
     1
102
RTVSPropertyOp26
 70
     1
102
RTVSPropertyOp27
 70
     1
102
RTVSPropertyOp28
 70
     1
102
RTVSPropertyOp29
 70
     1
102
RTVSPropertyOp30
 70
     1
102
RTVSPropertyOp31
 70
     1
102
RTVSPropertyOp32
 70
     1
102
RTVSPropertyOp33
 70
     1
102
RTVSPropertyOp34
 70
     1
102
RTVSPropertyOp35
 70
     1
102
RTVSPropertyOp36
 70
     1
102
RTVSPropertyOp37
 70
     1
102
RTVSPropertyOp38
 70
     1
102
RTVSPropertyOp39
 70
     1
102
RTVSPropertyOp40
 70
     1
102
RTVSPropertyOp41
 70
     1
102
RTVSPropertyOp42
 70
     1
102
RTVSPropertyOp43
 70
     1
102
RTVSPropertyOp44
 70
     1
102
RTVSPropertyOp45
 70
     1
102
RTVSPropertyOp46
 70
     1
102
RTVSPropertyOp47
 70
     1
102
RTVSPropertyOp48
 70
     1
102
RTVSPropertyOp49
 70
     1
102
RTVSPropertyOp50
 70
     1
102
RTVSPropertyOp51
 70
     0
102
RTVSPropertyOp52
 70
     0
102
RTVSPropertyOp53
 70
     1
102
RTVSPropertyOp54
 70
     1
102
RTVSPropertyOp55
 70
     1
102
RTVSPropertyOp56
 70
     1
102
RTVSPropertyOp57
 70
     1
102
RTVSPost2010Prop28
280
     0
102
RTVSPost2010PropOp28
 70
     1
102
RTVSPost2010Prop29
280
     1
102
RTVSPost2010PropOp29
 70
     1
102
RTVSPost2010Prop30
280
     1
102
RTVSPost2010PropOp30
 70
     1
102
RTVSPost2010Prop31
280
     0
102
RTVSPost2010PropOp31
 70
     1
102
RTVSPost2010Prop32
280
     0
102
RTVSPost2010PropOp32
 70
     1
102
RTVSPost2010Prop33
280
     0
102
RTVSPost2010PropOp33
 70
     1
102
RTVSPost2010Prop34
280
     0
102
RTVSPost2010PropOp34
 70
     1
102
RTVSPost2010Prop35
280
     0
102
RTVSPost2010PropOp35
 70
     1
102
RTVSPost2010Prop36
280
     0
102
RTVSPost2010PropOp36
 70
     1
102
RTVSPost2010Prop37
 90
       50
102
RTVSPost2010PropOp37
 70
     1
102
RTVSPost2010Prop38
140
0.0
102
RTVSPost2010PropOp38
 70
     1
102
RTVSPost2010Prop39
140
1.0
102
RTVSPost2010PropOp39
 70
     1
102
RTVSPost2010Prop40
 90
        0
102
RTVSPost2010PropOp40
 70
     1
102
RTVSPost2010Prop41ColorIndex
 90
       18
102
RTVSPost2010Prop41ColorRGB
 90
        0
102
RTVSPost2010PropOp41
 70
     1
102
RTVSPost2010Prop42
 90
       50
102
RTVSPost2010PropOp42
 70
     1
102
RTVSPost2010Prop43
 90
        3
102
RTVSPost2010PropOp43
 70
     1
102
RTVSPost2010Prop44ColorIndex
 90
        5
102
RTVSPost2010Prop44ColorRGB
 90
      255
102
RTVSPost2010PropOp44
 70
     1
102
RTVSPost2010Prop45
280
     0
102
RTVSPost2010PropOp45
 70
     1
102
RTVSPost2010Prop46
 90
       50
102
RTVSPost2010PropOp46
 70
     1
102
RTVSPost2010Prop47
 90
       50
102
RTVSPost2010PropOp47
 70
     1
102
RTVSPost2010Prop48
 90
       50
102
RTVSPost2010PropOp48
 70
     1
102
RTVSPost2010Prop49
280
     0
102
RTVSPost2010PropOp49
 70
     1
102
RTVSPost2010Prop50
 90
       50
102
RTVSPost2010PropOp50
 70
     1
102
RTVSPost2010Prop51ColorIndex
 90
      256
102
RTVSPost2010Prop51ColorRGB
 90
-16777216
102
RTVSPost2010PropOp51
 70
     0
102
RTVSPost2010Prop52
140
1.0
102
RTVSPost2010PropOp52
 70
     0
102
RTVSPost2010Prop53
 90
        2
102
RTVSPost2010PropOp53
 70
     1
102
RTVSPost2010Prop54
  1
strokes_ogs.tif
102
RTVSPost2010PropOp54
 70
     1
102
RTVSPost2010Prop55
280
     0
102
RTVSPost2010PropOp55
 70
     1
102
RTVSPost2010Prop56
140
1.0
102
RTVSPost2010PropOp56
 70
     1
102
RTVSPost2010Prop57
140
1.0
102
RTVSPost2010PropOp57
 70
     1
  0
XRECORD
  5
753
102
{ACAD_REACTORS
330
752
102
}
330
752
100
AcDbXrecord
280
     1
102
RTVSPropertyOp0
 70
     1
102
RTVSPropertyOp1
 70
     1
102
RTVSPropertyOp2
 70
     1
102
RTVSPropertyOp3
 70
     1
102
RTVSPropertyOp4
 70
     1
102
RTVSPropertyOp5
 70
     1
102
RTVSPropertyOp6
 70
     1
102
RTVSPropertyOp7
 70
     1
102
RTVSPropertyOp8
 70
     1
102
RTVSPropertyOp9
 70
     1
102
RTVSPropertyOp10
 70
     1
102
RTVSPropertyOp11
 70
     1
102
RTVSPropertyOp12
 70
     1
102
RTVSPropertyOp13
 70
     1
102
RTVSPropertyOp14
 70
     1
102
RTVSPropertyOp15
 70
     1
102
RTVSPropertyOp16
 70
     1
102
RTVSPropertyOp17
 70
     1
102
RTVSPropertyOp18
 70
     1
102
RTVSPropertyOp19
 70
     1
102
RTVSPropertyOp20
 70
     1
102
RTVSPropertyOp21
 70
     1
102
RTVSPropertyOp22
 70
     1
102
RTVSPropertyOp23
 70
     1
102
RTVSPropertyOp24
 70
     1
102
RTVSPropertyOp25
 70
     1
102
RTVSPropertyOp26
 70
     1
102
RTVSPropertyOp27
 70
     1
102
RTVSPropertyOp28
 70
     1
102
RTVSPropertyOp29
 70
     1
102
RTVSPropertyOp30
 70
     1
102
RTVSPropertyOp31
 70
     1
102
RTVSPropertyOp32
 70
     1
102
RTVSPropertyOp33
 70
     1
102
RTVSPropertyOp34
 70
     1
102
RTVSPropertyOp35
 70
     1
102
RTVSPropertyOp36
 70
     1
102
RTVSPropertyOp37
 70
     1
102
RTVSPropertyOp38
 70
     1
102
RTVSPropertyOp39
 70
     1
102
RTVSPropertyOp40
 70
     1
102
RTVSPropertyOp41
 70
     1
102
RTVSPropertyOp42
 70
     1
102
RTVSPropertyOp43
 70
     1
102
RTVSPropertyOp44
 70
     1
102
RTVSPropertyOp45
 70
     1
102
RTVSPropertyOp46
 70
     1
102
RTVSPropertyOp47
 70
     1
102
RTVSPropertyOp48
 70
     1
102
RTVSPropertyOp49
 70
     1
102
RTVSPropertyOp50
 70
     1
102
RTVSPropertyOp51
 70
     0
102
RTVSPropertyOp52
 70
     0
102
RTVSPropertyOp53
 70
     1
102
RTVSPropertyOp54
 70
     1
102
RTVSPropertyOp55
 70
     1
102
RTVSPropertyOp56
 70
     1
102
RTVSPropertyOp57
 70
     1
102
RTVSPost2010Prop28
280
     0
102
RTVSPost2010PropOp28
 70
     1
102
RTVSPost2010Prop29
280
     1
102
RTVSPost2010PropOp29
 70
     1
102
RTVSPost2010Prop30
280
     1
102
RTVSPost2010PropOp30
 70
     1
102
RTVSPost2010Prop31
280
     0
102
RTVSPost2010PropOp31
 70
     1
102
RTVSPost2010Prop32
280
     0
102
RTVSPost2010PropOp32
 70
     1
102
RTVSPost2010Prop33
280
     0
102
RTVSPost2010PropOp33
 70
     1
102
RTVSPost2010Prop34
280
     0
102
RTVSPost2010PropOp34
 70
     1
102
RTVSPost2010Prop35
280
     0
102
RTVSPost2010PropOp35
 70
     1
102
RTVSPost2010Prop36
280
     0
102
RTVSPost2010PropOp36
 70
     1
102
RTVSPost2010Prop37
 90
       50
102
RTVSPost2010PropOp37
 70
     1
102
RTVSPost2010Prop38
140
0.0
102
RTVSPost2010PropOp38
 70
     1
102
RTVSPost2010Prop39
140
1.0
102
RTVSPost2010PropOp39
 70
     1
102
RTVSPost2010Prop40
 90
        0
102
RTVSPost2010PropOp40
 70
     1
102
RTVSPost2010Prop41ColorIndex
 90
       18
102
RTVSPost2010Prop41ColorRGB
 90
        0
102
RTVSPost2010PropOp41
 70
     1
102
RTVSPost2010Prop42
 90
       50
102
RTVSPost2010PropOp42
 70
     1
102
RTVSPost2010Prop43
 90
        3
102
RTVSPost2010PropOp43
 70
     1
102
RTVSPost2010Prop44ColorIndex
 90
        5
102
RTVSPost2010Prop44ColorRGB
 90
      255
102
RTVSPost2010PropOp44
 70
     1
102
RTVSPost2010Prop45
280
     0
102
RTVSPost2010PropOp45
 70
     1
102
RTVSPost2010Prop46
 90
       50
102
RTVSPost2010PropOp46
 70
     1
102
RTVSPost2010Prop47
 90
       50
102
RTVSPost2010PropOp47
 70
     1
102
RTVSPost2010Prop48
 90
       50
102
RTVSPost2010PropOp48
 70
     1
102
RTVSPost2010Prop49
280
     0
102
RTVSPost2010PropOp49
 70
     1
102
RTVSPost2010Prop50
 90
       50
102
RTVSPost2010PropOp50
 70
     1
102
RTVSPost2010Prop51ColorIndex
 90
      256
102
RTVSPost2010Prop51ColorRGB
 90
-16777216
102
RTVSPost2010PropOp51
 70
     0
102
RTVSPost2010Prop52
140
1.0
102
RTVSPost2010PropOp52
 70
     0
102
RTVSPost2010Prop53
 90
        2
102
RTVSPost2010PropOp53
 70
     1
102
RTVSPost2010Prop54
  1
strokes_ogs.tif
102
RTVSPost2010PropOp54
 70
     1
102
RTVSPost2010Prop55
280
     0
102
RTVSPost2010PropOp55
 70
     1
102
RTVSPost2010Prop56
140
1.0
102
RTVSPost2010PropOp56
 70
     1
102
RTVSPost2010Prop57
140
1.0
102
RTVSPost2010PropOp57
 70
     1
  0
XRECORD
  5
763
102
{ACAD_REACTORS
330
762
102
}
330
762
100
AcDbXrecord
280
     1
102
RTVSPropertyOp0
 70
     0
102
RTVSPropertyOp1
 70
     0
102
RTVSPropertyOp2
 70
     0
102
RTVSPropertyOp3
 70
     0
102
RTVSPropertyOp4
 70
     0
102
RTVSPropertyOp5
 70
     0
102
RTVSPropertyOp6
 70
     0
102
RTVSPropertyOp7
 70
     0
102
RTVSPropertyOp8
 70
     0
102
RTVSPropertyOp9
 70
     0
102
RTVSPropertyOp10
 70
     0
102
RTVSPropertyOp11
 70
     0
102
RTVSPropertyOp12
 70
     0
102
RTVSPropertyOp13
 70
     0
102
RTVSPropertyOp14
 70
     0
102
RTVSPropertyOp15
 70
     0
102
RTVSPropertyOp16
 70
     0
102
RTVSPropertyOp17
 70
     0
102
RTVSPropertyOp18
 70
     0
102
RTVSPropertyOp19
 70
     0
102
RTVSPropertyOp20
 70
     0
102
RTVSPropertyOp21
 70
     0
102
RTVSPropertyOp22
 70
     0
102
RTVSPropertyOp23
 70
     0
102
RTVSPropertyOp24
 70
     0
102
RTVSPropertyOp25
 70
     0
102
RTVSPropertyOp26
 70
     0
102
RTVSPropertyOp27
 70
     0
102
RTVSPropertyOp28
 70
     1
102
RTVSPropertyOp29
 70
     1
102
RTVSPropertyOp30
 70
     1
102
RTVSPropertyOp31
 70
     1
102
RTVSPropertyOp32
 70
     1
102
RTVSPropertyOp33
 70
     1
102
RTVSPropertyOp34
 70
     1
102
RTVSPropertyOp35
 70
     1
102
RTVSPropertyOp36
 70
     1
102
RTVSPropertyOp37
 70
     1
102
RTVSPropertyOp38
 70
     1
102
RTVSPropertyOp39
 70
     1
102
RTVSPropertyOp40
 70
     1
102
RTVSPropertyOp41
 70
     1
102
RTVSPropertyOp42
 70
     1
102
RTVSPropertyOp43
 70
     1
102
RTVSPropertyOp44
 70
     1
102
RTVSPropertyOp45
 70
     1
102
RTVSPropertyOp46
 70
     1
102
RTVSPropertyOp47
 70
     1
102
RTVSPropertyOp48
 70
     1
102
RTVSPropertyOp49
 70
     1
102
RTVSPropertyOp50
 70
     1
102
RTVSPropertyOp51
 70
     0
102
RTVSPropertyOp52
 70
     0
102
RTVSPropertyOp53
 70
     1
102
RTVSPropertyOp54
 70
     1
102
RTVSPropertyOp55
 70
     1
102
RTVSPropertyOp56
 70
     1
102
RTVSPropertyOp57
 70
     1
102
RTVSPost2010Prop28
280
     0
102
RTVSPost2010PropOp28
 70
     1
102
RTVSPost2010Prop29
280
     1
102
RTVSPost2010PropOp29
 70
     1
102
RTVSPost2010Prop30
280
     1
102
RTVSPost2010PropOp30
 70
     1
102
RTVSPost2010Prop31
280
     0
102
RTVSPost2010PropOp31
 70
     1
102
RTVSPost2010Prop32
280
     0
102
RTVSPost2010PropOp32
 70
     1
102
RTVSPost2010Prop33
280
     0
102
RTVSPost2010PropOp33
 70
     1
102
RTVSPost2010Prop34
280
     0
102
RTVSPost2010PropOp34
 70
     1
102
RTVSPost2010Prop35
280
     0
102
RTVSPost2010PropOp35
 70
     1
102
RTVSPost2010Prop36
280
     0
102
RTVSPost2010PropOp36
 70
     1
102
RTVSPost2010Prop37
 90
       50
102
RTVSPost2010PropOp37
 70
     1
102
RTVSPost2010Prop38
140
0.0
102
RTVSPost2010PropOp38
 70
     1
102
RTVSPost2010Prop39
140
1.0
102
RTVSPost2010PropOp39
 70
     1
102
RTVSPost2010Prop40
 90
        0
102
RTVSPost2010PropOp40
 70
     1
102
RTVSPost2010Prop41ColorIndex
 90
       18
102
RTVSPost2010Prop41ColorRGB
 90
        0
102
RTVSPost2010PropOp41
 70
     1
102
RTVSPost2010Prop42
 90
       50
102
RTVSPost2010PropOp42
 70
     1
102
RTVSPost2010Prop43
 90
        3
102
RTVSPost2010PropOp43
 70
     1
102
RTVSPost2010Prop44ColorIndex
 90
        5
102
RTVSPost2010Prop44ColorRGB
 90
      255
102
RTVSPost2010PropOp44
 70
     1
102
RTVSPost2010Prop45
280
     0
102
RTVSPost2010PropOp45
 70
     1
102
RTVSPost2010Prop46
 90
       50
102
RTVSPost2010PropOp46
 70
     1
102
RTVSPost2010Prop47
 90
       50
102
RTVSPost2010PropOp47
 70
     1
102
RTVSPost2010Prop48
 90
       50
102
RTVSPost2010PropOp48
 70
     1
102
RTVSPost2010Prop49
280
     0
102
RTVSPost2010PropOp49
 70
     1
102
RTVSPost2010Prop50
 90
       50
102
RTVSPost2010PropOp50
 70
     1
102
RTVSPost2010Prop51ColorIndex
 90
      256
102
RTVSPost2010Prop51ColorRGB
 90
-16777216
102
RTVSPost2010PropOp51
 70
     0
102
RTVSPost2010Prop52
140
1.0
102
RTVSPost2010PropOp52
 70
     0
102
RTVSPost2010Prop53
 90
        2
102
RTVSPost2010PropOp53
 70
     1
102
RTVSPost2010Prop54
  1
strokes_ogs.tif
102
RTVSPost2010PropOp54
 70
     1
102
RTVSPost2010Prop55
280
     0
102
RTVSPost2010PropOp55
 70
     1
102
RTVSPost2010Prop56
140
1.0
102
RTVSPost2010PropOp56
 70
     1
102
RTVSPost2010Prop57
140
1.0
102
RTVSPost2010PropOp57
 70
     1
  0
XRECORD
  5
75B
102
{ACAD_REACTORS
330
75A
102
}
330
75A
100
AcDbXrecord
280
     1
102
RTVSPropertyOp0
 70
     1
102
RTVSPropertyOp1
 70
     1
102
RTVSPropertyOp2
 70
     1
102
RTVSPropertyOp3
 70
     1
102
RTVSPropertyOp4
 70
     1
102
RTVSPropertyOp5
 70
     1
102
RTVSPropertyOp6
 70
     1
102
RTVSPropertyOp7
 70
     1
102
RTVSPropertyOp8
 70
     1
102
RTVSPropertyOp9
 70
     1
102
RTVSPropertyOp10
 70
     1
102
RTVSPropertyOp11
 70
     1
102
RTVSPropertyOp12
 70
     1
102
RTVSPropertyOp13
 70
     1
102
RTVSPropertyOp14
 70
     1
102
RTVSPropertyOp15
 70
     1
102
RTVSPropertyOp16
 70
     1
102
RTVSPropertyOp17
 70
     1
102
RTVSPropertyOp18
 70
     1
102
RTVSPropertyOp19
 70
     1
102
RTVSPropertyOp20
 70
     1
102
RTVSPropertyOp21
 70
     1
102
RTVSPropertyOp22
 70
     1
102
RTVSPropertyOp23
 70
     1
102
RTVSPropertyOp24
 70
     1
102
RTVSPropertyOp25
 70
     1
102
RTVSPropertyOp26
 70
     1
102
RTVSPropertyOp27
 70
     1
102
RTVSPropertyOp28
 70
     1
102
RTVSPropertyOp29
 70
     1
102
RTVSPropertyOp30
 70
     1
102
RTVSPropertyOp31
 70
     1
102
RTVSPropertyOp32
 70
     1
102
RTVSPropertyOp33
 70
     1
102
RTVSPropertyOp34
 70
     1
102
RTVSPropertyOp35
 70
     1
102
RTVSPropertyOp36
 70
     1
102
RTVSPropertyOp37
 70
     1
102
RTVSPropertyOp38
 70
     1
102
RTVSPropertyOp39
 70
     1
102
RTVSPropertyOp40
 70
     1
102
RTVSPropertyOp41
 70
     1
102
RTVSPropertyOp42
 70
     1
102
RTVSPropertyOp43
 70
     1
102
RTVSPropertyOp44
 70
     1
102
RTVSPropertyOp45
 70
     1
102
RTVSPropertyOp46
 70
     1
102
RTVSPropertyOp47
 70
     1
102
RTVSPropertyOp48
 70
     1
102
RTVSPropertyOp49
 70
     1
102
RTVSPropertyOp50
 70
     1
102
RTVSPropertyOp51
 70
     0
102
RTVSPropertyOp52
 70
     0
102
RTVSPropertyOp53
 70
     1
102
RTVSPropertyOp54
 70
     1
102
RTVSPropertyOp55
 70
     1
102
RTVSPropertyOp56
 70
     1
102
RTVSPropertyOp57
 70
     1
102
RTVSPost2010Prop28
280
     0
102
RTVSPost2010PropOp28
 70
     1
102
RTVSPost2010Prop29
280
     1
102
RTVSPost2010PropOp29
 70
     1
102
RTVSPost2010Prop30
280
     1
102
RTVSPost2010PropOp30
 70
     1
102
RTVSPost2010Prop31
280
     0
102
RTVSPost2010PropOp31
 70
     1
102
RTVSPost2010Prop32
280
     0
102
RTVSPost2010PropOp32
 70
     1
102
RTVSPost2010Prop33
280
     0
102
RTVSPost2010PropOp33
 70
     1
102
RTVSPost2010Prop34
280
     0
102
RTVSPost2010PropOp34
 70
     1
102
RTVSPost2010Prop35
280
     0
102
RTVSPost2010PropOp35
 70
     1
102
RTVSPost2010Prop36
280
     0
102
RTVSPost2010PropOp36
 70
     1
102
RTVSPost2010Prop37
 90
       50
102
RTVSPost2010PropOp37
 70
     1
102
RTVSPost2010Prop38
140
0.0
102
RTVSPost2010PropOp38
 70
     1
102
RTVSPost2010Prop39
140
1.0
102
RTVSPost2010PropOp39
 70
     1
102
RTVSPost2010Prop40
 90
        0
102
RTVSPost2010PropOp40
 70
     1
102
RTVSPost2010Prop41ColorIndex
 90
       18
102
RTVSPost2010Prop41ColorRGB
 90
        0
102
RTVSPost2010PropOp41
 70
     1
102
RTVSPost2010Prop42
 90
       50
102
RTVSPost2010PropOp42
 70
     1
102
RTVSPost2010Prop43
 90
        3
102
RTVSPost2010PropOp43
 70
     1
102
RTVSPost2010Prop44ColorIndex
 90
        5
102
RTVSPost2010Prop44ColorRGB
 90
      255
102
RTVSPost2010PropOp44
 70
     1
102
RTVSPost2010Prop45
280
     0
102
RTVSPost2010PropOp45
 70
     1
102
RTVSPost2010Prop46
 90
       50
102
RTVSPost2010PropOp46
 70
     1
102
RTVSPost2010Prop47
 90
       50
102
RTVSPost2010PropOp47
 70
     1
102
RTVSPost2010Prop48
 90
       50
102
RTVSPost2010PropOp48
 70
     1
102
RTVSPost2010Prop49
280
     0
102
RTVSPost2010PropOp49
 70
     1
102
RTVSPost2010Prop50
 90
       50
102
RTVSPost2010PropOp50
 70
     1
102
RTVSPost2010Prop51ColorIndex
 90
      256
102
RTVSPost2010Prop51ColorRGB
 90
-16777216
102
RTVSPost2010PropOp51
 70
     0
102
RTVSPost2010Prop52
140
1.0
102
RTVSPost2010PropOp52
 70
     0
102
RTVSPost2010Prop53
 90
        2
102
RTVSPost2010PropOp53
 70
     1
102
RTVSPost2010Prop54
  1
strokes_ogs.tif
102
RTVSPost2010PropOp54
 70
     1
102
RTVSPost2010Prop55
280
     0
102
RTVSPost2010PropOp55
 70
     1
102
RTVSPost2010Prop56
140
1.0
102
RTVSPost2010PropOp56
 70
     1
102
RTVSPost2010Prop57
140
1.0
102
RTVSPost2010PropOp57
 70
     1
  0
XRECORD
  5
73F
102
{ACAD_REACTORS
330
73E
102
}
330
73E
100
AcDbXrecord
280
     1
102
RTVSPropertyOp0
 70
     1
102
RTVSPropertyOp1
 70
     1
102
RTVSPropertyOp2
 70
     1
102
RTVSPropertyOp3
 70
     1
102
RTVSPropertyOp4
 70
     1
102
RTVSPropertyOp5
 70
     1
102
RTVSPropertyOp6
 70
     1
102
RTVSPropertyOp7
 70
     1
102
RTVSPropertyOp8
 70
     1
102
RTVSPropertyOp9
 70
     1
102
RTVSPropertyOp10
 70
     1
102
RTVSPropertyOp11
 70
     1
102
RTVSPropertyOp12
 70
     1
102
RTVSPropertyOp13
 70
     1
102
RTVSPropertyOp14
 70
     1
102
RTVSPropertyOp15
 70
     1
102
RTVSPropertyOp16
 70
     1
102
RTVSPropertyOp17
 70
     1
102
RTVSPropertyOp18
 70
     1
102
RTVSPropertyOp19
 70
     1
102
RTVSPropertyOp20
 70
     1
102
RTVSPropertyOp21
 70
     1
102
RTVSPropertyOp22
 70
     1
102
RTVSPropertyOp23
 70
     1
102
RTVSPropertyOp24
 70
     1
102
RTVSPropertyOp25
 70
     1
102
RTVSPropertyOp26
 70
     1
102
RTVSPropertyOp27
 70
     1
102
RTVSPropertyOp28
 70
     1
102
RTVSPropertyOp29
 70
     1
102
RTVSPropertyOp30
 70
     1
102
RTVSPropertyOp31
 70
     1
102
RTVSPropertyOp32
 70
     1
102
RTVSPropertyOp33
 70
     1
102
RTVSPropertyOp34
 70
     1
102
RTVSPropertyOp35
 70
     1
102
RTVSPropertyOp36
 70
     1
102
RTVSPropertyOp37
 70
     1
102
RTVSPropertyOp38
 70
     1
102
RTVSPropertyOp39
 70
     1
102
RTVSPropertyOp40
 70
     1
102
RTVSPropertyOp41
 70
     1
102
RTVSPropertyOp42
 70
     1
102
RTVSPropertyOp43
 70
     1
102
RTVSPropertyOp44
 70
     1
102
RTVSPropertyOp45
 70
     1
102
RTVSPropertyOp46
 70
     1
102
RTVSPropertyOp47
 70
     1
102
RTVSPropertyOp48
 70
     1
102
RTVSPropertyOp49
 70
     1
102
RTVSPropertyOp50
 70
     1
102
RTVSPropertyOp51
 70
     0
102
RTVSPropertyOp52
 70
     0
102
RTVSPropertyOp53
 70
     1
102
RTVSPropertyOp54
 70
     1
102
RTVSPropertyOp55
 70
     1
102
RTVSPropertyOp56
 70
     1
102
RTVSPropertyOp57
 70
     1
102
RTVSPost2010Prop28
280
     0
102
RTVSPost2010PropOp28
 70
     1
102
RTVSPost2010Prop29
280
     1
102
RTVSPost2010PropOp29
 70
     1
102
RTVSPost2010Prop30
280
     1
102
RTVSPost2010PropOp30
 70
     1
102
RTVSPost2010Prop31
280
     0
102
RTVSPost2010PropOp31
 70
     1
102
RTVSPost2010Prop32
280
     0
102
RTVSPost2010PropOp32
 70
     1
102
RTVSPost2010Prop33
280
     0
102
RTVSPost2010PropOp33
 70
     1
102
RTVSPost2010Prop34
280
     0
102
RTVSPost2010PropOp34
 70
     1
102
RTVSPost2010Prop35
280
     0
102
RTVSPost2010PropOp35
 70
     1
102
RTVSPost2010Prop36
280
     0
102
RTVSPost2010PropOp36
 70
     1
102
RTVSPost2010Prop37
 90
       50
102
RTVSPost2010PropOp37
 70
     1
102
RTVSPost2010Prop38
140
0.0
102
RTVSPost2010PropOp38
 70
     1
102
RTVSPost2010Prop39
140
1.0
102
RTVSPost2010PropOp39
 70
     1
102
RTVSPost2010Prop40
 90
        0
102
RTVSPost2010PropOp40
 70
     1
102
RTVSPost2010Prop41ColorIndex
 90
       18
102
RTVSPost2010Prop41ColorRGB
 90
        0
102
RTVSPost2010PropOp41
 70
     1
102
RTVSPost2010Prop42
 90
       50
102
RTVSPost2010PropOp42
 70
     1
102
RTVSPost2010Prop43
 90
        3
102
RTVSPost2010PropOp43
 70
     1
102
RTVSPost2010Prop44ColorIndex
 90
        5
102
RTVSPost2010Prop44ColorRGB
 90
      255
102
RTVSPost2010PropOp44
 70
     1
102
RTVSPost2010Prop45
280
     0
102
RTVSPost2010PropOp45
 70
     1
102
RTVSPost2010Prop46
 90
       50
102
RTVSPost2010PropOp46
 70
     1
102
RTVSPost2010Prop47
 90
       50
102
RTVSPost2010PropOp47
 70
     1
102
RTVSPost2010Prop48
 90
       50
102
RTVSPost2010PropOp48
 70
     1
102
RTVSPost2010Prop49
280
     0
102
RTVSPost2010PropOp49
 70
     1
102
RTVSPost2010Prop50
 90
       50
102
RTVSPost2010PropOp50
 70
     1
102
RTVSPost2010Prop51ColorIndex
 90
      256
102
RTVSPost2010Prop51ColorRGB
 90
-16777216
102
RTVSPost2010PropOp51
 70
     0
102
RTVSPost2010Prop52
140
1.0
102
RTVSPost2010PropOp52
 70
     0
102
RTVSPost2010Prop53
 90
        2
102
RTVSPost2010PropOp53
 70
     1
102
RTVSPost2010Prop54
  1
strokes_ogs.tif
102
RTVSPost2010PropOp54
 70
     1
102
RTVSPost2010Prop55
280
     0
102
RTVSPost2010PropOp55
 70
     1
102
RTVSPost2010Prop56
140
1.0
102
RTVSPost2010PropOp56
 70
     1
102
RTVSPost2010Prop57
140
1.0
102
RTVSPost2010PropOp57
 70
     1
  0
XRECORD
  5
741
102
{ACAD_REACTORS
330
740
102
}
330
740
100
AcDbXrecord
280
     1
102
RTVSPropertyOp0
 70
     1
102
RTVSPropertyOp1
 70
     1
102
RTVSPropertyOp2
 70
     1
102
RTVSPropertyOp3
 70
     1
102
RTVSPropertyOp4
 70
     1
102
RTVSPropertyOp5
 70
     1
102
RTVSPropertyOp6
 70
     1
102
RTVSPropertyOp7
 70
     1
102
RTVSPropertyOp8
 70
     1
102
RTVSPropertyOp9
 70
     1
102
RTVSPropertyOp10
 70
     1
102
RTVSPropertyOp11
 70
     1
102
RTVSPropertyOp12
 70
     1
102
RTVSPropertyOp13
 70
     1
102
RTVSPropertyOp14
 70
     1
102
RTVSPropertyOp15
 70
     1
102
RTVSPropertyOp16
 70
     1
102
RTVSPropertyOp17
 70
     1
102
RTVSPropertyOp18
 70
     1
102
RTVSPropertyOp19
 70
     1
102
RTVSPropertyOp20
 70
     1
102
RTVSPropertyOp21
 70
     1
102
RTVSPropertyOp22
 70
     1
102
RTVSPropertyOp23
 70
     1
102
RTVSPropertyOp24
 70
     1
102
RTVSPropertyOp25
 70
     1
102
RTVSPropertyOp26
 70
     1
102
RTVSPropertyOp27
 70
     1
102
RTVSPropertyOp28
 70
     1
102
RTVSPropertyOp29
 70
     1
102
RTVSPropertyOp30
 70
     1
102
RTVSPropertyOp31
 70
     1
102
RTVSPropertyOp32
 70
     1
102
RTVSPropertyOp33
 70
     1
102
RTVSPropertyOp34
 70
     1
102
RTVSPropertyOp35
 70
     1
102
RTVSPropertyOp36
 70
     1
102
RTVSPropertyOp37
 70
     1
102
RTVSPropertyOp38
 70
     1
102
RTVSPropertyOp39
 70
     1
102
RTVSPropertyOp40
 70
     1
102
RTVSPropertyOp41
 70
     1
102
RTVSPropertyOp42
 70
     1
102
RTVSPropertyOp43
 70
     1
102
RTVSPropertyOp44
 70
     1
102
RTVSPropertyOp45
 70
     1
102
RTVSPropertyOp46
 70
     1
102
RTVSPropertyOp47
 70
     1
102
RTVSPropertyOp48
 70
     1
102
RTVSPropertyOp49
 70
     1
102
RTVSPropertyOp50
 70
     1
102
RTVSPropertyOp51
 70
     0
102
RTVSPropertyOp52
 70
     0
102
RTVSPropertyOp53
 70
     1
102
RTVSPropertyOp54
 70
     1
102
RTVSPropertyOp55
 70
     1
102
RTVSPropertyOp56
 70
     1
102
RTVSPropertyOp57
 70
     1
102
RTVSPost2010Prop28
280
     0
102
RTVSPost2010PropOp28
 70
     1
102
RTVSPost2010Prop29
280
     1
102
RTVSPost2010PropOp29
 70
     1
102
RTVSPost2010Prop30
280
     1
102
RTVSPost2010PropOp30
 70
     1
102
RTVSPost2010Prop31
280
     0
102
RTVSPost2010PropOp31
 70
     1
102
RTVSPost2010Prop32
280
     0
102
RTVSPost2010PropOp32
 70
     1
102
RTVSPost2010Prop33
280
     0
102
RTVSPost2010PropOp33
 70
     1
102
RTVSPost2010Prop34
280
     0
102
RTVSPost2010PropOp34
 70
     1
102
RTVSPost2010Prop35
280
     0
102
RTVSPost2010PropOp35
 70
     1
102
RTVSPost2010Prop36
280
     0
102
RTVSPost2010PropOp36
 70
     1
102
RTVSPost2010Prop37
 90
       50
102
RTVSPost2010PropOp37
 70
     1
102
RTVSPost2010Prop38
140
0.0
102
RTVSPost2010PropOp38
 70
     1
102
RTVSPost2010Prop39
140
1.0
102
RTVSPost2010PropOp39
 70
     1
102
RTVSPost2010Prop40
 90
        0
102
RTVSPost2010PropOp40
 70
     1
102
RTVSPost2010Prop41ColorIndex
 90
       18
102
RTVSPost2010Prop41ColorRGB
 90
        0
102
RTVSPost2010PropOp41
 70
     1
102
RTVSPost2010Prop42
 90
       50
102
RTVSPost2010PropOp42
 70
     1
102
RTVSPost2010Prop43
 90
        3
102
RTVSPost2010PropOp43
 70
     1
102
RTVSPost2010Prop44ColorIndex
 90
        5
102
RTVSPost2010Prop44ColorRGB
 90
      255
102
RTVSPost2010PropOp44
 70
     1
102
RTVSPost2010Prop45
280
     0
102
RTVSPost2010PropOp45
 70
     1
102
RTVSPost2010Prop46
 90
       50
102
RTVSPost2010PropOp46
 70
     1
102
RTVSPost2010Prop47
 90
       50
102
RTVSPost2010PropOp47
 70
     1
102
RTVSPost2010Prop48
 90
       50
102
RTVSPost2010PropOp48
 70
     1
102
RTVSPost2010Prop49
280
     0
102
RTVSPost2010PropOp49
 70
     1
102
RTVSPost2010Prop50
 90
       50
102
RTVSPost2010PropOp50
 70
     1
102
RTVSPost2010Prop51ColorIndex
 90
      256
102
RTVSPost2010Prop51ColorRGB
 90
-16777216
102
RTVSPost2010PropOp51
 70
     0
102
RTVSPost2010Prop52
140
1.0
102
RTVSPost2010PropOp52
 70
     0
102
RTVSPost2010Prop53
 90
        2
102
RTVSPost2010PropOp53
 70
     1
102
RTVSPost2010Prop54
  1
strokes_ogs.tif
102
RTVSPost2010PropOp54
 70
     1
102
RTVSPost2010Prop55
280
     0
102
RTVSPost2010PropOp55
 70
     1
102
RTVSPost2010Prop56
140
1.0
102
RTVSPost2010PropOp56
 70
     1
102
RTVSPost2010Prop57
140
1.0
102
RTVSPost2010PropOp57
 70
     1
  0
XRECORD
  5
743
102
{ACAD_REACTORS
330
742
102
}
330
742
100
AcDbXrecord
280
     1
102
RTVSPropertyOp0
 70
     1
102
RTVSPropertyOp1
 70
     1
102
RTVSPropertyOp2
 70
     1
102
RTVSPropertyOp3
 70
     1
102
RTVSPropertyOp4
 70
     1
102
RTVSPropertyOp5
 70
     1
102
RTVSPropertyOp6
 70
     1
102
RTVSPropertyOp7
 70
     1
102
RTVSPropertyOp8
 70
     1
102
RTVSPropertyOp9
 70
     1
102
RTVSPropertyOp10
 70
     1
102
RTVSPropertyOp11
 70
     1
102
RTVSPropertyOp12
 70
     1
102
RTVSPropertyOp13
 70
     1
102
RTVSPropertyOp14
 70
     1
102
RTVSPropertyOp15
 70
     1
102
RTVSPropertyOp16
 70
     1
102
RTVSPropertyOp17
 70
     1
102
RTVSPropertyOp18
 70
     1
102
RTVSPropertyOp19
 70
     1
102
RTVSPropertyOp20
 70
     1
102
RTVSPropertyOp21
 70
     1
102
RTVSPropertyOp22
 70
     1
102
RTVSPropertyOp23
 70
     1
102
RTVSPropertyOp24
 70
     1
102
RTVSPropertyOp25
 70
     1
102
RTVSPropertyOp26
 70
     1
102
RTVSPropertyOp27
 70
     1
102
RTVSPropertyOp28
 70
     1
102
RTVSPropertyOp29
 70
     1
102
RTVSPropertyOp30
 70
     1
102
RTVSPropertyOp31
 70
     1
102
RTVSPropertyOp32
 70
     1
102
RTVSPropertyOp33
 70
     1
102
RTVSPropertyOp34
 70
     1
102
RTVSPropertyOp35
 70
     1
102
RTVSPropertyOp36
 70
     1
102
RTVSPropertyOp37
 70
     1
102
RTVSPropertyOp38
 70
     1
102
RTVSPropertyOp39
 70
     1
102
RTVSPropertyOp40
 70
     1
102
RTVSPropertyOp41
 70
     1
102
RTVSPropertyOp42
 70
     1
102
RTVSPropertyOp43
 70
     1
102
RTVSPropertyOp44
 70
     1
102
RTVSPropertyOp45
 70
     1
102
RTVSPropertyOp46
 70
     1
102
RTVSPropertyOp47
 70
     1
102
RTVSPropertyOp48
 70
     1
102
RTVSPropertyOp49
 70
     1
102
RTVSPropertyOp50
 70
     1
102
RTVSPropertyOp51
 70
     0
102
RTVSPropertyOp52
 70
     0
102
RTVSPropertyOp53
 70
     1
102
RTVSPropertyOp54
 70
     1
102
RTVSPropertyOp55
 70
     1
102
RTVSPropertyOp56
 70
     1
102
RTVSPropertyOp57
 70
     1
102
RTVSPost2010Prop28
280
     0
102
RTVSPost2010PropOp28
 70
     1
102
RTVSPost2010Prop29
280
     1
102
RTVSPost2010PropOp29
 70
     1
102
RTVSPost2010Prop30
280
     1
102
RTVSPost2010PropOp30
 70
     1
102
RTVSPost2010Prop31
280
     0
102
RTVSPost2010PropOp31
 70
     1
102
RTVSPost2010Prop32
280
     0
102
RTVSPost2010PropOp32
 70
     1
102
RTVSPost2010Prop33
280
     0
102
RTVSPost2010PropOp33
 70
     1
102
RTVSPost2010Prop34
280
     0
102
RTVSPost2010PropOp34
 70
     1
102
RTVSPost2010Prop35
280
     0
102
RTVSPost2010PropOp35
 70
     1
102
RTVSPost2010Prop36
280
     0
102
RTVSPost2010PropOp36
 70
     1
102
RTVSPost2010Prop37
 90
       50
102
RTVSPost2010PropOp37
 70
     1
102
RTVSPost2010Prop38
140
0.0
102
RTVSPost2010PropOp38
 70
     1
102
RTVSPost2010Prop39
140
1.0
102
RTVSPost2010PropOp39
 70
     1
102
RTVSPost2010Prop40
 90
        0
102
RTVSPost2010PropOp40
 70
     1
102
RTVSPost2010Prop41ColorIndex
 90
       18
102
RTVSPost2010Prop41ColorRGB
 90
        0
102
RTVSPost2010PropOp41
 70
     1
102
RTVSPost2010Prop42
 90
       50
102
RTVSPost2010PropOp42
 70
     1
102
RTVSPost2010Prop43
 90
        3
102
RTVSPost2010PropOp43
 70
     1
102
RTVSPost2010Prop44ColorIndex
 90
        5
102
RTVSPost2010Prop44ColorRGB
 90
      255
102
RTVSPost2010PropOp44
 70
     1
102
RTVSPost2010Prop45
280
     0
102
RTVSPost2010PropOp45
 70
     1
102
RTVSPost2010Prop46
 90
       50
102
RTVSPost2010PropOp46
 70
     1
102
RTVSPost2010Prop47
 90
       50
102
RTVSPost2010PropOp47
 70
     1
102
RTVSPost2010Prop48
 90
       50
102
RTVSPost2010PropOp48
 70
     1
102
RTVSPost2010Prop49
280
     0
102
RTVSPost2010PropOp49
 70
     1
102
RTVSPost2010Prop50
 90
       50
102
RTVSPost2010PropOp50
 70
     1
102
RTVSPost2010Prop51ColorIndex
 90
      256
102
RTVSPost2010Prop51ColorRGB
 90
-16777216
102
RTVSPost2010PropOp51
 70
     0
102
RTVSPost2010Prop52
140
1.0
102
RTVSPost2010PropOp52
 70
     0
102
RTVSPost2010Prop53
 90
        2
102
RTVSPost2010PropOp53
 70
     1
102
RTVSPost2010Prop54
  1
strokes_ogs.tif
102
RTVSPost2010PropOp54
 70
     1
102
RTVSPost2010Prop55
280
     0
102
RTVSPost2010PropOp55
 70
     1
102
RTVSPost2010Prop56
140
1.0
102
RTVSPost2010PropOp56
 70
     1
102
RTVSPost2010Prop57
140
1.0
102
RTVSPost2010PropOp57
 70
     1
  0
XRECORD
  5
745
102
{ACAD_REACTORS
330
744
102
}
330
744
100
AcDbXrecord
280
     1
102
RTVSPropertyOp0
 70
     1
102
RTVSPropertyOp1
 70
     1
102
RTVSPropertyOp2
 70
     1
102
RTVSPropertyOp3
 70
     1
102
RTVSPropertyOp4
 70
     1
102
RTVSPropertyOp5
 70
     1
102
RTVSPropertyOp6
 70
     1
102
RTVSPropertyOp7
 70
     1
102
RTVSPropertyOp8
 70
     1
102
RTVSPropertyOp9
 70
     1
102
RTVSPropertyOp10
 70
     1
102
RTVSPropertyOp11
 70
     1
102
RTVSPropertyOp12
 70
     1
102
RTVSPropertyOp13
 70
     1
102
RTVSPropertyOp14
 70
     1
102
RTVSPropertyOp15
 70
     1
102
RTVSPropertyOp16
 70
     1
102
RTVSPropertyOp17
 70
     1
102
RTVSPropertyOp18
 70
     1
102
RTVSPropertyOp19
 70
     1
102
RTVSPropertyOp20
 70
     1
102
RTVSPropertyOp21
 70
     1
102
RTVSPropertyOp22
 70
     1
102
RTVSPropertyOp23
 70
     1
102
RTVSPropertyOp24
 70
     1
102
RTVSPropertyOp25
 70
     1
102
RTVSPropertyOp26
 70
     1
102
RTVSPropertyOp27
 70
     1
102
RTVSPropertyOp28
 70
     1
102
RTVSPropertyOp29
 70
     1
102
RTVSPropertyOp30
 70
     1
102
RTVSPropertyOp31
 70
     1
102
RTVSPropertyOp32
 70
     1
102
RTVSPropertyOp33
 70
     1
102
RTVSPropertyOp34
 70
     1
102
RTVSPropertyOp35
 70
     1
102
RTVSPropertyOp36
 70
     1
102
RTVSPropertyOp37
 70
     1
102
RTVSPropertyOp38
 70
     1
102
RTVSPropertyOp39
 70
     1
102
RTVSPropertyOp40
 70
     1
102
RTVSPropertyOp41
 70
     1
102
RTVSPropertyOp42
 70
     1
102
RTVSPropertyOp43
 70
     1
102
RTVSPropertyOp44
 70
     1
102
RTVSPropertyOp45
 70
     1
102
RTVSPropertyOp46
 70
     1
102
RTVSPropertyOp47
 70
     1
102
RTVSPropertyOp48
 70
     1
102
RTVSPropertyOp49
 70
     1
102
RTVSPropertyOp50
 70
     1
102
RTVSPropertyOp51
 70
     0
102
RTVSPropertyOp52
 70
     0
102
RTVSPropertyOp53
 70
     1
102
RTVSPropertyOp54
 70
     1
102
RTVSPropertyOp55
 70
     1
102
RTVSPropertyOp56
 70
     1
102
RTVSPropertyOp57
 70
     1
102
RTVSPost2010Prop28
280
     0
102
RTVSPost2010PropOp28
 70
     1
102
RTVSPost2010Prop29
280
     1
102
RTVSPost2010PropOp29
 70
     1
102
RTVSPost2010Prop30
280
     1
102
RTVSPost2010PropOp30
 70
     1
102
RTVSPost2010Prop31
280
     0
102
RTVSPost2010PropOp31
 70
     1
102
RTVSPost2010Prop32
280
     0
102
RTVSPost2010PropOp32
 70
     1
102
RTVSPost2010Prop33
280
     0
102
RTVSPost2010PropOp33
 70
     1
102
RTVSPost2010Prop34
280
     0
102
RTVSPost2010PropOp34
 70
     1
102
RTVSPost2010Prop35
280
     0
102
RTVSPost2010PropOp35
 70
     1
102
RTVSPost2010Prop36
280
     0
102
RTVSPost2010PropOp36
 70
     1
102
RTVSPost2010Prop37
 90
       50
102
RTVSPost2010PropOp37
 70
     1
102
RTVSPost2010Prop38
140
0.0
102
RTVSPost2010PropOp38
 70
     1
102
RTVSPost2010Prop39
140
1.0
102
RTVSPost2010PropOp39
 70
     1
102
RTVSPost2010Prop40
 90
        0
102
RTVSPost2010PropOp40
 70
     1
102
RTVSPost2010Prop41ColorIndex
 90
       18
102
RTVSPost2010Prop41ColorRGB
 90
        0
102
RTVSPost2010PropOp41
 70
     1
102
RTVSPost2010Prop42
 90
       50
102
RTVSPost2010PropOp42
 70
     1
102
RTVSPost2010Prop43
 90
        3
102
RTVSPost2010PropOp43
 70
     1
102
RTVSPost2010Prop44ColorIndex
 90
        5
102
RTVSPost2010Prop44ColorRGB
 90
      255
102
RTVSPost2010PropOp44
 70
     1
102
RTVSPost2010Prop45
280
     0
102
RTVSPost2010PropOp45
 70
     1
102
RTVSPost2010Prop46
 90
       50
102
RTVSPost2010PropOp46
 70
     1
102
RTVSPost2010Prop47
 90
       50
102
RTVSPost2010PropOp47
 70
     1
102
RTVSPost2010Prop48
 90
       50
102
RTVSPost2010PropOp48
 70
     1
102
RTVSPost2010Prop49
280
     0
102
RTVSPost2010PropOp49
 70
     1
102
RTVSPost2010Prop50
 90
       50
102
RTVSPost2010PropOp50
 70
     1
102
RTVSPost2010Prop51ColorIndex
 90
      256
102
RTVSPost2010Prop51ColorRGB
 90
-16777216
102
RTVSPost2010PropOp51
 70
     0
102
RTVSPost2010Prop52
140
1.0
102
RTVSPost2010PropOp52
 70
     0
102
RTVSPost2010Prop53
 90
        2
102
RTVSPost2010PropOp53
 70
     1
102
RTVSPost2010Prop54
  1
strokes_ogs.tif
102
RTVSPost2010PropOp54
 70
     1
102
RTVSPost2010Prop55
280
     0
102
RTVSPost2010PropOp55
 70
     1
102
RTVSPost2010Prop56
140
1.0
102
RTVSPost2010PropOp56
 70
     1
102
RTVSPost2010Prop57
140
1.0
102
RTVSPost2010PropOp57
 70
     1
  0
XRECORD
  5
74B
102
{ACAD_REACTORS
330
74A
102
}
330
74A
100
AcDbXrecord
280
     1
102
RTVSPropertyOp0
 70
     1
102
RTVSPropertyOp1
 70
     1
102
RTVSPropertyOp2
 70
     1
102
RTVSPropertyOp3
 70
     1
102
RTVSPropertyOp4
 70
     1
102
RTVSPropertyOp5
 70
     1
102
RTVSPropertyOp6
 70
     1
102
RTVSPropertyOp7
 70
     1
102
RTVSPropertyOp8
 70
     1
102
RTVSPropertyOp9
 70
     1
102
RTVSPropertyOp10
 70
     1
102
RTVSPropertyOp11
 70
     1
102
RTVSPropertyOp12
 70
     1
102
RTVSPropertyOp13
 70
     1
102
RTVSPropertyOp14
 70
     1
102
RTVSPropertyOp15
 70
     1
102
RTVSPropertyOp16
 70
     1
102
RTVSPropertyOp17
 70
     1
102
RTVSPropertyOp18
 70
     1
102
RTVSPropertyOp19
 70
     1
102
RTVSPropertyOp20
 70
     1
102
RTVSPropertyOp21
 70
     1
102
RTVSPropertyOp22
 70
     1
102
RTVSPropertyOp23
 70
     1
102
RTVSPropertyOp24
 70
     1
102
RTVSPropertyOp25
 70
     1
102
RTVSPropertyOp26
 70
     1
102
RTVSPropertyOp27
 70
     1
102
RTVSPropertyOp28
 70
     1
102
RTVSPropertyOp29
 70
     1
102
RTVSPropertyOp30
 70
     1
102
RTVSPropertyOp31
 70
     1
102
RTVSPropertyOp32
 70
     1
102
RTVSPropertyOp33
 70
     1
102
RTVSPropertyOp34
 70
     1
102
RTVSPropertyOp35
 70
     1
102
RTVSPropertyOp36
 70
     1
102
RTVSPropertyOp37
 70
     1
102
RTVSPropertyOp38
 70
     1
102
RTVSPropertyOp39
 70
     1
102
RTVSPropertyOp40
 70
     1
102
RTVSPropertyOp41
 70
     1
102
RTVSPropertyOp42
 70
     1
102
RTVSPropertyOp43
 70
     1
102
RTVSPropertyOp44
 70
     1
102
RTVSPropertyOp45
 70
     1
102
RTVSPropertyOp46
 70
     1
102
RTVSPropertyOp47
 70
     1
102
RTVSPropertyOp48
 70
     1
102
RTVSPropertyOp49
 70
     1
102
RTVSPropertyOp50
 70
     1
102
RTVSPropertyOp51
 70
     0
102
RTVSPropertyOp52
 70
     0
102
RTVSPropertyOp53
 70
     1
102
RTVSPropertyOp54
 70
     1
102
RTVSPropertyOp55
 70
     1
102
RTVSPropertyOp56
 70
     1
102
RTVSPropertyOp57
 70
     1
102
RTVSPost2010Prop28
280
     0
102
RTVSPost2010PropOp28
 70
     1
102
RTVSPost2010Prop29
280
     1
102
RTVSPost2010PropOp29
 70
     1
102
RTVSPost2010Prop30
280
     1
102
RTVSPost2010PropOp30
 70
     1
102
RTVSPost2010Prop31
280
     0
102
RTVSPost2010PropOp31
 70
     1
102
RTVSPost2010Prop32
280
     0
102
RTVSPost2010PropOp32
 70
     1
102
RTVSPost2010Prop33
280
     0
102
RTVSPost2010PropOp33
 70
     1
102
RTVSPost2010Prop34
280
     0
102
RTVSPost2010PropOp34
 70
     1
102
RTVSPost2010Prop35
280
     0
102
RTVSPost2010PropOp35
 70
     1
102
RTVSPost2010Prop36
280
     0
102
RTVSPost2010PropOp36
 70
     1
102
RTVSPost2010Prop37
 90
       50
102
RTVSPost2010PropOp37
 70
     1
102
RTVSPost2010Prop38
140
0.0
102
RTVSPost2010PropOp38
 70
     1
102
RTVSPost2010Prop39
140
1.0
102
RTVSPost2010PropOp39
 70
     1
102
RTVSPost2010Prop40
 90
        0
102
RTVSPost2010PropOp40
 70
     1
102
RTVSPost2010Prop41ColorIndex
 90
       18
102
RTVSPost2010Prop41ColorRGB
 90
        0
102
RTVSPost2010PropOp41
 70
     1
102
RTVSPost2010Prop42
 90
       50
102
RTVSPost2010PropOp42
 70
     1
102
RTVSPost2010Prop43
 90
        3
102
RTVSPost2010PropOp43
 70
     1
102
RTVSPost2010Prop44ColorIndex
 90
        5
102
RTVSPost2010Prop44ColorRGB
 90
      255
102
RTVSPost2010PropOp44
 70
     1
102
RTVSPost2010Prop45
280
     0
102
RTVSPost2010PropOp45
 70
     1
102
RTVSPost2010Prop46
 90
       50
102
RTVSPost2010PropOp46
 70
     1
102
RTVSPost2010Prop47
 90
       50
102
RTVSPost2010PropOp47
 70
     1
102
RTVSPost2010Prop48
 90
       50
102
RTVSPost2010PropOp48
 70
     1
102
RTVSPost2010Prop49
280
     0
102
RTVSPost2010PropOp49
 70
     1
102
RTVSPost2010Prop50
 90
       50
102
RTVSPost2010PropOp50
 70
     1
102
RTVSPost2010Prop51ColorIndex
 90
      256
102
RTVSPost2010Prop51ColorRGB
 90
-16777216
102
RTVSPost2010PropOp51
 70
     0
102
RTVSPost2010Prop52
140
1.0
102
RTVSPost2010PropOp52
 70
     0
102
RTVSPost2010Prop53
 90
        2
102
RTVSPost2010PropOp53
 70
     1
102
RTVSPost2010Prop54
  1
strokes_ogs.tif
102
RTVSPost2010PropOp54
 70
     1
102
RTVSPost2010Prop55
280
     0
102
RTVSPost2010PropOp55
 70
     1
102
RTVSPost2010Prop56
140
1.0
102
RTVSPost2010PropOp56
 70
     1
102
RTVSPost2010Prop57
140
1.0
102
RTVSPost2010PropOp57
 70
     1
  0
XRECORD
  5
75F
102
{ACAD_REACTORS
330
75E
102
}
330
75E
100
AcDbXrecord
280
     1
102
RTVSPropertyOp0
 70
     0
102
RTVSPropertyOp1
 70
     0
102
RTVSPropertyOp2
 70
     0
102
RTVSPropertyOp3
 70
     0
102
RTVSPropertyOp4
 70
     0
102
RTVSPropertyOp5
 70
     0
102
RTVSPropertyOp6
 70
     0
102
RTVSPropertyOp7
 70
     0
102
RTVSPropertyOp8
 70
     0
102
RTVSPropertyOp9
 70
     0
102
RTVSPropertyOp10
 70
     0
102
RTVSPropertyOp11
 70
     0
102
RTVSPropertyOp12
 70
     0
102
RTVSPropertyOp13
 70
     0
102
RTVSPropertyOp14
 70
     0
102
RTVSPropertyOp15
 70
     0
102
RTVSPropertyOp16
 70
     0
102
RTVSPropertyOp17
 70
     0
102
RTVSPropertyOp18
 70
     0
102
RTVSPropertyOp19
 70
     0
102
RTVSPropertyOp20
 70
     0
102
RTVSPropertyOp21
 70
     0
102
RTVSPropertyOp22
 70
     0
102
RTVSPropertyOp23
 70
     0
102
RTVSPropertyOp24
 70
     0
102
RTVSPropertyOp25
 70
     0
102
RTVSPropertyOp26
 70
     0
102
RTVSPropertyOp27
 70
     0
102
RTVSPropertyOp28
 70
     1
102
RTVSPropertyOp29
 70
     1
102
RTVSPropertyOp30
 70
     1
102
RTVSPropertyOp31
 70
     1
102
RTVSPropertyOp32
 70
     1
102
RTVSPropertyOp33
 70
     1
102
RTVSPropertyOp34
 70
     1
102
RTVSPropertyOp35
 70
     1
102
RTVSPropertyOp36
 70
     1
102
RTVSPropertyOp37
 70
     1
102
RTVSPropertyOp38
 70
     1
102
RTVSPropertyOp39
 70
     1
102
RTVSPropertyOp40
 70
     1
102
RTVSPropertyOp41
 70
     1
102
RTVSPropertyOp42
 70
     1
102
RTVSPropertyOp43
 70
     1
102
RTVSPropertyOp44
 70
     1
102
RTVSPropertyOp45
 70
     1
102
RTVSPropertyOp46
 70
     1
102
RTVSPropertyOp47
 70
     1
102
RTVSPropertyOp48
 70
     1
102
RTVSPropertyOp49
 70
     1
102
RTVSPropertyOp50
 70
     1
102
RTVSPropertyOp51
 70
     0
102
RTVSPropertyOp52
 70
     0
102
RTVSPropertyOp53
 70
     1
102
RTVSPropertyOp54
 70
     1
102
RTVSPropertyOp55
 70
     1
102
RTVSPropertyOp56
 70
     1
102
RTVSPropertyOp57
 70
     1
102
RTVSPost2010Prop28
280
     0
102
RTVSPost2010PropOp28
 70
     1
102
RTVSPost2010Prop29
280
     1
102
RTVSPost2010PropOp29
 70
     1
102
RTVSPost2010Prop30
280
     1
102
RTVSPost2010PropOp30
 70
     1
102
RTVSPost2010Prop31
280
     0
102
RTVSPost2010PropOp31
 70
     1
102
RTVSPost2010Prop32
280
     0
102
RTVSPost2010PropOp32
 70
     1
102
RTVSPost2010Prop33
280
     0
102
RTVSPost2010PropOp33
 70
     1
102
RTVSPost2010Prop34
280
     0
102
RTVSPost2010PropOp34
 70
     1
102
RTVSPost2010Prop35
280
     0
102
RTVSPost2010PropOp35
 70
     1
102
RTVSPost2010Prop36
280
     0
102
RTVSPost2010PropOp36
 70
     1
102
RTVSPost2010Prop37
 90
       50
102
RTVSPost2010PropOp37
 70
     1
102
RTVSPost2010Prop38
140
0.0
102
RTVSPost2010PropOp38
 70
     1
102
RTVSPost2010Prop39
140
1.0
102
RTVSPost2010PropOp39
 70
     1
102
RTVSPost2010Prop40
 90
        0
102
RTVSPost2010PropOp40
 70
     1
102
RTVSPost2010Prop41ColorIndex
 90
       18
102
RTVSPost2010Prop41ColorRGB
 90
        0
102
RTVSPost2010PropOp41
 70
     1
102
RTVSPost2010Prop42
 90
       50
102
RTVSPost2010PropOp42
 70
     1
102
RTVSPost2010Prop43
 90
        3
102
RTVSPost2010PropOp43
 70
     1
102
RTVSPost2010Prop44ColorIndex
 90
        5
102
RTVSPost2010Prop44ColorRGB
 90
      255
102
RTVSPost2010PropOp44
 70
     1
102
RTVSPost2010Prop45
280
     0
102
RTVSPost2010PropOp45
 70
     1
102
RTVSPost2010Prop46
 90
       50
102
RTVSPost2010PropOp46
 70
     1
102
RTVSPost2010Prop47
 90
       50
102
RTVSPost2010PropOp47
 70
     1
102
RTVSPost2010Prop48
 90
       50
102
RTVSPost2010PropOp48
 70
     1
102
RTVSPost2010Prop49
280
     0
102
RTVSPost2010PropOp49
 70
     1
102
RTVSPost2010Prop50
 90
       50
102
RTVSPost2010PropOp50
 70
     1
102
RTVSPost2010Prop51ColorIndex
 90
      256
102
RTVSPost2010Prop51ColorRGB
 90
-16777216
102
RTVSPost2010PropOp51
 70
     0
102
RTVSPost2010Prop52
140
1.0
102
RTVSPost2010PropOp52
 70
     0
102
RTVSPost2010Prop53
 90
        2
102
RTVSPost2010PropOp53
 70
     1
102
RTVSPost2010Prop54
  1
strokes_ogs.tif
102
RTVSPost2010PropOp54
 70
     1
102
RTVSPost2010Prop55
280
     0
102
RTVSPost2010PropOp55
 70
     1
102
RTVSPost2010Prop56
140
1.0
102
RTVSPost2010PropOp56
 70
     1
102
RTVSPost2010Prop57
140
1.0
102
RTVSPost2010PropOp57
 70
     1
  0
XRECORD
  5
759
102
{ACAD_REACTORS
330
758
102
}
330
758
100
AcDbXrecord
280
     1
102
RTVSPropertyOp0
 70
     1
102
RTVSPropertyOp1
 70
     1
102
RTVSPropertyOp2
 70
     1
102
RTVSPropertyOp3
 70
     1
102
RTVSPropertyOp4
 70
     1
102
RTVSPropertyOp5
 70
     1
102
RTVSPropertyOp6
 70
     1
102
RTVSPropertyOp7
 70
     1
102
RTVSPropertyOp8
 70
     1
102
RTVSPropertyOp9
 70
     1
102
RTVSPropertyOp10
 70
     1
102
RTVSPropertyOp11
 70
     1
102
RTVSPropertyOp12
 70
     1
102
RTVSPropertyOp13
 70
     1
102
RTVSPropertyOp14
 70
     1
102
RTVSPropertyOp15
 70
     1
102
RTVSPropertyOp16
 70
     1
102
RTVSPropertyOp17
 70
     1
102
RTVSPropertyOp18
 70
     1
102
RTVSPropertyOp19
 70
     1
102
RTVSPropertyOp20
 70
     1
102
RTVSPropertyOp21
 70
     1
102
RTVSPropertyOp22
 70
     1
102
RTVSPropertyOp23
 70
     1
102
RTVSPropertyOp24
 70
     1
102
RTVSPropertyOp25
 70
     1
102
RTVSPropertyOp26
 70
     1
102
RTVSPropertyOp27
 70
     1
102
RTVSPropertyOp28
 70
     1
102
RTVSPropertyOp29
 70
     1
102
RTVSPropertyOp30
 70
     1
102
RTVSPropertyOp31
 70
     1
102
RTVSPropertyOp32
 70
     1
102
RTVSPropertyOp33
 70
     1
102
RTVSPropertyOp34
 70
     1
102
RTVSPropertyOp35
 70
     1
102
RTVSPropertyOp36
 70
     1
102
RTVSPropertyOp37
 70
     1
102
RTVSPropertyOp38
 70
     1
102
RTVSPropertyOp39
 70
     1
102
RTVSPropertyOp40
 70
     1
102
RTVSPropertyOp41
 70
     1
102
RTVSPropertyOp42
 70
     1
102
RTVSPropertyOp43
 70
     1
102
RTVSPropertyOp44
 70
     1
102
RTVSPropertyOp45
 70
     1
102
RTVSPropertyOp46
 70
     1
102
RTVSPropertyOp47
 70
     1
102
RTVSPropertyOp48
 70
     1
102
RTVSPropertyOp49
 70
     1
102
RTVSPropertyOp50
 70
     1
102
RTVSPropertyOp51
 70
     0
102
RTVSPropertyOp52
 70
     0
102
RTVSPropertyOp53
 70
     1
102
RTVSPropertyOp54
 70
     1
102
RTVSPropertyOp55
 70
     1
102
RTVSPropertyOp56
 70
     1
102
RTVSPropertyOp57
 70
     1
102
RTVSPost2010Prop28
280
     0
102
RTVSPost2010PropOp28
 70
     1
102
RTVSPost2010Prop29
280
     1
102
RTVSPost2010PropOp29
 70
     1
102
RTVSPost2010Prop30
280
     1
102
RTVSPost2010PropOp30
 70
     1
102
RTVSPost2010Prop31
280
     0
102
RTVSPost2010PropOp31
 70
     1
102
RTVSPost2010Prop32
280
     0
102
RTVSPost2010PropOp32
 70
     1
102
RTVSPost2010Prop33
280
     0
102
RTVSPost2010PropOp33
 70
     1
102
RTVSPost2010Prop34
280
     0
102
RTVSPost2010PropOp34
 70
     1
102
RTVSPost2010Prop35
280
     0
102
RTVSPost2010PropOp35
 70
     1
102
RTVSPost2010Prop36
280
     0
102
RTVSPost2010PropOp36
 70
     1
102
RTVSPost2010Prop37
 90
       50
102
RTVSPost2010PropOp37
 70
     1
102
RTVSPost2010Prop38
140
0.0
102
RTVSPost2010PropOp38
 70
     1
102
RTVSPost2010Prop39
140
1.0
102
RTVSPost2010PropOp39
 70
     1
102
RTVSPost2010Prop40
 90
        0
102
RTVSPost2010PropOp40
 70
     1
102
RTVSPost2010Prop41ColorIndex
 90
       18
102
RTVSPost2010Prop41ColorRGB
 90
        0
102
RTVSPost2010PropOp41
 70
     1
102
RTVSPost2010Prop42
 90
       50
102
RTVSPost2010PropOp42
 70
     1
102
RTVSPost2010Prop43
 90
        3
102
RTVSPost2010PropOp43
 70
     1
102
RTVSPost2010Prop44ColorIndex
 90
        5
102
RTVSPost2010Prop44ColorRGB
 90
      255
102
RTVSPost2010PropOp44
 70
     1
102
RTVSPost2010Prop45
280
     0
102
RTVSPost2010PropOp45
 70
     1
102
RTVSPost2010Prop46
 90
       50
102
RTVSPost2010PropOp46
 70
     1
102
RTVSPost2010Prop47
 90
       50
102
RTVSPost2010PropOp47
 70
     1
102
RTVSPost2010Prop48
 90
       50
102
RTVSPost2010PropOp48
 70
     1
102
RTVSPost2010Prop49
280
     0
102
RTVSPost2010PropOp49
 70
     1
102
RTVSPost2010Prop50
 90
       50
102
RTVSPost2010PropOp50
 70
     1
102
RTVSPost2010Prop51ColorIndex
 90
      256
102
RTVSPost2010Prop51ColorRGB
 90
-16777216
102
RTVSPost2010PropOp51
 70
     0
102
RTVSPost2010Prop52
140
1.0
102
RTVSPost2010PropOp52
 70
     0
102
RTVSPost2010Prop53
 90
        2
102
RTVSPost2010PropOp53
 70
     1
102
RTVSPost2010Prop54
  1
strokes_ogs.tif
102
RTVSPost2010PropOp54
 70
     1
102
RTVSPost2010Prop55
280
     0
102
RTVSPost2010PropOp55
 70
     1
102
RTVSPost2010Prop56
140
1.0
102
RTVSPost2010PropOp56
 70
     1
102
RTVSPost2010Prop57
140
1.0
102
RTVSPost2010PropOp57
 70
     1
  0
XRECORD
  5
761
102
{ACAD_REACTORS
330
760
102
}
330
760
100
AcDbXrecord
280
     1
102
RTVSPropertyOp0
 70
     0
102
RTVSPropertyOp1
 70
     0
102
RTVSPropertyOp2
 70
     0
102
RTVSPropertyOp3
 70
     0
102
RTVSPropertyOp4
 70
     0
102
RTVSPropertyOp5
 70
     0
102
RTVSPropertyOp6
 70
     0
102
RTVSPropertyOp7
 70
     0
102
RTVSPropertyOp8
 70
     0
102
RTVSPropertyOp9
 70
     0
102
RTVSPropertyOp10
 70
     0
102
RTVSPropertyOp11
 70
     0
102
RTVSPropertyOp12
 70
     0
102
RTVSPropertyOp13
 70
     0
102
RTVSPropertyOp14
 70
     0
102
RTVSPropertyOp15
 70
     0
102
RTVSPropertyOp16
 70
     0
102
RTVSPropertyOp17
 70
     0
102
RTVSPropertyOp18
 70
     0
102
RTVSPropertyOp19
 70
     0
102
RTVSPropertyOp20
 70
     0
102
RTVSPropertyOp21
 70
     0
102
RTVSPropertyOp22
 70
     0
102
RTVSPropertyOp23
 70
     0
102
RTVSPropertyOp24
 70
     0
102
RTVSPropertyOp25
 70
     0
102
RTVSPropertyOp26
 70
     0
102
RTVSPropertyOp27
 70
     0
102
RTVSPropertyOp28
 70
     1
102
RTVSPropertyOp29
 70
     1
102
RTVSPropertyOp30
 70
     1
102
RTVSPropertyOp31
 70
     1
102
RTVSPropertyOp32
 70
     1
102
RTVSPropertyOp33
 70
     1
102
RTVSPropertyOp34
 70
     1
102
RTVSPropertyOp35
 70
     1
102
RTVSPropertyOp36
 70
     1
102
RTVSPropertyOp37
 70
     1
102
RTVSPropertyOp38
 70
     1
102
RTVSPropertyOp39
 70
     1
102
RTVSPropertyOp40
 70
     1
102
RTVSPropertyOp41
 70
     1
102
RTVSPropertyOp42
 70
     1
102
RTVSPropertyOp43
 70
     1
102
RTVSPropertyOp44
 70
     1
102
RTVSPropertyOp45
 70
     1
102
RTVSPropertyOp46
 70
     1
102
RTVSPropertyOp47
 70
     1
102
RTVSPropertyOp48
 70
     1
102
RTVSPropertyOp49
 70
     1
102
RTVSPropertyOp50
 70
     1
102
RTVSPropertyOp51
 70
     0
102
RTVSPropertyOp52
 70
     0
102
RTVSPropertyOp53
 70
     1
102
RTVSPropertyOp54
 70
     1
102
RTVSPropertyOp55
 70
     1
102
RTVSPropertyOp56
 70
     1
102
RTVSPropertyOp57
 70
     1
102
RTVSPost2010Prop28
280
     0
102
RTVSPost2010PropOp28
 70
     1
102
RTVSPost2010Prop29
280
     1
102
RTVSPost2010PropOp29
 70
     1
102
RTVSPost2010Prop30
280
     1
102
RTVSPost2010PropOp30
 70
     1
102
RTVSPost2010Prop31
280
     0
102
RTVSPost2010PropOp31
 70
     1
102
RTVSPost2010Prop32
280
     0
102
RTVSPost2010PropOp32
 70
     1
102
RTVSPost2010Prop33
280
     0
102
RTVSPost2010PropOp33
 70
     1
102
RTVSPost2010Prop34
280
     0
102
RTVSPost2010PropOp34
 70
     1
102
RTVSPost2010Prop35
280
     0
102
RTVSPost2010PropOp35
 70
     1
102
RTVSPost2010Prop36
280
     0
102
RTVSPost2010PropOp36
 70
     1
102
RTVSPost2010Prop37
 90
       50
102
RTVSPost2010PropOp37
 70
     1
102
RTVSPost2010Prop38
140
0.0
102
RTVSPost2010PropOp38
 70
     1
102
RTVSPost2010Prop39
140
1.0
102
RTVSPost2010PropOp39
 70
     1
102
RTVSPost2010Prop40
 90
        0
102
RTVSPost2010PropOp40
 70
     1
102
RTVSPost2010Prop41ColorIndex
 90
       18
102
RTVSPost2010Prop41ColorRGB
 90
        0
102
RTVSPost2010PropOp41
 70
     1
102
RTVSPost2010Prop42
 90
       50
102
RTVSPost2010PropOp42
 70
     1
102
RTVSPost2010Prop43
 90
        3
102
RTVSPost2010PropOp43
 70
     1
102
RTVSPost2010Prop44ColorIndex
 90
        5
102
RTVSPost2010Prop44ColorRGB
 90
      255
102
RTVSPost2010PropOp44
 70
     1
102
RTVSPost2010Prop45
280
     0
102
RTVSPost2010PropOp45
 70
     1
102
RTVSPost2010Prop46
 90
       50
102
RTVSPost2010PropOp46
 70
     1
102
RTVSPost2010Prop47
 90
       50
102
RTVSPost2010PropOp47
 70
     1
102
RTVSPost2010Prop48
 90
       50
102
RTVSPost2010PropOp48
 70
     1
102
RTVSPost2010Prop49
280
     0
102
RTVSPost2010PropOp49
 70
     1
102
RTVSPost2010Prop50
 90
       50
102
RTVSPost2010PropOp50
 70
     1
102
RTVSPost2010Prop51ColorIndex
 90
      256
102
RTVSPost2010Prop51ColorRGB
 90
-16777216
102
RTVSPost2010PropOp51
 70
     0
102
RTVSPost2010Prop52
140
1.0
102
RTVSPost2010PropOp52
 70
     0
102
RTVSPost2010Prop53
 90
        2
102
RTVSPost2010PropOp53
 70
     1
102
RTVSPost2010Prop54
  1
strokes_ogs.tif
102
RTVSPost2010PropOp54
 70
     1
102
RTVSPost2010Prop55
280
     0
102
RTVSPost2010PropOp55
 70
     1
102
RTVSPost2010Prop56
140
1.0
102
RTVSPost2010PropOp56
 70
     1
102
RTVSPost2010Prop57
140
1.0
102
RTVSPost2010PropOp57
 70
     1
  0
XRECORD
  5
74F
102
{ACAD_REACTORS
330
74E
102
}
330
74E
100
AcDbXrecord
280
     1
102
RTVSPropertyOp0
 70
     1
102
RTVSPropertyOp1
 70
     1
102
RTVSPropertyOp2
 70
     1
102
RTVSPropertyOp3
 70
     1
102
RTVSPropertyOp4
 70
     1
102
RTVSPropertyOp5
 70
     1
102
RTVSPropertyOp6
 70
     1
102
RTVSPropertyOp7
 70
     1
102
RTVSPropertyOp8
 70
     1
102
RTVSPropertyOp9
 70
     1
102
RTVSPropertyOp10
 70
     1
102
RTVSPropertyOp11
 70
     1
102
RTVSPropertyOp12
 70
     1
102
RTVSPropertyOp13
 70
     1
102
RTVSPropertyOp14
 70
     1
102
RTVSPropertyOp15
 70
     1
102
RTVSPropertyOp16
 70
     1
102
RTVSPropertyOp17
 70
     1
102
RTVSPropertyOp18
 70
     1
102
RTVSPropertyOp19
 70
     1
102
RTVSPropertyOp20
 70
     1
102
RTVSPropertyOp21
 70
     1
102
RTVSPropertyOp22
 70
     1
102
RTVSPropertyOp23
 70
     1
102
RTVSPropertyOp24
 70
     1
102
RTVSPropertyOp25
 70
     1
102
RTVSPropertyOp26
 70
     1
102
RTVSPropertyOp27
 70
     1
102
RTVSPropertyOp28
 70
     1
102
RTVSPropertyOp29
 70
     1
102
RTVSPropertyOp30
 70
     1
102
RTVSPropertyOp31
 70
     1
102
RTVSPropertyOp32
 70
     1
102
RTVSPropertyOp33
 70
     1
102
RTVSPropertyOp34
 70
     1
102
RTVSPropertyOp35
 70
     1
102
RTVSPropertyOp36
 70
     1
102
RTVSPropertyOp37
 70
     1
102
RTVSPropertyOp38
 70
     1
102
RTVSPropertyOp39
 70
     1
102
RTVSPropertyOp40
 70
     1
102
RTVSPropertyOp41
 70
     1
102
RTVSPropertyOp42
 70
     1
102
RTVSPropertyOp43
 70
     1
102
RTVSPropertyOp44
 70
     1
102
RTVSPropertyOp45
 70
     1
102
RTVSPropertyOp46
 70
     1
102
RTVSPropertyOp47
 70
     1
102
RTVSPropertyOp48
 70
     1
102
RTVSPropertyOp49
 70
     1
102
RTVSPropertyOp50
 70
     1
102
RTVSPropertyOp51
 70
     0
102
RTVSPropertyOp52
 70
     0
102
RTVSPropertyOp53
 70
     1
102
RTVSPropertyOp54
 70
     1
102
RTVSPropertyOp55
 70
     1
102
RTVSPropertyOp56
 70
     1
102
RTVSPropertyOp57
 70
     1
102
RTVSPost2010Prop28
280
     0
102
RTVSPost2010PropOp28
 70
     1
102
RTVSPost2010Prop29
280
     1
102
RTVSPost2010PropOp29
 70
     1
102
RTVSPost2010Prop30
280
     1
102
RTVSPost2010PropOp30
 70
     1
102
RTVSPost2010Prop31
280
     0
102
RTVSPost2010PropOp31
 70
     1
102
RTVSPost2010Prop32
280
     0
102
RTVSPost2010PropOp32
 70
     1
102
RTVSPost2010Prop33
280
     0
102
RTVSPost2010PropOp33
 70
     1
102
RTVSPost2010Prop34
280
     0
102
RTVSPost2010PropOp34
 70
     1
102
RTVSPost2010Prop35
280
     0
102
RTVSPost2010PropOp35
 70
     1
102
RTVSPost2010Prop36
280
     0
102
RTVSPost2010PropOp36
 70
     1
102
RTVSPost2010Prop37
 90
       50
102
RTVSPost2010PropOp37
 70
     1
102
RTVSPost2010Prop38
140
0.0
102
RTVSPost2010PropOp38
 70
     1
102
RTVSPost2010Prop39
140
1.0
102
RTVSPost2010PropOp39
 70
     1
102
RTVSPost2010Prop40
 90
        0
102
RTVSPost2010PropOp40
 70
     1
102
RTVSPost2010Prop41ColorIndex
 90
       18
102
RTVSPost2010Prop41ColorRGB
 90
        0
102
RTVSPost2010PropOp41
 70
     1
102
RTVSPost2010Prop42
 90
       50
102
RTVSPost2010PropOp42
 70
     1
102
RTVSPost2010Prop43
 90
        3
102
RTVSPost2010PropOp43
 70
     1
102
RTVSPost2010Prop44ColorIndex
 90
        5
102
RTVSPost2010Prop44ColorRGB
 90
      255
102
RTVSPost2010PropOp44
 70
     1
102
RTVSPost2010Prop45
280
     0
102
RTVSPost2010PropOp45
 70
     1
102
RTVSPost2010Prop46
 90
       50
102
RTVSPost2010PropOp46
 70
     1
102
RTVSPost2010Prop47
 90
       50
102
RTVSPost2010PropOp47
 70
     1
102
RTVSPost2010Prop48
 90
       50
102
RTVSPost2010PropOp48
 70
     1
102
RTVSPost2010Prop49
280
     0
102
RTVSPost2010PropOp49
 70
     1
102
RTVSPost2010Prop50
 90
       50
102
RTVSPost2010PropOp50
 70
     1
102
RTVSPost2010Prop51ColorIndex
 90
      256
102
RTVSPost2010Prop51ColorRGB
 90
-16777216
102
RTVSPost2010PropOp51
 70
     0
102
RTVSPost2010Prop52
140
1.0
102
RTVSPost2010PropOp52
 70
     0
102
RTVSPost2010Prop53
 90
        2
102
RTVSPost2010PropOp53
 70
     1
102
RTVSPost2010Prop54
  1
strokes_ogs.tif
102
RTVSPost2010PropOp54
 70
     1
102
RTVSPost2010Prop55
280
     0
102
RTVSPost2010PropOp55
 70
     1
102
RTVSPost2010Prop56
140
1.0
102
RTVSPost2010PropOp56
 70
     1
102
RTVSPost2010Prop57
140
1.0
102
RTVSPost2010PropOp57
 70
     1
  0
XRECORD
  5
76D
102
{ACAD_REACTORS
330
76C
102
}
330
76C
100
AcDbXrecord
280
     1
102
RTVSPropertyOp0
 70
     1
102
RTVSPropertyOp1
 70
     1
102
RTVSPropertyOp2
 70
     1
102
RTVSPropertyOp3
 70
     1
102
RTVSPropertyOp4
 70
     1
102
RTVSPropertyOp5
 70
     1
102
RTVSPropertyOp6
 70
     1
102
RTVSPropertyOp7
 70
     1
102
RTVSPropertyOp8
 70
     1
102
RTVSPropertyOp9
 70
     1
102
RTVSPropertyOp10
 70
     1
102
RTVSPropertyOp11
 70
     1
102
RTVSPropertyOp12
 70
     1
102
RTVSPropertyOp13
 70
     1
102
RTVSPropertyOp14
 70
     1
102
RTVSPropertyOp15
 70
     1
102
RTVSPropertyOp16
 70
     1
102
RTVSPropertyOp17
 70
     1
102
RTVSPropertyOp18
 70
     1
102
RTVSPropertyOp19
 70
     1
102
RTVSPropertyOp20
 70
     1
102
RTVSPropertyOp21
 70
     1
102
RTVSPropertyOp22
 70
     1
102
RTVSPropertyOp23
 70
     1
102
RTVSPropertyOp24
 70
     1
102
RTVSPropertyOp25
 70
     1
102
RTVSPropertyOp26
 70
     1
102
RTVSPropertyOp27
 70
     1
102
RTVSPropertyOp28
 70
     1
102
RTVSPropertyOp29
 70
     1
102
RTVSPropertyOp30
 70
     1
102
RTVSPropertyOp31
 70
     1
102
RTVSPropertyOp32
 70
     1
102
RTVSPropertyOp33
 70
     1
102
RTVSPropertyOp34
 70
     1
102
RTVSPropertyOp35
 70
     1
102
RTVSPropertyOp36
 70
     1
102
RTVSPropertyOp37
 70
     1
102
RTVSPropertyOp38
 70
     1
102
RTVSPropertyOp39
 70
     1
102
RTVSPropertyOp40
 70
     1
102
RTVSPropertyOp41
 70
     1
102
RTVSPropertyOp42
 70
     1
102
RTVSPropertyOp43
 70
     1
102
RTVSPropertyOp44
 70
     1
102
RTVSPropertyOp45
 70
     1
102
RTVSPropertyOp46
 70
     1
102
RTVSPropertyOp47
 70
     1
102
RTVSPropertyOp48
 70
     1
102
RTVSPropertyOp49
 70
     1
102
RTVSPropertyOp50
 70
     1
102
RTVSPropertyOp51
 70
     0
102
RTVSPropertyOp52
 70
     0
102
RTVSPropertyOp53
 70
     1
102
RTVSPropertyOp54
 70
     1
102
RTVSPropertyOp55
 70
     1
102
RTVSPropertyOp56
 70
     1
102
RTVSPropertyOp57
 70
     1
102
RTVSPost2010Prop28
280
     0
102
RTVSPost2010PropOp28
 70
     1
102
RTVSPost2010Prop29
280
     1
102
RTVSPost2010PropOp29
 70
     1
102
RTVSPost2010Prop30
280
     1
102
RTVSPost2010PropOp30
 70
     1
102
RTVSPost2010Prop31
280
     0
102
RTVSPost2010PropOp31
 70
     1
102
RTVSPost2010Prop32
280
     0
102
RTVSPost2010PropOp32
 70
     1
102
RTVSPost2010Prop33
280
     0
102
RTVSPost2010PropOp33
 70
     1
102
RTVSPost2010Prop34
280
     0
102
RTVSPost2010PropOp34
 70
     1
102
RTVSPost2010Prop35
280
     0
102
RTVSPost2010PropOp35
 70
     1
102
RTVSPost2010Prop36
280
     0
102
RTVSPost2010PropOp36
 70
     1
102
RTVSPost2010Prop37
 90
       50
102
RTVSPost2010PropOp37
 70
     1
102
RTVSPost2010Prop38
140
0.0
102
RTVSPost2010PropOp38
 70
     1
102
RTVSPost2010Prop39
140
1.0
102
RTVSPost2010PropOp39
 70
     1
102
RTVSPost2010Prop40
 90
        0
102
RTVSPost2010PropOp40
 70
     1
102
RTVSPost2010Prop41ColorIndex
 90
       18
102
RTVSPost2010Prop41ColorRGB
 90
        0
102
RTVSPost2010PropOp41
 70
     1
102
RTVSPost2010Prop42
 90
       50
102
RTVSPost2010PropOp42
 70
     1
102
RTVSPost2010Prop43
 90
        3
102
RTVSPost2010PropOp43
 70
     1
102
RTVSPost2010Prop44ColorIndex
 90
        5
102
RTVSPost2010Prop44ColorRGB
 90
      255
102
RTVSPost2010PropOp44
 70
     1
102
RTVSPost2010Prop45
280
     0
102
RTVSPost2010PropOp45
 70
     1
102
RTVSPost2010Prop46
 90
       50
102
RTVSPost2010PropOp46
 70
     1
102
RTVSPost2010Prop47
 90
       50
102
RTVSPost2010PropOp47
 70
     1
102
RTVSPost2010Prop48
 90
       50
102
RTVSPost2010PropOp48
 70
     1
102
RTVSPost2010Prop49
280
     0
102
RTVSPost2010PropOp49
 70
     1
102
RTVSPost2010Prop50
 90
       50
102
RTVSPost2010PropOp50
 70
     1
102
RTVSPost2010Prop51ColorIndex
 90
      256
102
RTVSPost2010Prop51ColorRGB
 90
-16777216
102
RTVSPost2010PropOp51
 70
     0
102
RTVSPost2010Prop52
140
1.0
102
RTVSPost2010PropOp52
 70
     0
102
RTVSPost2010Prop53
 90
        2
102
RTVSPost2010PropOp53
 70
     1
102
RTVSPost2010Prop54
  1
strokes_ogs.tif
102
RTVSPost2010PropOp54
 70
     1
102
RTVSPost2010Prop55
280
     0
102
RTVSPost2010PropOp55
 70
     1
102
RTVSPost2010Prop56
140
1.0
102
RTVSPost2010PropOp56
 70
     1
102
RTVSPost2010Prop57
140
1.0
102
RTVSPost2010PropOp57
 70
     1
  0
XRECORD
  5
76B
102
{ACAD_REACTORS
330
76A
102
}
330
76A
100
AcDbXrecord
280
     1
102
RTVSPropertyOp0
 70
     1
102
RTVSPropertyOp1
 70
     1
102
RTVSPropertyOp2
 70
     1
102
RTVSPropertyOp3
 70
     1
102
RTVSPropertyOp4
 70
     1
102
RTVSPropertyOp5
 70
     1
102
RTVSPropertyOp6
 70
     1
102
RTVSPropertyOp7
 70
     1
102
RTVSPropertyOp8
 70
     1
102
RTVSPropertyOp9
 70
     1
102
RTVSPropertyOp10
 70
     1
102
RTVSPropertyOp11
 70
     1
102
RTVSPropertyOp12
 70
     1
102
RTVSPropertyOp13
 70
     1
102
RTVSPropertyOp14
 70
     1
102
RTVSPropertyOp15
 70
     1
102
RTVSPropertyOp16
 70
     1
102
RTVSPropertyOp17
 70
     1
102
RTVSPropertyOp18
 70
     1
102
RTVSPropertyOp19
 70
     1
102
RTVSPropertyOp20
 70
     1
102
RTVSPropertyOp21
 70
     1
102
RTVSPropertyOp22
 70
     1
102
RTVSPropertyOp23
 70
     1
102
RTVSPropertyOp24
 70
     1
102
RTVSPropertyOp25
 70
     1
102
RTVSPropertyOp26
 70
     1
102
RTVSPropertyOp27
 70
     1
102
RTVSPropertyOp28
 70
     1
102
RTVSPropertyOp29
 70
     1
102
RTVSPropertyOp30
 70
     1
102
RTVSPropertyOp31
 70
     1
102
RTVSPropertyOp32
 70
     1
102
RTVSPropertyOp33
 70
     1
102
RTVSPropertyOp34
 70
     1
102
RTVSPropertyOp35
 70
     1
102
RTVSPropertyOp36
 70
     1
102
RTVSPropertyOp37
 70
     1
102
RTVSPropertyOp38
 70
     1
102
RTVSPropertyOp39
 70
     1
102
RTVSPropertyOp40
 70
     1
102
RTVSPropertyOp41
 70
     1
102
RTVSPropertyOp42
 70
     1
102
RTVSPropertyOp43
 70
     1
102
RTVSPropertyOp44
 70
     1
102
RTVSPropertyOp45
 70
     1
102
RTVSPropertyOp46
 70
     1
102
RTVSPropertyOp47
 70
     1
102
RTVSPropertyOp48
 70
     1
102
RTVSPropertyOp49
 70
     1
102
RTVSPropertyOp50
 70
     1
102
RTVSPropertyOp51
 70
     0
102
RTVSPropertyOp52
 70
     0
102
RTVSPropertyOp53
 70
     1
102
RTVSPropertyOp54
 70
     1
102
RTVSPropertyOp55
 70
     1
102
RTVSPropertyOp56
 70
     1
102
RTVSPropertyOp57
 70
     1
102
RTVSPost2010Prop28
280
     0
102
RTVSPost2010PropOp28
 70
     1
102
RTVSPost2010Prop29
280
     1
102
RTVSPost2010PropOp29
 70
     1
102
RTVSPost2010Prop30
280
     1
102
RTVSPost2010PropOp30
 70
     1
102
RTVSPost2010Prop31
280
     0
102
RTVSPost2010PropOp31
 70
     1
102
RTVSPost2010Prop32
280
     0
102
RTVSPost2010PropOp32
 70
     1
102
RTVSPost2010Prop33
280
     0
102
RTVSPost2010PropOp33
 70
     1
102
RTVSPost2010Prop34
280
     0
102
RTVSPost2010PropOp34
 70
     1
102
RTVSPost2010Prop35
280
     0
102
RTVSPost2010PropOp35
 70
     1
102
RTVSPost2010Prop36
280
     0
102
RTVSPost2010PropOp36
 70
     1
102
RTVSPost2010Prop37
 90
       50
102
RTVSPost2010PropOp37
 70
     1
102
RTVSPost2010Prop38
140
0.0
102
RTVSPost2010PropOp38
 70
     1
102
RTVSPost2010Prop39
140
1.0
102
RTVSPost2010PropOp39
 70
     1
102
RTVSPost2010Prop40
 90
        0
102
RTVSPost2010PropOp40
 70
     1
102
RTVSPost2010Prop41ColorIndex
 90
       18
102
RTVSPost2010Prop41ColorRGB
 90
        0
102
RTVSPost2010PropOp41
 70
     1
102
RTVSPost2010Prop42
 90
       50
102
RTVSPost2010PropOp42
 70
     1
102
RTVSPost2010Prop43
 90
        3
102
RTVSPost2010PropOp43
 70
     1
102
RTVSPost2010Prop44ColorIndex
 90
        5
102
RTVSPost2010Prop44ColorRGB
 90
      255
102
RTVSPost2010PropOp44
 70
     1
102
RTVSPost2010Prop45
280
     0
102
RTVSPost2010PropOp45
 70
     1
102
RTVSPost2010Prop46
 90
       50
102
RTVSPost2010PropOp46
 70
     1
102
RTVSPost2010Prop47
 90
       50
102
RTVSPost2010PropOp47
 70
     1
102
RTVSPost2010Prop48
 90
       50
102
RTVSPost2010PropOp48
 70
     1
102
RTVSPost2010Prop49
280
     0
102
RTVSPost2010PropOp49
 70
     1
102
RTVSPost2010Prop50
 90
       50
102
RTVSPost2010PropOp50
 70
     1
102
RTVSPost2010Prop51ColorIndex
 90
      256
102
RTVSPost2010Prop51ColorRGB
 90
-16777216
102
RTVSPost2010PropOp51
 70
     0
102
RTVSPost2010Prop52
140
1.0
102
RTVSPost2010PropOp52
 70
     0
102
RTVSPost2010Prop53
 90
        2
102
RTVSPost2010PropOp53
 70
     1
102
RTVSPost2010Prop54
  1
strokes_ogs.tif
102
RTVSPost2010PropOp54
 70
     1
102
RTVSPost2010Prop55
280
     0
102
RTVSPost2010PropOp55
 70
     1
102
RTVSPost2010Prop56
140
1.0
102
RTVSPost2010PropOp56
 70
     1
102
RTVSPost2010Prop57
140
1.0
102
RTVSPost2010PropOp57
 70
     1
  0
XRECORD
  5
765
102
{ACAD_REACTORS
330
764
102
}
330
764
100
AcDbXrecord
280
     1
102
RTVSPropertyOp0
 70
     1
102
RTVSPropertyOp1
 70
     1
102
RTVSPropertyOp2
 70
     1
102
RTVSPropertyOp3
 70
     1
102
RTVSPropertyOp4
 70
     1
102
RTVSPropertyOp5
 70
     1
102
RTVSPropertyOp6
 70
     1
102
RTVSPropertyOp7
 70
     1
102
RTVSPropertyOp8
 70
     1
102
RTVSPropertyOp9
 70
     1
102
RTVSPropertyOp10
 70
     1
102
RTVSPropertyOp11
 70
     1
102
RTVSPropertyOp12
 70
     1
102
RTVSPropertyOp13
 70
     1
102
RTVSPropertyOp14
 70
     1
102
RTVSPropertyOp15
 70
     1
102
RTVSPropertyOp16
 70
     1
102
RTVSPropertyOp17
 70
     1
102
RTVSPropertyOp18
 70
     1
102
RTVSPropertyOp19
 70
     1
102
RTVSPropertyOp20
 70
     1
102
RTVSPropertyOp21
 70
     1
102
RTVSPropertyOp22
 70
     1
102
RTVSPropertyOp23
 70
     1
102
RTVSPropertyOp24
 70
     1
102
RTVSPropertyOp25
 70
     1
102
RTVSPropertyOp26
 70
     1
102
RTVSPropertyOp27
 70
     1
102
RTVSPropertyOp28
 70
     1
102
RTVSPropertyOp29
 70
     1
102
RTVSPropertyOp30
 70
     1
102
RTVSPropertyOp31
 70
     1
102
RTVSPropertyOp32
 70
     1
102
RTVSPropertyOp33
 70
     1
102
RTVSPropertyOp34
 70
     1
102
RTVSPropertyOp35
 70
     1
102
RTVSPropertyOp36
 70
     1
102
RTVSPropertyOp37
 70
     1
102
RTVSPropertyOp38
 70
     1
102
RTVSPropertyOp39
 70
     1
102
RTVSPropertyOp40
 70
     1
102
RTVSPropertyOp41
 70
     1
102
RTVSPropertyOp42
 70
     1
102
RTVSPropertyOp43
 70
     1
102
RTVSPropertyOp44
 70
     1
102
RTVSPropertyOp45
 70
     1
102
RTVSPropertyOp46
 70
     1
102
RTVSPropertyOp47
 70
     1
102
RTVSPropertyOp48
 70
     1
102
RTVSPropertyOp49
 70
     1
102
RTVSPropertyOp50
 70
     1
102
RTVSPropertyOp51
 70
     0
102
RTVSPropertyOp52
 70
     0
102
RTVSPropertyOp53
 70
     1
102
RTVSPropertyOp54
 70
     1
102
RTVSPropertyOp55
 70
     1
102
RTVSPropertyOp56
 70
     1
102
RTVSPropertyOp57
 70
     1
102
RTVSPost2010Prop28
280
     0
102
RTVSPost2010PropOp28
 70
     1
102
RTVSPost2010Prop29
280
     1
102
RTVSPost2010PropOp29
 70
     1
102
RTVSPost2010Prop30
280
     1
102
RTVSPost2010PropOp30
 70
     1
102
RTVSPost2010Prop31
280
     0
102
RTVSPost2010PropOp31
 70
     1
102
RTVSPost2010Prop32
280
     0
102
RTVSPost2010PropOp32
 70
     1
102
RTVSPost2010Prop33
280
     0
102
RTVSPost2010PropOp33
 70
     1
102
RTVSPost2010Prop34
280
     0
102
RTVSPost2010PropOp34
 70
     1
102
RTVSPost2010Prop35
280
     0
102
RTVSPost2010PropOp35
 70
     1
102
RTVSPost2010Prop36
280
     0
102
RTVSPost2010PropOp36
 70
     1
102
RTVSPost2010Prop37
 90
       50
102
RTVSPost2010PropOp37
 70
     1
102
RTVSPost2010Prop38
140
0.0
102
RTVSPost2010PropOp38
 70
     1
102
RTVSPost2010Prop39
140
1.0
102
RTVSPost2010PropOp39
 70
     1
102
RTVSPost2010Prop40
 90
        0
102
RTVSPost2010PropOp40
 70
     1
102
RTVSPost2010Prop41ColorIndex
 90
       18
102
RTVSPost2010Prop41ColorRGB
 90
        0
102
RTVSPost2010PropOp41
 70
     1
102
RTVSPost2010Prop42
 90
       50
102
RTVSPost2010PropOp42
 70
     1
102
RTVSPost2010Prop43
 90
        3
102
RTVSPost2010PropOp43
 70
     1
102
RTVSPost2010Prop44ColorIndex
 90
        5
102
RTVSPost2010Prop44ColorRGB
 90
      255
102
RTVSPost2010PropOp44
 70
     1
102
RTVSPost2010Prop45
280
     0
102
RTVSPost2010PropOp45
 70
     1
102
RTVSPost2010Prop46
 90
       50
102
RTVSPost2010PropOp46
 70
     1
102
RTVSPost2010Prop47
 90
       50
102
RTVSPost2010PropOp47
 70
     1
102
RTVSPost2010Prop48
 90
       50
102
RTVSPost2010PropOp48
 70
     1
102
RTVSPost2010Prop49
280
     0
102
RTVSPost2010PropOp49
 70
     1
102
RTVSPost2010Prop50
 90
       50
102
RTVSPost2010PropOp50
 70
     1
102
RTVSPost2010Prop51ColorIndex
 90
      256
102
RTVSPost2010Prop51ColorRGB
 90
-16777216
102
RTVSPost2010PropOp51
 70
     0
102
RTVSPost2010Prop52
140
1.0
102
RTVSPost2010PropOp52
 70
     0
102
RTVSPost2010Prop53
 90
        2
102
RTVSPost2010PropOp53
 70
     1
102
RTVSPost2010Prop54
  1
strokes_ogs.tif
102
RTVSPost2010PropOp54
 70
     1
102
RTVSPost2010Prop55
280
     0
102
RTVSPost2010PropOp55
 70
     1
102
RTVSPost2010Prop56
140
1.0
102
RTVSPost2010PropOp56
 70
     1
102
RTVSPost2010Prop57
140
1.0
102
RTVSPost2010PropOp57
 70
     1
  0
XRECORD
  5
767
102
{ACAD_REACTORS
330
766
102
}
330
766
100
AcDbXrecord
280
     1
102
RTVSPropertyOp0
 70
     1
102
RTVSPropertyOp1
 70
     1
102
RTVSPropertyOp2
 70
     1
102
RTVSPropertyOp3
 70
     1
102
RTVSPropertyOp4
 70
     1
102
RTVSPropertyOp5
 70
     1
102
RTVSPropertyOp6
 70
     1
102
RTVSPropertyOp7
 70
     1
102
RTVSPropertyOp8
 70
     1
102
RTVSPropertyOp9
 70
     1
102
RTVSPropertyOp10
 70
     1
102
RTVSPropertyOp11
 70
     1
102
RTVSPropertyOp12
 70
     1
102
RTVSPropertyOp13
 70
     1
102
RTVSPropertyOp14
 70
     1
102
RTVSPropertyOp15
 70
     1
102
RTVSPropertyOp16
 70
     1
102
RTVSPropertyOp17
 70
     1
102
RTVSPropertyOp18
 70
     1
102
RTVSPropertyOp19
 70
     1
102
RTVSPropertyOp20
 70
     1
102
RTVSPropertyOp21
 70
     1
102
RTVSPropertyOp22
 70
     1
102
RTVSPropertyOp23
 70
     1
102
RTVSPropertyOp24
 70
     1
102
RTVSPropertyOp25
 70
     1
102
RTVSPropertyOp26
 70
     1
102
RTVSPropertyOp27
 70
     1
102
RTVSPropertyOp28
 70
     1
102
RTVSPropertyOp29
 70
     1
102
RTVSPropertyOp30
 70
     1
102
RTVSPropertyOp31
 70
     1
102
RTVSPropertyOp32
 70
     1
102
RTVSPropertyOp33
 70
     1
102
RTVSPropertyOp34
 70
     1
102
RTVSPropertyOp35
 70
     1
102
RTVSPropertyOp36
 70
     1
102
RTVSPropertyOp37
 70
     1
102
RTVSPropertyOp38
 70
     1
102
RTVSPropertyOp39
 70
     1
102
RTVSPropertyOp40
 70
     1
102
RTVSPropertyOp41
 70
     1
102
RTVSPropertyOp42
 70
     1
102
RTVSPropertyOp43
 70
     1
102
RTVSPropertyOp44
 70
     1
102
RTVSPropertyOp45
 70
     1
102
RTVSPropertyOp46
 70
     1
102
RTVSPropertyOp47
 70
     1
102
RTVSPropertyOp48
 70
     1
102
RTVSPropertyOp49
 70
     1
102
RTVSPropertyOp50
 70
     1
102
RTVSPropertyOp51
 70
     0
102
RTVSPropertyOp52
 70
     0
102
RTVSPropertyOp53
 70
     1
102
RTVSPropertyOp54
 70
     1
102
RTVSPropertyOp55
 70
     1
102
RTVSPropertyOp56
 70
     1
102
RTVSPropertyOp57
 70
     1
102
RTVSPost2010Prop28
280
     0
102
RTVSPost2010PropOp28
 70
     1
102
RTVSPost2010Prop29
280
     1
102
RTVSPost2010PropOp29
 70
     1
102
RTVSPost2010Prop30
280
     1
102
RTVSPost2010PropOp30
 70
     1
102
RTVSPost2010Prop31
280
     0
102
RTVSPost2010PropOp31
 70
     1
102
RTVSPost2010Prop32
280
     0
102
RTVSPost2010PropOp32
 70
     1
102
RTVSPost2010Prop33
280
     0
102
RTVSPost2010PropOp33
 70
     1
102
RTVSPost2010Prop34
280
     0
102
RTVSPost2010PropOp34
 70
     1
102
RTVSPost2010Prop35
280
     0
102
RTVSPost2010PropOp35
 70
     1
102
RTVSPost2010Prop36
280
     0
102
RTVSPost2010PropOp36
 70
     1
102
RTVSPost2010Prop37
 90
       50
102
RTVSPost2010PropOp37
 70
     1
102
RTVSPost2010Prop38
140
0.0
102
RTVSPost2010PropOp38
 70
     1
102
RTVSPost2010Prop39
140
1.0
102
RTVSPost2010PropOp39
 70
     1
102
RTVSPost2010Prop40
 90
        0
102
RTVSPost2010PropOp40
 70
     1
102
RTVSPost2010Prop41ColorIndex
 90
       18
102
RTVSPost2010Prop41ColorRGB
 90
        0
102
RTVSPost2010PropOp41
 70
     1
102
RTVSPost2010Prop42
 90
       50
102
RTVSPost2010PropOp42
 70
     1
102
RTVSPost2010Prop43
 90
        3
102
RTVSPost2010PropOp43
 70
     1
102
RTVSPost2010Prop44ColorIndex
 90
        5
102
RTVSPost2010Prop44ColorRGB
 90
      255
102
RTVSPost2010PropOp44
 70
     1
102
RTVSPost2010Prop45
280
     0
102
RTVSPost2010PropOp45
 70
     1
102
RTVSPost2010Prop46
 90
       50
102
RTVSPost2010PropOp46
 70
     1
102
RTVSPost2010Prop47
 90
       50
102
RTVSPost2010PropOp47
 70
     1
102
RTVSPost2010Prop48
 90
       50
102
RTVSPost2010PropOp48
 70
     1
102
RTVSPost2010Prop49
280
     0
102
RTVSPost2010PropOp49
 70
     1
102
RTVSPost2010Prop50
 90
       50
102
RTVSPost2010PropOp50
 70
     1
102
RTVSPost2010Prop51ColorIndex
 90
      256
102
RTVSPost2010Prop51ColorRGB
 90
-16777216
102
RTVSPost2010PropOp51
 70
     0
102
RTVSPost2010Prop52
140
1.0
102
RTVSPost2010PropOp52
 70
     0
102
RTVSPost2010Prop53
 90
        2
102
RTVSPost2010PropOp53
 70
     1
102
RTVSPost2010Prop54
  1
strokes_ogs.tif
102
RTVSPost2010PropOp54
 70
     1
102
RTVSPost2010Prop55
280
     0
102
RTVSPost2010PropOp55
 70
     1
102
RTVSPost2010Prop56
140
1.0
102
RTVSPost2010PropOp56
 70
     1
102
RTVSPost2010Prop57
140
1.0
102
RTVSPost2010PropOp57
 70
     1
  0
XRECORD
  5
757
102
{ACAD_REACTORS
330
756
102
}
330
756
100
AcDbXrecord
280
     1
102
RTVSPropertyOp0
 70
     1
102
RTVSPropertyOp1
 70
     1
102
RTVSPropertyOp2
 70
     1
102
RTVSPropertyOp3
 70
     1
102
RTVSPropertyOp4
 70
     1
102
RTVSPropertyOp5
 70
     1
102
RTVSPropertyOp6
 70
     1
102
RTVSPropertyOp7
 70
     1
102
RTVSPropertyOp8
 70
     1
102
RTVSPropertyOp9
 70
     1
102
RTVSPropertyOp10
 70
     1
102
RTVSPropertyOp11
 70
     1
102
RTVSPropertyOp12
 70
     1
102
RTVSPropertyOp13
 70
     1
102
RTVSPropertyOp14
 70
     1
102
RTVSPropertyOp15
 70
     1
102
RTVSPropertyOp16
 70
     1
102
RTVSPropertyOp17
 70
     1
102
RTVSPropertyOp18
 70
     1
102
RTVSPropertyOp19
 70
     1
102
RTVSPropertyOp20
 70
     1
102
RTVSPropertyOp21
 70
     1
102
RTVSPropertyOp22
 70
     1
102
RTVSPropertyOp23
 70
     1
102
RTVSPropertyOp24
 70
     1
102
RTVSPropertyOp25
 70
     1
102
RTVSPropertyOp26
 70
     1
102
RTVSPropertyOp27
 70
     1
102
RTVSPropertyOp28
 70
     1
102
RTVSPropertyOp29
 70
     1
102
RTVSPropertyOp30
 70
     1
102
RTVSPropertyOp31
 70
     1
102
RTVSPropertyOp32
 70
     1
102
RTVSPropertyOp33
 70
     1
102
RTVSPropertyOp34
 70
     1
102
RTVSPropertyOp35
 70
     1
102
RTVSPropertyOp36
 70
     1
102
RTVSPropertyOp37
 70
     1
102
RTVSPropertyOp38
 70
     1
102
RTVSPropertyOp39
 70
     1
102
RTVSPropertyOp40
 70
     1
102
RTVSPropertyOp41
 70
     1
102
RTVSPropertyOp42
 70
     1
102
RTVSPropertyOp43
 70
     1
102
RTVSPropertyOp44
 70
     1
102
RTVSPropertyOp45
 70
     1
102
RTVSPropertyOp46
 70
     1
102
RTVSPropertyOp47
 70
     1
102
RTVSPropertyOp48
 70
     1
102
RTVSPropertyOp49
 70
     1
102
RTVSPropertyOp50
 70
     1
102
RTVSPropertyOp51
 70
     0
102
RTVSPropertyOp52
 70
     0
102
RTVSPropertyOp53
 70
     1
102
RTVSPropertyOp54
 70
     1
102
RTVSPropertyOp55
 70
     1
102
RTVSPropertyOp56
 70
     1
102
RTVSPropertyOp57
 70
     1
102
RTVSPost2010Prop28
280
     0
102
RTVSPost2010PropOp28
 70
     1
102
RTVSPost2010Prop29
280
     1
102
RTVSPost2010PropOp29
 70
     1
102
RTVSPost2010Prop30
280
     1
102
RTVSPost2010PropOp30
 70
     1
102
RTVSPost2010Prop31
280
     0
102
RTVSPost2010PropOp31
 70
     1
102
RTVSPost2010Prop32
280
     0
102
RTVSPost2010PropOp32
 70
     1
102
RTVSPost2010Prop33
280
     0
102
RTVSPost2010PropOp33
 70
     1
102
RTVSPost2010Prop34
280
     0
102
RTVSPost2010PropOp34
 70
     1
102
RTVSPost2010Prop35
280
     0
102
RTVSPost2010PropOp35
 70
     1
102
RTVSPost2010Prop36
280
     0
102
RTVSPost2010PropOp36
 70
     1
102
RTVSPost2010Prop37
 90
       50
102
RTVSPost2010PropOp37
 70
     1
102
RTVSPost2010Prop38
140
0.0
102
RTVSPost2010PropOp38
 70
     1
102
RTVSPost2010Prop39
140
1.0
102
RTVSPost2010PropOp39
 70
     1
102
RTVSPost2010Prop40
 90
        0
102
RTVSPost2010PropOp40
 70
     1
102
RTVSPost2010Prop41ColorIndex
 90
       18
102
RTVSPost2010Prop41ColorRGB
 90
        0
102
RTVSPost2010PropOp41
 70
     1
102
RTVSPost2010Prop42
 90
       50
102
RTVSPost2010PropOp42
 70
     1
102
RTVSPost2010Prop43
 90
        3
102
RTVSPost2010PropOp43
 70
     1
102
RTVSPost2010Prop44ColorIndex
 90
        5
102
RTVSPost2010Prop44ColorRGB
 90
      255
102
RTVSPost2010PropOp44
 70
     1
102
RTVSPost2010Prop45
280
     0
102
RTVSPost2010PropOp45
 70
     1
102
RTVSPost2010Prop46
 90
       50
102
RTVSPost2010PropOp46
 70
     1
102
RTVSPost2010Prop47
 90
       50
102
RTVSPost2010PropOp47
 70
     1
102
RTVSPost2010Prop48
 90
       50
102
RTVSPost2010PropOp48
 70
     1
102
RTVSPost2010Prop49
280
     0
102
RTVSPost2010PropOp49
 70
     1
102
RTVSPost2010Prop50
 90
       50
102
RTVSPost2010PropOp50
 70
     1
102
RTVSPost2010Prop51ColorIndex
 90
      256
102
RTVSPost2010Prop51ColorRGB
 90
-16777216
102
RTVSPost2010PropOp51
 70
     0
102
RTVSPost2010Prop52
140
1.0
102
RTVSPost2010PropOp52
 70
     0
102
RTVSPost2010Prop53
 90
        2
102
RTVSPost2010PropOp53
 70
     1
102
RTVSPost2010Prop54
  1
strokes_ogs.tif
102
RTVSPost2010PropOp54
 70
     1
102
RTVSPost2010Prop55
280
     0
102
RTVSPost2010PropOp55
 70
     1
102
RTVSPost2010Prop56
140
1.0
102
RTVSPost2010PropOp56
 70
     1
102
RTVSPost2010Prop57
140
1.0
102
RTVSPost2010PropOp57
 70
     1
  0
XRECORD
  5
749
102
{ACAD_REACTORS
330
748
102
}
330
748
100
AcDbXrecord
280
     1
102
RTVSPropertyOp0
 70
     1
102
RTVSPropertyOp1
 70
     1
102
RTVSPropertyOp2
 70
     1
102
RTVSPropertyOp3
 70
     1
102
RTVSPropertyOp4
 70
     1
102
RTVSPropertyOp5
 70
     1
102
RTVSPropertyOp6
 70
     1
102
RTVSPropertyOp7
 70
     1
102
RTVSPropertyOp8
 70
     1
102
RTVSPropertyOp9
 70
     1
102
RTVSPropertyOp10
 70
     1
102
RTVSPropertyOp11
 70
     1
102
RTVSPropertyOp12
 70
     1
102
RTVSPropertyOp13
 70
     1
102
RTVSPropertyOp14
 70
     1
102
RTVSPropertyOp15
 70
     1
102
RTVSPropertyOp16
 70
     1
102
RTVSPropertyOp17
 70
     1
102
RTVSPropertyOp18
 70
     1
102
RTVSPropertyOp19
 70
     1
102
RTVSPropertyOp20
 70
     1
102
RTVSPropertyOp21
 70
     1
102
RTVSPropertyOp22
 70
     1
102
RTVSPropertyOp23
 70
     1
102
RTVSPropertyOp24
 70
     1
102
RTVSPropertyOp25
 70
     1
102
RTVSPropertyOp26
 70
     1
102
RTVSPropertyOp27
 70
     1
102
RTVSPropertyOp28
 70
     1
102
RTVSPropertyOp29
 70
     1
102
RTVSPropertyOp30
 70
     1
102
RTVSPropertyOp31
 70
     1
102
RTVSPropertyOp32
 70
     1
102
RTVSPropertyOp33
 70
     1
102
RTVSPropertyOp34
 70
     1
102
RTVSPropertyOp35
 70
     1
102
RTVSPropertyOp36
 70
     1
102
RTVSPropertyOp37
 70
     1
102
RTVSPropertyOp38
 70
     1
102
RTVSPropertyOp39
 70
     1
102
RTVSPropertyOp40
 70
     1
102
RTVSPropertyOp41
 70
     1
102
RTVSPropertyOp42
 70
     1
102
RTVSPropertyOp43
 70
     1
102
RTVSPropertyOp44
 70
     1
102
RTVSPropertyOp45
 70
     1
102
RTVSPropertyOp46
 70
     1
102
RTVSPropertyOp47
 70
     1
102
RTVSPropertyOp48
 70
     1
102
RTVSPropertyOp49
 70
     1
102
RTVSPropertyOp50
 70
     1
102
RTVSPropertyOp51
 70
     0
102
RTVSPropertyOp52
 70
     0
102
RTVSPropertyOp53
 70
     1
102
RTVSPropertyOp54
 70
     1
102
RTVSPropertyOp55
 70
     1
102
RTVSPropertyOp56
 70
     1
102
RTVSPropertyOp57
 70
     1
102
RTVSPost2010Prop28
280
     0
102
RTVSPost2010PropOp28
 70
     1
102
RTVSPost2010Prop29
280
     1
102
RTVSPost2010PropOp29
 70
     1
102
RTVSPost2010Prop30
280
     1
102
RTVSPost2010PropOp30
 70
     1
102
RTVSPost2010Prop31
280
     0
102
RTVSPost2010PropOp31
 70
     1
102
RTVSPost2010Prop32
280
     0
102
RTVSPost2010PropOp32
 70
     1
102
RTVSPost2010Prop33
280
     0
102
RTVSPost2010PropOp33
 70
     1
102
RTVSPost2010Prop34
280
     0
102
RTVSPost2010PropOp34
 70
     1
102
RTVSPost2010Prop35
280
     0
102
RTVSPost2010PropOp35
 70
     1
102
RTVSPost2010Prop36
280
     0
102
RTVSPost2010PropOp36
 70
     1
102
RTVSPost2010Prop37
 90
       50
102
RTVSPost2010PropOp37
 70
     1
102
RTVSPost2010Prop38
140
0.0
102
RTVSPost2010PropOp38
 70
     1
102
RTVSPost2010Prop39
140
1.0
102
RTVSPost2010PropOp39
 70
     1
102
RTVSPost2010Prop40
 90
        0
102
RTVSPost2010PropOp40
 70
     1
102
RTVSPost2010Prop41ColorIndex
 90
       18
102
RTVSPost2010Prop41ColorRGB
 90
        0
102
RTVSPost2010PropOp41
 70
     1
102
RTVSPost2010Prop42
 90
       50
102
RTVSPost2010PropOp42
 70
     1
102
RTVSPost2010Prop43
 90
        3
102
RTVSPost2010PropOp43
 70
     1
102
RTVSPost2010Prop44ColorIndex
 90
        5
102
RTVSPost2010Prop44ColorRGB
 90
      255
102
RTVSPost2010PropOp44
 70
     1
102
RTVSPost2010Prop45
280
     0
102
RTVSPost2010PropOp45
 70
     1
102
RTVSPost2010Prop46
 90
       50
102
RTVSPost2010PropOp46
 70
     1
102
RTVSPost2010Prop47
 90
       50
102
RTVSPost2010PropOp47
 70
     1
102
RTVSPost2010Prop48
 90
       50
102
RTVSPost2010PropOp48
 70
     1
102
RTVSPost2010Prop49
280
     0
102
RTVSPost2010PropOp49
 70
     1
102
RTVSPost2010Prop50
 90
       50
102
RTVSPost2010PropOp50
 70
     1
102
RTVSPost2010Prop51ColorIndex
 90
      256
102
RTVSPost2010Prop51ColorRGB
 90
-16777216
102
RTVSPost2010PropOp51
 70
     0
102
RTVSPost2010Prop52
140
1.0
102
RTVSPost2010PropOp52
 70
     0
102
RTVSPost2010Prop53
 90
        2
102
RTVSPost2010PropOp53
 70
     1
102
RTVSPost2010Prop54
  1
strokes_ogs.tif
102
RTVSPost2010PropOp54
 70
     1
102
RTVSPost2010Prop55
280
     0
102
RTVSPost2010PropOp55
 70
     1
102
RTVSPost2010Prop56
140
1.0
102
RTVSPost2010PropOp56
 70
     1
102
RTVSPost2010Prop57
140
1.0
102
RTVSPost2010PropOp57
 70
     1
  0
XRECORD
  5
769
102
{ACAD_REACTORS
330
768
102
}
330
768
100
AcDbXrecord
280
     1
102
RTVSPropertyOp0
 70
     1
102
RTVSPropertyOp1
 70
     1
102
RTVSPropertyOp2
 70
     1
102
RTVSPropertyOp3
 70
     1
102
RTVSPropertyOp4
 70
     1
102
RTVSPropertyOp5
 70
     1
102
RTVSPropertyOp6
 70
     1
102
RTVSPropertyOp7
 70
     1
102
RTVSPropertyOp8
 70
     1
102
RTVSPropertyOp9
 70
     1
102
RTVSPropertyOp10
 70
     1
102
RTVSPropertyOp11
 70
     1
102
RTVSPropertyOp12
 70
     1
102
RTVSPropertyOp13
 70
     1
102
RTVSPropertyOp14
 70
     1
102
RTVSPropertyOp15
 70
     1
102
RTVSPropertyOp16
 70
     1
102
RTVSPropertyOp17
 70
     1
102
RTVSPropertyOp18
 70
     1
102
RTVSPropertyOp19
 70
     1
102
RTVSPropertyOp20
 70
     1
102
RTVSPropertyOp21
 70
     1
102
RTVSPropertyOp22
 70
     1
102
RTVSPropertyOp23
 70
     1
102
RTVSPropertyOp24
 70
     1
102
RTVSPropertyOp25
 70
     1
102
RTVSPropertyOp26
 70
     1
102
RTVSPropertyOp27
 70
     1
102
RTVSPropertyOp28
 70
     1
102
RTVSPropertyOp29
 70
     1
102
RTVSPropertyOp30
 70
     1
102
RTVSPropertyOp31
 70
     1
102
RTVSPropertyOp32
 70
     1
102
RTVSPropertyOp33
 70
     1
102
RTVSPropertyOp34
 70
     1
102
RTVSPropertyOp35
 70
     1
102
RTVSPropertyOp36
 70
     1
102
RTVSPropertyOp37
 70
     1
102
RTVSPropertyOp38
 70
     1
102
RTVSPropertyOp39
 70
     1
102
RTVSPropertyOp40
 70
     1
102
RTVSPropertyOp41
 70
     1
102
RTVSPropertyOp42
 70
     1
102
RTVSPropertyOp43
 70
     1
102
RTVSPropertyOp44
 70
     1
102
RTVSPropertyOp45
 70
     1
102
RTVSPropertyOp46
 70
     1
102
RTVSPropertyOp47
 70
     1
102
RTVSPropertyOp48
 70
     1
102
RTVSPropertyOp49
 70
     1
102
RTVSPropertyOp50
 70
     1
102
RTVSPropertyOp51
 70
     0
102
RTVSPropertyOp52
 70
     0
102
RTVSPropertyOp53
 70
     1
102
RTVSPropertyOp54
 70
     1
102
RTVSPropertyOp55
 70
     1
102
RTVSPropertyOp56
 70
     1
102
RTVSPropertyOp57
 70
     1
102
RTVSPost2010Prop28
280
     0
102
RTVSPost2010PropOp28
 70
     1
102
RTVSPost2010Prop29
280
     1
102
RTVSPost2010PropOp29
 70
     1
102
RTVSPost2010Prop30
280
     1
102
RTVSPost2010PropOp30
 70
     1
102
RTVSPost2010Prop31
280
     0
102
RTVSPost2010PropOp31
 70
     1
102
RTVSPost2010Prop32
280
     0
102
RTVSPost2010PropOp32
 70
     1
102
RTVSPost2010Prop33
280
     0
102
RTVSPost2010PropOp33
 70
     1
102
RTVSPost2010Prop34
280
     0
102
RTVSPost2010PropOp34
 70
     1
102
RTVSPost2010Prop35
280
     0
102
RTVSPost2010PropOp35
 70
     1
102
RTVSPost2010Prop36
280
     0
102
RTVSPost2010PropOp36
 70
     1
102
RTVSPost2010Prop37
 90
       50
102
RTVSPost2010PropOp37
 70
     1
102
RTVSPost2010Prop38
140
0.0
102
RTVSPost2010PropOp38
 70
     1
102
RTVSPost2010Prop39
140
1.0
102
RTVSPost2010PropOp39
 70
     1
102
RTVSPost2010Prop40
 90
        0
102
RTVSPost2010PropOp40
 70
     1
102
RTVSPost2010Prop41ColorIndex
 90
       18
102
RTVSPost2010Prop41ColorRGB
 90
        0
102
RTVSPost2010PropOp41
 70
     1
102
RTVSPost2010Prop42
 90
       50
102
RTVSPost2010PropOp42
 70
     1
102
RTVSPost2010Prop43
 90
        3
102
RTVSPost2010PropOp43
 70
     1
102
RTVSPost2010Prop44ColorIndex
 90
        5
102
RTVSPost2010Prop44ColorRGB
 90
      255
102
RTVSPost2010PropOp44
 70
     1
102
RTVSPost2010Prop45
280
     0
102
RTVSPost2010PropOp45
 70
     1
102
RTVSPost2010Prop46
 90
       50
102
RTVSPost2010PropOp46
 70
     1
102
RTVSPost2010Prop47
 90
       50
102
RTVSPost2010PropOp47
 70
     1
102
RTVSPost2010Prop48
 90
       50
102
RTVSPost2010PropOp48
 70
     1
102
RTVSPost2010Prop49
280
     0
102
RTVSPost2010PropOp49
 70
     1
102
RTVSPost2010Prop50
 90
       50
102
RTVSPost2010PropOp50
 70
     1
102
RTVSPost2010Prop51ColorIndex
 90
      256
102
RTVSPost2010Prop51ColorRGB
 90
-16777216
102
RTVSPost2010PropOp51
 70
     0
102
RTVSPost2010Prop52
140
1.0
102
RTVSPost2010PropOp52
 70
     0
102
RTVSPost2010Prop53
 90
        2
102
RTVSPost2010PropOp53
 70
     1
102
RTVSPost2010Prop54
  1
strokes_ogs.tif
102
RTVSPost2010PropOp54
 70
     1
102
RTVSPost2010Prop55
280
     0
102
RTVSPost2010PropOp55
 70
     1
102
RTVSPost2010Prop56
140
1.0
102
RTVSPost2010PropOp56
 70
     1
102
RTVSPost2010Prop57
140
1.0
102
RTVSPost2010PropOp57
 70
     1
  0
ENDSEC
  0
SECTION
  2
THUMBNAILIMAGE
 90
    16364
310
28000000B4000000550000000100080000000000C43B000000000000000000000001000000010000FFFFFF000000FF0000FFFF0000FF0000FFFF0000FF000000FF00FF000000000080808000C0C0C0000000FF007F7FFF000000A5005252A50000007F003F3F7F0000004C0026264C000000260013132600003FFF007F9FFF
310
000029A5005267A500001F7F003F4F7F0000134C00262F4C000009260013172600007FFF007FBFFF000052A500527CA500003F7F003F5F7F0000264C0026394C0000132600131C260000BFFF007FDFFF00007CA5005291A500005F7F003F6F7F0000394C0026424C00001C26001321260000FFFF007FFFFF0000A5A50052A5
310
A500007F7F003F7F7F00004C4C00264C4C00002626001326260000FFBF007FFFDF0000A57C0052A59100007F5F003F7F6F00004C3900264C420000261C001326210000FF7F007FFFBF0000A5520052A57C00007F3F003F7F5F00004C2600264C39000026130013261C0000FF3F007FFF9F0000A5290052A56700007F1F003F
310
7F4F00004C1300264C2F00002609001326170000FF00007FFF7F0000A5000052A55200007F00003F7F3F00004C0000264C260000260000132613003FFF00009FFF7F0029A5000067A552001F7F00004F7F3F00134C00002F4C260009260000172613007FFF0000BFFF7F0052A500007CA552003F7F00005F7F3F00264C0000
310
394C2600132600001C261300BFFF0000DFFF7F007CA5000091A552005F7F00006F7F3F00394C0000424C26001C26000021261300FFFF0000FFFF7F00A5A50000A5A552007F7F00007F7F3F004C4C00004C4C26002626000026261300FFBF0000FFDF7F00A57C0000A59152007F5F00007F6F3F004C3900004C422600261C00
310
0026211300FF7F0000FFBF7F00A5520000A57C52007F3F00007F5F3F004C2600004C39260026130000261C1300FF3F0000FF9F7F00A5290000A56752007F1F00007F4F3F004C1300004C2F26002609000026171300FF000000FF7F7F00A5000000A55252007F0000007F3F3F004C0000004C2626002600000026131300FF00
310
3F00FF7F9F00A5002900A55267007F001F007F3F4F004C0013004C262F002600090026131700FF007F00FF7FBF00A5005200A5527C007F003F007F3F5F004C0026004C2639002600130026131C00FF00BF00FF7FDF00A5007C00A55291007F005F007F3F6F004C0039004C26420026001C0026132100FF00FF00FF7FFF00A5
310
00A500A552A5007F007F007F3F7F004C004C004C264C002600260026132600BF00FF00DF7FFF007C00A5009152A5005F007F006F3F7F0039004C0042264C001C002600211326007F00FF00BF7FFF005200A5007C52A5003F007F005F3F7F0026004C0039264C00130026001C1326003F00FF009F7FFF002900A5006752A500
310
1F007F004F3F7F0013004C002F264C000900260017132600000000002D2D2D005B5B5B0089898900B7B7B700B3B3B30000000000000000000000000000000000000000000000000000000000000000000000000000000000000000000000000000000000000000000000000000000000000000000000000000000000000000
310
00000000000000000000000000000000000000000000000000000000000000000000000000000000000000000000000000000000000000000000000000000000000000000000000000000000000000000000000000000000000000000000000000000000000000000000000000000000000000000000000000000000000000
310
00000000000000000000000000000000000000000000000000000000000000000000000000000000000000000000000000000000000000000000000000000000000000000000000000000000000000000000000000000000000000000000000000000000000000000000000000000000000000000000000000000000000000
310
00000000000000000000000000000000000000000000000000000000000000000000000000000000000000000000000000000000000000000000000000000000000000000000000000000000000000000000000000000000000000000000000000000000000000000000000000000000000000000000000000000000000000
310
00000000000000000000000000000000000000000000000000000000000000000000000000000000000000000000000000000000000000000000000000000000000000000000000000000000000000000000000000000000000000000000000000000000000000000000000000000000000000000000000000000000000000
310
00000000000000000000000000000000000000000000000000000000000000000000000000000000000000000000000000000000000000000000000000000000000000000000000000000000000000000000000000000000000000000000000000000000000000000000000000000000000000000000000000000000000000
310
00000000000000000000000000000000000000000000000000000000000000000000000000000000000000000000000000000000000000000000000000000000000000000000000000000000000000000000000000000000000000000000000000000000000000000000000000000000000000000000000000000000000000
310
00000000000000000000000000000000000000000000000000000000000000000000000000000000000000000000000000000000000000000000000000000000000000000000000000000000000000000000000000000000000000000000000000000000000000000000000000000000000000000000000000000000000000
310
00000000000000000000000000000000000000000000000000000000000000000000000000000000000000000000000000000000000000000000000000000000000000000000000000000000000000000000000000000000000000000000000000000000000000000000000000000000000000000000000000000000000000
310
00000000000000000000000000000000000000000000000000000000000000000000000000000000000000000000000000000000000000000000000000000000000000000000000000000000000000000000000000000000000000000000000000000000000000000000000000000000000000000000000000000000000000
310
00000000000000000000000000000000000000000000000000000000000000000000000000000000000000000000000000000000000000000000000000000000000000000000000000000000000000000000000000000000000000000000000000000000000000000000000000000000000000000000000000000000000000
310
00000000000000000000000000000000000000000000000000000000000000000000000000000000000000000000000000000000000000000000000000000000000000000000000000000000000000000000000000000000000000000000000000000000000000000000000000000000000000000000000000000000000000
310
00000000000000000000000000000000000000000000000000000000000000000000000000000000000000000000000000000000000000000000000000000000000000000000000000000000000000000000000000000000000000000000000000000000000000000000000000000000000000000000000000000000000000
310
00000000000000000000000000000000000000000000000000000000000000000000000000000000000000000000000000000000000000000000000000000000000000000000000000000000000000000000000000000000000000000000000000000000000000000000000000000000000000000000000000000000000000
310
00000000000000000000000000000000000000000000000000000000000000000000000000000000000000000000000000000000000000000000000000000000000000000000000000000000000000000000000000000000000000000000000000000000000000000000000000000000000000000100000000000000000000
310
00000000000000000000000000000000000000000000000000000000000000000000000000000000000000000000000000000000000000000000000000000000000000000000000000000000000000000000000000000000000000000000000000000000000000000000000000000000000000000000000000000000000000
310
00000000000000000000000000000000000000000000000000000000000000000000000000000000000303030300000000000000000000000000000000000000000000000000000000000000000000000000000000000000000000000000000000000000000000000000000000000000000000000000000000000000000000
310
00000000000000000000000000000000000000000000000000000000000000000000000000000000000000000000000000000000000000000000000000000000000000000000000000000000000000000000000000000000000000000001010101010100000000000000000000000000000000000000000000000000000000
310
00000000000000000000000000000000000000000000000000000000000000000000000000000000000000000000000000000000000000000000000000000000000000000000000000000000000000000000000000000000000000000000000000000000000000000000000000000000000000000000000000000000000000
310
00000000000000000000000000000000000000030301030300000000000000000000000000000000000000000000000000000000000000000000000000000000000000000000000000000000000000000000000000000000000000000000000000000000000000000000000000000000000000000000000000000000000000
310
00000000000000000000000000000000000000000000000000000000000000000000000000000000000000000000000000000000000000000000000000000000000000000000000000030303000000000000000000000000000000000000000000000000000000000000000000000000000000000000000000000000000000
310
00000000000000000000000000000000000000000000000000000000000000000000000000000000000000000000000000000000000000000000000000000000000000000000000000000000000000000000000000000000000000000000000000000000000000000000000000000000000000000000000000000000000000
310
01000000000000000000000000000000000000000000000000000000000000000000000000000000000000000000000000000000000000000000000000000000000000000000000000000000000000000000000000000000000000000000000000000000000000000000000000000000000000000000000000000000000000
310
00000000000000000000000000000000000000000000000000000000000000000000000000000000000000000000000000000000000000000000000000000000000000000000000000000002020202020000000000000000000000000000000000000000000000000000000000000000000000000000000000000000000000
310
00000000000000000000000000000000000000000000000000000000000000000000000000000000000000000000000000000000000000000000000000000000000000000000000000000000000000000000000000000000000000000000000000000000000000000303030303000000000000000000000000000000000000
310
00000000000000000000000000000000000000000000000003030303030000000000000000000000000000000000000000000000000000000000000000000000000000000000000000000000000000000000000000000000000000000000000000000000000000000000000000000000000000000000000000000000000000
310
00000000000000000000000000000000000000000000000000000000000003000303030000000000000000000000000000000000000000000000000000000000000000000000000000000000000303010003000000000000000000000000000000000000000000000000000000000000000000000000000000000000000000
310
00000000000000000000000000000000000000000000000000000000000000000000000000000000000000000000000000000000000000000000000000000000000000000000000000000000000000000000000300030303000000000000000000000000000000000000000000000000000000000000000000000000000000
310
00000003030100030000000000000000000000000000000000000000000000000000000000000000000000000000000000000000000000000000000000000000000000000000000000000000000000000000000000000000000000000000000000000000000000000000000000000000000000000000000000000000000000
310
00000000000100000003000303030000000000000000000001000000000000000000000000000000000000000000010000000000000000000303010003000000000000000000000100000000000000000000000000000000000000000000000000000000000000000000000000000000000000000000000000000000000000
310
00000000000000000000000000000000000000000000000000000000000000000000000000000000000000000000000000000000000000000303010303030303030303000000000000030303030103030300000000000000000000000000000000000301030303030300000000030301000300000000030303030303030300
310
00000000000000000000000000000000000000000000000000000000000000000000000000000000000000000000000000000000000000000000000000000000000000000000000000000000000000000000000000000000000000000000000000000000000000000000000000030001000000000303030300000000000003
310
00000001000003000000000000000000000000000000000003010000000003000000000303010003000000000300000303030303000000000000000000000000000000000000000000000000000000000000000000000000000000000000000000000000000000000000000000000000000000000000000000000000000000
310
00000000000000000000000000000000000000000000000000000000000000000000000303010303030303030303010303030303030303030103030300000000000000000000000000000000000301030303030300000303030303030303030300030303030303030300000000000000000000000000000000000000000000
310
00000000000000000000000000000000000000000000000000000000000000000000000000000000000000000000000000000000000000000000000000000000000000000000000000000000000000000000000000000303030301000000030301030301030304010403030000010303030403000000000000000000000000
310
00000003010000000003030303010404030401030403030303030300000103000000000000000000000000000000000000000000000000000000000000000000000000000000000000000000000000000000000000000000000000000000000000000000000000000000000000000000000000000000000000000000000000
310
00000000000000000000000101010000000000000303010000010100000100030300000000000101010000000000000000000000000000000300000000000000000001000001000101000303030303030300010300000000000000000000000000000000000000000000000000000000000000000000000000000000000000
310
00000000000000000000000000000000000000000000000000000000000000000000000000000000000000000000000000000000000000000003030000030303030303000000000000030301000000010000000003030000000000000403000000000000000000000000000000030300000000000000000000000100000000
310
03030001030303000303000000000000000000000000000000000000000000000000000000000000000000000000000000000000000000000000000000000000000000000000000000000000000000000000000000000000000000000000000000000000000000000000000000010303010103010103030301010101010303
310
03010101010101010101030301010101010104030000000000000000000000000000000303000000000000000000000001000000010301010101030300030300000000000000000000000000000000000000000000000000000000000000000000000000000000000000000000000000000000000000000000000000000000
310
00000000000000000000000000000000000000000000000000000000000000000000000003030000030303030303000000000000000001000000010000000001000000000000000403000000000000000000000000000000030000000000000000000000000100000000030300010303030003030000000000000000000000
310
00000000000000000000000000000000000000000000000000000000000000000000000000000000000000000000000000000000000000000000000000000000000000000000000000000000000000000000000000000000000001000000000001030100000000000000000100000001000000000100000000000001010100
310
00000000000000000000000000000300000000000000000000000001000000000303030303030300030300000000000000000000000000000000000000000000000000000000000000000000000000000000000000000000000000000000000000000000000000000000000000000000000000000000000000000000000000
310
00000000000000000000000000000000000000000000030303000000000000000001000000010000000001000000000000000403000000000000000000000000000000030000000000000000000000000303030303030303030303000003030000000000000000000000000000000000000000000000000000000000000000
310
00000000000000000000000000000000000000000000000000000000000000000000000000000000000000000000000000000000000000000000000000000000000000000000000000000000000300000000000000000100000001000000000100000000000000030000000000000000000000000000000003000000000000
310
00000000000001000000000000000100000000010300000000000000000000000000000000000000000000000000000000000000000000000000000000000000000000000000000000000000000000000000000000000000000000000000000000000000000000000000000000000000000000000000000000000000000000
310
00000003010000000000010001000000010000000001010000000000010300000000000000000000000000000000030000010000000000000000000100000000000000000001000003030000000000000000000000000000000000000000000000000000000000000000000000000000000000000000000000000000000000
310
00000000000000000000000000000000000000000000000000000000000000000000000000000000000000000000000000000000000000000301040404040401040104040401040404040101040404040401030000000000000000000000000000000003030301030303010303030303010303030303030303030103030300
310
00000000000000000000000000000000000000000000000000000000000000000000000000000000000000000000000000000000000000000000000000000000000000000000000000000000000000000000000000000000000000000000000000000000000000000000000000030303030303030303010303030303040104
310
03010104030303030000000000000000000000000000000000000303030303030103030104040303010104030303030303030303000000000000000000000000000000000000000000000000000000000000000000000000000000000000000000000000000000000000000000000000000000000000000000000000000000
310
00000000000000000000000000000000000000000000000000000000000000000000000303000000030103030103030303030303030301010303000301000000000000000000000000000000000000010303030103010303010303030303010303000001030103010000000000000000000000000000000000000000000000
310
00000000000000000000000000000000000000000000000000000000000000000000000000000000000000000000000000000000000000000000000000000000000000000000000000000000000000000000000000000000000000000000000000000000000300000000000000000000000000000000000000000000000000
310
00000000000003030303000000000000000000000000000000000303030000000000000000000000000000000000000000000000000000000000000000000000000000000000000000000000000000000000000000000000000000000000000000000000000000000000000000000000000000000000000000000000000000
310
00000000000000000000000000000000000000000000000000000003000000000000000000000000000000000000000000000000000000000000000003030000000000000000000000000000000000030303000000000000000000000000000000000000000000000000000000000000000000000000000000000000000000
310
00000000000000000000000000000000000000000000000000000000000000000000000000000000000000000000000000000000000000000000000000000000000000000000000000000000000000000000000000000000000000000000000000000000000000000000000000000000000000000000000000000000000000
310
00000000000000000000000000000000000000000000000000000000000000000000000000000000000000000000000000000000000000000000000000000000000000000000000000000000000000000000000000000000000000000000000000000000000000000000000000000000000000000000000000000000000000
310
00000000000000000000000000000000000000000000000000000000000000000000000000000000000000000000000000000000000000000000000000000000000000000000000000000000000000000000000000000000000000000000000000000000000000000000000000000000000000000000000000000000000000
310
00000000000000000000000000000000000000000000000000000000000000000000000000000000000000000000000000000000000000000000000000000000000000000000000000000000000000000000000000000000000000000000000000000000000000000000000000000000000000000000000000000000000000
310
00000000000000000000000000000000000000000000000000000000000000000000000000000000000000000000000000000000000000000000000000000000000000000000000000000000000000000000000000000000000000000000000000000000000000000000000000000000000000000000000000000000000000
310
00000000000000000000000000000000000000000000000000000000000000000000000000000000000000000000000000000000000000000000000000000000000000000000000000000000000000000000000000000000000000000000000000000000000000000000000000000000000000000000000000000000000000
310
00000000000000000000000000000000000000000000000000000000000000000000000000000000000000000000000000000000000000000000000000000000000000000000000000000000000000000000000000000000000000000000000000000000000000000000000000000000000000000000000000000000000000
310
00000000000000000000000000000000000000000000000000000000000000000000000000000000000000000000000000000000000000000000000000000000000000000000000000000000000000000000000000000000000000000000000000000000000000000000000000000000000000000000000000000000000000
310
00000000000000000000000000000000000000000000000000000000000000000000000000000000000000000000000000000000000000000000000000000000000000000000000000000000000000000000000000000000000000000000000000000000000000000000000000000000000000000000000000000000000000
310
00000000000000000000000000000000000000000000000000000000000000000000000000000000000000000000000000000000000000000000000000000000000000000000000000000000000000000000000000000000000000000000000000000000000000000000000000000000000000000000000000000000000000
310
00000000000000000000000000000000000000000000000000000000000000000000000000000000000000000000000000000000000000000000000000000000000000000000000000000000000000000000000000000000000000000000000000000000000000000000000000000000000000000000000000000000000000
310
00000000000000000000000000000000000000000000000000000000000000000000000000000000000000000000000000000000000000000000000000000000000000000000000000000000000000000000000000000000000000000000000000000000000000000000000000000000000000000000000000000000000000
310
00000000000000000000000000000000000000000000000000000000000000000000000000000000000000000000000000000000000000000000000000000000000000000000000000000000000000000000000000000000000000000000000000000000000000000000000000000000000000000000000000000000000000
310
00000000000000000000000000000000000000000000000000000000000000000000000000000000000000000000000000000000000000000000000000000000000000000000000000000000000000000000000000000000000000000000000000000000000000000000000000000000000000000000000000000000000000
310
00000000000000000000000000000000000000000000000000000000000000000000000000000000000000000000000000000000000000000000000000000000000000000000000000000000000000000000000000000000000000030303030303000000000001000000000003030303030300000000000000000000000000
310
00000000000000000000000000000000000000000000000000000000000000000000000000000000000000000000000000000000000000000000000000000000000000000000000000000000000000000000000000000000000000000000000000000000000000000000000000000000000000000000000000000000000000
310
00000000000000000000000000000000030001000003030303030303030303030303030000010003030000000000000000000000000000000000000000000000000000000000000000000000000000000000000000000000000000000000000000000000000000000000000000000000000000000000000000000000000000
310
00000000000000000000000000000000000000000000000000000000000000000000000000000000000000000000000000000000000000000000000000000000000000000003010303000303030303010101010103030303030101010103000000000000000000000000000000000000000000000000000000000000000000
310
00000000000000000000000000000000000000000000000000000000000000000000000000000000000000000000000000000000000000000000000000000000000000000000000000000000000000000000000000000000000000000000000000000000000000000000000000000000000000000000000000000300030303
310
03030101010303030303010103030303030300030000000000000000000000000000000000000000000000000000000000000000000000000000000000000000000000000000000000000000000000000000000000000000000000000000000000000000000000000000000000000000000000000000000000000000000000
310
00000000000000000000000000000000000000000000000000000000000000000000000000000000000000000000000003000003030303030000010303030100000303010303000003000000000000000000000000000000000000000000000000000000000000000000000000000000000000000000000000000000000000
310
00000000000000000000000000000000000000000000000000000000000000000000000000000000000000000000000000000000000000000000000000000000000000000000000000000000000000000000000000000000000000000000000000000000000300030301030000000000030303000000000001010303000300
310
00000000000000000000000000000000000000000000000000000000000000000000000000000000000000000000000000000000000000000000000000000000000000000000000000000000000000000000000000000000000000000000000000000000000000000000000000000000000000000000000000000000000000
310
00000000000000000000000000000000000000000000000000000003030301030000000000000001000000000000000101030303000000000000000000000000000000000000000000000000000000000000000000000000000000000000000000000000000000000000000000000000000000000000000000000000000000
310
00000000000000000000000000000000000000000000000000000000000000000000000000000000000000000000000000000000000000000000000000000000000000000000000000000000000000000303010100000000000000030303000000000000000101030000000000000000000000000000000000000000000000
310
00000000000000000000000000000000000000000000000000000000000000000000000000000000000000000000000000000000000000000000000000000000000000000000000000000000000000000000000000000000000000000000000000000000000000000000000000000000000000000000000000000000000000
310
00000000000003030100000003030303010301030103030303000003010300000000000000000000000000000000000000000000000000000000000000000000000000000000000000000000000000000000000000000000000000000000000000000000000000000000000000000000000000000000000000000000000000
310
00000000000000000000000000000000000000000000000000000000000000000000000000000000000000000000000000000000000000000000000303030303030000010000030303000000010003030303030300000000000000000000000000000000000000000000000000000000000000000000000000000000000000
310
00000000000000000000000000000000000000000000000000000000000000000000000000000000000000000000000000000000000000000000000000000000000000000000000000000000000000000000000000000000000000000000000000000000000000000000000000000003030100000000030101010300010000
310
03010101030000030103000000000000000000000000000000000000000000000000000000000000000000000000000000000000000000000000000000000000000000000000000000000000000000000000000000000000000000000000000000000000000000000000000000000000000000000000000000000000000000
310
00000000000000000000000000000000000000000000000000000000000000000000000000030303000000030300030303030100030301030103010000010303000000000000000000000000000000000000000000000000000000000000000000000000000000000000000000000000000000000000000000000000000000
310
00000000000000000000000000000000000000000000000000000000000000000000000000000000000000000000000000000000000000000000000000000000000000000000000000000000000000000000000000000000000003030300000303030301030303010003030301010301000003030300000000000000000000
310
00000000000000000000000000000000000000000000000000000000000000000000000000000000000000000000000000000000000000000000000000000000000000000000000000000000000000000000000000000000000000000000000000000000000000000000000000000000000000000000000000000000000000
310
00000000000000000000000000000000030303000001030300010000030103010301010103010300030303000000000000000000000000000000000000000000000000000000000000000000000000000000000000000000000000000000000000000000000000000000000000000000000000000000000000000000000000
310
00000000000000000000000000000000000000000000000000000000000000000000000000000000000000000000000000000000000000000000000000000000000000000103030301010103010101010103010301030101010301010103030301000000000000000000000000000000000000000000000000000000000000
310
00000000000000000000000000000000000000000000000000000000000000000000000000000000000000000000000000000000000000000000000000000000000000000000000000000000000000000000000000000000000000000000000000000000000000000000000000000000000000000000000000000301030000
310
01030300010000030100030303030103010000030303000000000000000000000000000000000000000000000000000000000000000000000000000000000000000000000000000000000000000000000000000000000000000000000000000000000000000000000000000000000000000000000000000000000000000000
310
00000000000000000000000000000000000000000000000000000000000000000000000000000000000000000000000003010300000303030301030303010003030101010301000003030300000000000000000000000000000000000000000000000000000000000000000000000000000000000000000000000000000000
310
00000000000000000000000000000000000000000000000000000000000000000000000000000000000000000000000000000000000000000000000000000000000000000000000000000000000000000000000000000000000000000000000000000000000303030000000303000303030301000003030303000000000103
310
03000000000000000000000000000000000000000000000000000000000000000000000000000000000000000000000000000000000000000000000000000000000000000000000000000000000000000000000000000000000000000000000000000000000000000000000000000000000000000000000000000000000000
310
00000000000000000000000000000000000000000000000000000303030303000000030101010100010000000000000000000301030403000000000000000000000000000000000000000000000000000000000000000000000000000000000000000000000000000000000000000000000000000000000000000000000000
310
00000000000000000000000000000000000000000000000000000000000000000000000000000000000000000000000000000000000000000000000000000000000000000000000000000000000001010103030303030303000100000303030000000003030303010301010100000000000000000000000000000000000000
310
00000000000000000000000000000000000000000000000000000000000000000000000000000000000000000000000000000000000000000000000000000000000000000000000000000000000000000000000000000000000000000000000000000000000000000000000000000000000000000000000000000000000000
310
00030303030303030301000000000303030303010303030303000000030103030403000000000000000000000000000000000000000000000000000000000000000000000000000000000000000000000000000000000000000000000000000000000000000000000000000000000000000000000000000000000000000000
310
00000000000000000000000000000000000000000000000000000000000000000000000000000000000000000000000000000000000103030303030301030103010101010101010303030101010101010101010301040300000000000000000000000000000000000000000000000000000000000000000000000000000000
310
00000000000000000000000000000000000000000000000000000000000000000000000000000000000000000000000000000000000000000000000000000000000000000000000000000000000000000000000000000000000000000000000000000000000000000000000303030303030003030103000000000000000300
310
00000000000001010303000403000000000000000000000000000000000000000000000000000000000000000000000000000000000000000000000000000000000000000000000000000000000000000000000000000000000000000000000000000000000000000000000000000000000000000000000000000000000000
310
00000000000000000000000000000000000000000000000000000000000000000000000001030100000303010101000000000303030000000103010103030001010100000000000000000000000000000000000000000000000000000000000000000000000000000000000000000000000000000000000000000000000000
310
00000000000000000000000000000000000000000000000000000000000000000000000000000000000000000000000000000000000000000000000000000000000000000000000000000000000000000000000000000000000303030303030303030303000001030303010000030301030303030304030000000000000000
310
00000000000000000000000000000000000000000000000000000000000000000000000000000000000000000000000000000000000000000000000000000000000000000000000000000000000000000000000000000000000000000000000000000000000000000000000000000000000000000000000000000000000000
310
00000000000000000000000000000000000003000103030103030101030303030301010303030301000003000000000000000000000000000000000000000000000000000000000000000000000000000000000000000000000000000000000000000000000000000000000000000000000000000000000000000000000000
310
00000000000000000000000000000000000000000000000000000000000000000000000000000000000000000000000000000000000000000000000000000000000000000000000300030300030303030303030103030303030300000303000300000000000000000000000000000000000000000000000000000000000000
310
00000000000000000000000000000000000000000000000000000000000000000000000000000000000000000000000000000000000000000000000000000000000000000000000000000000000000000000000000000000000000000000000000000000000000000000000000000000000000000000000000000000030103
310
03000003030303030303030303030303000103030103000000000000000000000000000000000000000000000000000000000000000000000000000000000000000000000000000000000000000000000000000000000000000000000000000000000000000000000000000000000000000000000000000000000000000000
310
00000000000000000000000000000000000000000000000000000000000000000000000000000000000000000000000000000303030303030303000000030303000000030303030303030300000000000000000000000000000000000000000000000000000000000000000000000000000000000000000000000000000000
310
00000000000000000000000000000000000000000000000000000000000000000000000000000000000000000000000000000000000000000000000000000000000000000000000000000000000000000000000000000000000000000000000000000000000000000000000000000000000000000000000000000000000000
310
00000000000000000000000000000000000000000000000000000000000000000000000000000000000000000000000000000000000000000000000000000000000000000000000000000000000000000000000000000000000000000000000000000000000000000000000000000000000000000000000000000000000000
310
00000000000000000000000000000000000000000000000000000000000000000000000000000000000000000000000000000000000000000000000000000000000000000000000000000000000000000000000000000000000000000000000000000000000000000000000000000000000000000000000000000000000000
310
00000000000000000000000000000000000000000000000000000000000000000000000000000000000000000000000000000000000000000000000000000000000000000000000000000000000000000000000000000000000000000000000000000000000000000000000000000000000000000000000000000000000000
310
00000000000000000000000000000000000000000000000000000000000000000000000000000000000000000000000000000000000000000000000000000000000000000000000000000000000000000000000000000000000000000000000000000000000000000000000000000000000000000000000000000000000000
310
00000000000000000000000000000000000000000000000000000000000000000000000000000000000000000000000000000000000000000000000000000000000000000000000000000000000000000000000000000000000000000000000000000000000000000000000000000000000000000000000000000000000000
310
00000000000000000000000000000000000000000000000000000000000000000000000000000000000000000000000000000000000000000000000000000000000000000000000000000000000000000000000000000000000000000000000000000000000000000000000000000000000000000000000000000000000000
310
00000000000000000000000000000000000000000000000000000000000000000000000000000000000000000000000000000000000000000000000000000000000000000000000000000000000000000000000000000000000000000000000000000000000000000000000000000000000000000000000000000000000000
310
00000000000000000000000000000000000000000000000000000000000000000000000000000000000000000000000000000000000000000000000000000000000000000000000000000000000000000000000000000000000000000000000000000000000000000000000000000000000000000000000000000000000000
310
00000000000000000000000000000000000000000000000000000000000000000000000000000000000000000000000000000000000000000000000000000000000000000000000000000000000000000000000000000000000000000000000000000000000000000000000000000000000000000000000000000000000000
310
00000000000000000000000000000000000000000000000000000000000000000000000000000000000000000000000000000000000000000000000000000000000000000000000000000000000000000000000000000000000000000000000000000000000000000000000000000000000000000000000000000000000000
310
000000000000000000000000000000000000000000000000000000000000000000000000000000000000000000000000000000000000000000000000000000000000000000000000000000000000000000000000000000000000000000000000000000000000000000000000
  0
ENDSEC
  0
EOF
