  0
SECTION
  2
HEADER
  9
$ACADVER
  1
AC1015
  9
$ACADMAINTVER
 70
     6
  9
$DWGCODEPAGE
  3
ANSI_932
  9
$INSBASE
 10
3317.288936485714
 20
2479.48433400707
 30
0.0
  9
$EXTMIN
 10
403.2965040800884
 20
70.51593245524055
 30
0.0
  9
$EXTMAX
 10
2594.705448206547
 20
2052.647382718481
 30
0.0
  9
$LIMMIN
 10
0.0
 20
0.0
  9
$LIMMAX
 10
816.5000000000001
 20
565.0
  9
$ORTHOMODE
 70
     1
  9
$REGENMODE
 70
     1
  9
$FILLMODE
 70
     1
  9
$QTEXTMODE
 70
     0
  9
$MIRRTEXT
 70
     1
  9
$LTSCALE
 40
20.0
  9
$ATTMODE
 70
     1
  9
$TEXTSIZE
 40
21.0
  9
$TRACEWID
 40
0.05
  9
$TEXTSTYLE
  7
KANJI
  9
$CLAYER
  8
2
  9
$CELTYPE
  6
BYLAYER
  9
$CECOLOR
 62
   256
  9
$CELTSCALE
 40
1.0
  9
$DISPSILH
 70
     0
  9
$DIMSCALE
 40
8.0
  9
$DIMASZ
 40
2.0
  9
$DIMEXO
 40
0.5
  9
$DIMDLI
 40
0.0
  9
$DIMRND
 40
0.0
  9
$DIMDLE
 40
0.0
  9
$DIMEXE
 40
1.0
  9
$DIMTP
 40
0.0
  9
$DIMTM
 40
0.0
  9
$DIMTXT
 40
3.0
  9
$DIMCEN
 40
0.09
  9
$DIMTSZ
 40
0.0
  9
$DIMTOL
 70
     0
  9
$DIMLIM
 70
     0
  9
$DIMTIH
 70
     0
  9
$DIMTOH
 70
     0
  9
$DIMSE1
 70
     0
  9
$DIMSE2
 70
     0
  9
$DIMTAD
 70
     0
  9
$DIMZIN
 70
     8
  9
$DIMBLK
  1

  9
$DIMASO
 70
     0
  9
$DIMSHO
 70
     0
  9
$DIMPOST
  1

  9
$DIMAPOST
  1

  9
$DIMALT
 70
     0
  9
$DIMALTD
 70
     2
  9
$DIMALTF
 40
25.4
  9
$DIMLFAC
 40
1.0
  9
$DIMTOFL
 70
     1
  9
$DIMTVP
 40
1.0
  9
$DIMTIX
 70
     1
  9
$DIMSOXD
 70
     1
  9
$DIMSAH
 70
     0
  9
$DIMBLK1
  1

  9
$DIMBLK2
  1

  9
$DIMSTYLE
  2
STANDARD
  9
$DIMCLRD
 70
   256
  9
$DIMCLRE
 70
   256
  9
$DIMCLRT
 70
   256
  9
$DIMTFAC
 40
1.0
  9
$DIMGAP
 40
0.09
  9
$DIMJUST
 70
     0
  9
$DIMSD1
 70
     0
  9
$DIMSD2
 70
     0
  9
$DIMTOLJ
 70
     1
  9
$DIMTZIN
 70
     0
  9
$DIMALTZ
 70
     0
  9
$DIMALTTZ
 70
     0
  9
$DIMUPT
 70
     0
  9
$DIMDEC
 70
     1
  9
$DIMTDEC
 70
     4
  9
$DIMALTU
 70
     2
  9
$DIMALTTD
 70
     2
  9
$DIMTXSTY
  7
STANDARD
  9
$DIMAUNIT
 70
     0
  9
$DIMADEC
 70
     0
  9
$DIMALTRND
 40
0.0
  9
$DIMAZIN
 70
     0
  9
$DIMDSEP
 70
    46
  9
$DIMATFIT
 70
     3
  9
$DIMFRAC
 70
     0
  9
$DIMLDRBLK
  1

  9
$DIMLUNIT
 70
     2
  9
$DIMLWD
 70
    -2
  9
$DIMLWE
 70
    -2
  9
$DIMTMOVE
 70
     0
  9
$LUNITS
 70
     2
  9
$LUPREC
 70
     3
  9
$SKETCHINC
 40
0.1
  9
$FILLETRAD
 40
1.0
  9
$AUNITS
 70
     0
  9
$AUPREC
 70
     3
  9
$MENU
  1
C:\R13\WIN\SUPPORT\ACADFULL
  9
$ELEVATION
 40
0.0
  9
$PELEVATION
 40
0.0
  9
$THICKNESS
 40
0.0
  9
$LIMCHECK
 70
     0
  9
$CHAMFERA
 40
0.0
  9
$CHAMFERB
 40
0.0
  9
$CHAMFERC
 40
0.0
  9
$CHAMFERD
 40
0.0
  9
$SKPOLY
 70
     0
  9
$TDCREATE
 40
2449813.131805555
  9
$TDUCREATE
 40
2449812.756805555
  9
$TDUPDATE
 40
2458114.762313507
  9
$TDUUPDATE
 40
2458114.387313507
  9
$TDINDWG
 40
1.3285697917
  9
$TDUSRTIMER
 40
1.3285694676
  9
$USRTIMER
 70
     1
  9
$ANGBASE
 50
0.0
  9
$ANGDIR
 70
     0
  9
$PDMODE
 70
     0
  9
$PDSIZE
 40
0.0
  9
$PLINEWID
 40
0.0
  9
$SPLFRAME
 70
     0
  9
$SPLINETYPE
 70
     6
  9
$SPLINESEGS
 70
     8
  9
$HANDSEED
  5
7C9
  9
$SURFTAB1
 70
     6
  9
$SURFTAB2
 70
     6
  9
$SURFTYPE
 70
     6
  9
$SURFU
 70
     6
  9
$SURFV
 70
     6
  9
$UCSBASE
  2

  9
$UCSNAME
  2

  9
$UCSORG
 10
0.0
 20
0.0
 30
0.0
  9
$UCSXDIR
 10
1.0
 20
0.0
 30
0.0
  9
$UCSYDIR
 10
0.0
 20
1.0
 30
0.0
  9
$UCSORTHOREF
  2

  9
$UCSORTHOVIEW
 70
     0
  9
$UCSORGTOP
 10
0.0
 20
0.0
 30
0.0
  9
$UCSORGBOTTOM
 10
0.0
 20
0.0
 30
0.0
  9
$UCSORGLEFT
 10
0.0
 20
0.0
 30
0.0
  9
$UCSORGRIGHT
 10
0.0
 20
0.0
 30
0.0
  9
$UCSORGFRONT
 10
0.0
 20
0.0
 30
0.0
  9
$UCSORGBACK
 10
0.0
 20
0.0
 30
0.0
  9
$PUCSBASE
  2

  9
$PUCSNAME
  2

  9
$PUCSORG
 10
0.0
 20
0.0
 30
0.0
  9
$PUCSXDIR
 10
1.0
 20
0.0
 30
0.0
  9
$PUCSYDIR
 10
0.0
 20
1.0
 30
0.0
  9
$PUCSORTHOREF
  2

  9
$PUCSORTHOVIEW
 70
     0
  9
$PUCSORGTOP
 10
0.0
 20
0.0
 30
0.0
  9
$PUCSORGBOTTOM
 10
0.0
 20
0.0
 30
0.0
  9
$PUCSORGLEFT
 10
0.0
 20
0.0
 30
0.0
  9
$PUCSORGRIGHT
 10
0.0
 20
0.0
 30
0.0
  9
$PUCSORGFRONT
 10
0.0
 20
0.0
 30
0.0
  9
$PUCSORGBACK
 10
0.0
 20
0.0
 30
0.0
  9
$USERI1
 70
     0
  9
$USERI2
 70
     0
  9
$USERI3
 70
     0
  9
$USERI4
 70
     0
  9
$USERI5
 70
     0
  9
$USERR1
 40
0.0
  9
$USERR2
 40
0.0
  9
$USERR3
 40
0.0
  9
$USERR4
 40
2448925.372986111
  9
$USERR5
 40
0.04166667
  9
$WORLDVIEW
 70
     1
  9
$SHADEDGE
 70
     3
  9
$SHADEDIF
 70
    70
  9
$TILEMODE
 70
     1
  9
$MAXACTVP
 70
    16
  9
$PINSBASE
 10
0.0
 20
0.0
 30
0.0
  9
$PLIMCHECK
 70
     0
  9
$PEXTMIN
 10
1000000000000000E+20
 20
1000000000000000E+20
 30
1000000000000000E+20
  9
$PEXTMAX
 10
-1000000000000000E+20
 20
-1000000000000000E+20
 30
-1000000000000000E+20
  9
$PLIMMIN
 10
0.0
 20
0.0
  9
$PLIMMAX
 10
12.0
 20
9.0
  9
$UNITMODE
 70
     0
  9
$VISRETAIN
 70
     0
  9
$PLINEGEN
 70
     0
  9
$PSLTSCALE
 70
     0
  9
$TREEDEPTH
 70
  3020
  9
$CMLSTYLE
  2
STANDARD
  9
$CMLJUST
 70
     0
  9
$CMLSCALE
 40
1.0
  9
$PROXYGRAPHICS
 70
     1
  9
$MEASUREMENT
 70
     0
  9
$CELWEIGHT
370
    -1
  9
$ENDCAPS
280
     0
  9
$JOINSTYLE
280
     0
  9
$LWDISPLAY
290
     0
  9
$INSUNITS
 70
     0
  9
$HYPERLINKBASE
  1

  9
$STYLESHEET
  1
monochrome.ctb
  9
$XEDIT
290
     1
  9
$CEPSNTYPE
380
     0
  9
$PSTYLEMODE
290
     1
  9
$FINGERPRINTGUID
  2
{07528633-0641-4FB2-9331-EE77C6B48313}
  9
$VERSIONGUID
  2
{24E79080-B05A-4593-A4A5-E7A641596B18}
  9
$EXTNAMES
290
     1
  9
$PSVPSCALE
 40
0.0
  9
$OLESTARTUP
290
     0
  0
ENDSEC
  0
SECTION
  2
CLASSES
  0
CLASS
  1
ACDBDICTIONARYWDFLT
  2
AcDbDictionaryWithDefault
  3
ObjectDBX Classes
 90
        0
280
     0
281
     0
  0
CLASS
  1
MATERIAL
  2
AcDbMaterial
  3
ObjectDBX Classes
 90
     1153
280
     0
281
     0
  0
CLASS
  1
SORTENTSTABLE
  2
AcDbSortentsTable
  3
ObjectDBX Classes
 90
        0
280
     0
281
     0
  0
CLASS
  1
SCALE
  2
AcDbScale
  3
ObjectDBX Classes
 90
     1153
280
     0
281
     0
  0
CLASS
  1
DICTIONARYVAR
  2
AcDbDictionaryVar
  3
ObjectDBX Classes
 90
        0
280
     0
281
     0
  0
CLASS
  1
VISUALSTYLE
  2
AcDbVisualStyle
  3
ObjectDBX Classes
 90
     4095
280
     0
281
     0
  0
CLASS
  1
MLEADERSTYLE
  2
AcDbMLeaderStyle
  3
ACDB_MLEADERSTYLE_CLASS
 90
     4095
280
     0
281
     0
  0
CLASS
  1
ACDBPLACEHOLDER
  2
AcDbPlaceHolder
  3
ObjectDBX Classes
 90
        0
280
     0
281
     0
  0
CLASS
  1
LAYOUT
  2
AcDbLayout
  3
ObjectDBX Classes
 90
        0
280
     0
281
     0
  0
ENDSEC
  0
SECTION
  2
TABLES
  0
TABLE
  2
VPORT
  5
25
102
{ACAD_XDICTIONARY
360
78E
102
}
330
0
100
AcDbSymbolTable
 70
     2
  0
VPORT
  5
2B
330
25
100
AcDbSymbolTableRecord
100
AcDbViewportTableRecord
  2
*Active
 70
     0
 10
0.0
 20
0.0
 11
1.0
 21
1.0
 12
2294.304261215101
 22
1035.084566076622
 13
0.0
 23
0.0
 14
1.0
 24
1.0
 15
50.0
 25
50.0
 16
0.0
 26
0.0
 36
1.0
 17
0.0
 27
0.0
 37
0.0
 40
2158.599149937997
 41
1.827160493827161
 42
50.0
 43
0.0
 44
0.0
 50
0.0
 51
0.0
 71
     0
 72
  5000
 73
     1
 74
     0
 75
     0
 76
     0
 77
     0
 78
     0
281
     0
 65
     1
110
0.0
120
0.0
130
0.0
111
1.0
121
0.0
131
0.0
112
0.0
122
1.0
132
0.0
 79
     0
146
0.0
  0
ENDTAB
  0
TABLE
  2
LTYPE
  5
9
330
0
100
AcDbSymbolTable
 70
     2
  0
LTYPE
  5
A
330
9
100
AcDbSymbolTableRecord
100
AcDbLinetypeTableRecord
  2
BYBLOCK
 70
     0
  3

 72
    65
 73
     0
 40
0.0
  0
LTYPE
  5
B
330
9
100
AcDbSymbolTableRecord
100
AcDbLinetypeTableRecord
  2
BYLAYER
 70
     0
  3

 72
    65
 73
     0
 40
0.0
  0
LTYPE
  5
8
330
9
100
AcDbSymbolTableRecord
100
AcDbLinetypeTableRecord
  2
CONTINUOUS
 70
     0
  3
Solid line
 72
    65
 73
     0
 40
0.0
  0
LTYPE
  5
7B
330
9
100
AcDbSymbolTableRecord
100
AcDbLinetypeTableRecord
  2
CENTER
 70
     0
  3
____ _ ____ _ ____ _ ____ _ ____ _ ____ _ ____
 72
    65
 73
     4
 40
2.0
 49
1.25
 74
     0
 49
-0.25
 74
     0
 49
0.25
 74
     0
 49
-0.25
 74
     0
  0
ENDTAB
  0
TABLE
  2
LAYER
  5
2
330
0
100
AcDbSymbolTable
 70
     9
  0
LAYER
  5
19
330
2
100
AcDbSymbolTableRecord
100
AcDbLayerTableRecord
  2
0
 70
     0
 62
     7
  6
CONTINUOUS
370
    -3
390
3
  0
LAYER
  5
507
330
2
100
AcDbSymbolTableRecord
100
AcDbLayerTableRecord
  2
1
 70
     0
 62
     9
  6
CONTINUOUS
370
    -3
390
3
  0
LAYER
  5
1
330
2
100
AcDbSymbolTableRecord
100
AcDbLayerTableRecord
  2
2
 70
     0
 62
     4
  6
CONTINUOUS
370
    -3
390
3
  0
LAYER
  5
72
330
2
100
AcDbSymbolTableRecord
100
AcDbLayerTableRecord
  2
4
 70
     0
 62
     3
  6
CONTINUOUS
370
    -3
390
3
  0
LAYER
  5
7A
330
2
100
AcDbSymbolTableRecord
100
AcDbLayerTableRecord
  2
L-CENTER
 70
     0
 62
     1
  6
CENTER
370
    -3
390
3
  0
LAYER
  5
81
330
2
100
AcDbSymbolTableRecord
100
AcDbLayerTableRecord
  2
3
 70
     0
 62
     2
  6
CONTINUOUS
370
    -3
390
3
  0
LAYER
  5
501
330
2
100
AcDbSymbolTableRecord
100
AcDbLayerTableRecord
  2
5
 70
     0
 62
     6
  6
CONTINUOUS
370
    -3
390
3
  0
LAYER
  5
6DD
330
2
100
AcDbSymbolTableRecord
100
AcDbLayerTableRecord
  2
Defpoints
 70
     0
 62
     7
  6
CONTINUOUS
290
     0
370
    -3
390
3
  0
ENDTAB
  0
TABLE
  2
STYLE
  5
D
330
0
100
AcDbSymbolTable
 70
     2
  0
STYLE
  5
11
330
D
100
AcDbSymbolTableRecord
100
AcDbTextStyleTableRecord
  2
STANDARD
 70
     0
 40
0.0
 41
1.0
 50
0.0
 71
     0
 42
12.6
  3
TXT
  4

  0
STYLE
  5
C
330
D
100
AcDbSymbolTableRecord
100
AcDbTextStyleTableRecord
  2
KANJI
 70
     0
 40
0.0
 41
1.0
 50
0.0
 71
     0
 42
21.0
  3
TXT
  4
BIGFONT
  0
ENDTAB
  0
TABLE
  2
VIEW
  5
23
330
0
100
AcDbSymbolTable
 70
     0
  0
ENDTAB
  0
TABLE
  2
UCS
  5
24
330
0
100
AcDbSymbolTable
 70
     0
  0
ENDTAB
  0
TABLE
  2
APPID
  5
1E
330
0
100
AcDbSymbolTable
 70
     4
  0
APPID
  5
2A
330
1E
100
AcDbSymbolTableRecord
100
AcDbRegAppTableRecord
  2
ACAD
 70
     0
  0
APPID
  5
1D
330
1E
100
AcDbSymbolTableRecord
100
AcDbRegAppTableRecord
  2
ACAD_PSEXT
 70
     0
  0
APPID
  5
6DC
330
1E
100
AcDbSymbolTableRecord
100
AcDbRegAppTableRecord
  2
ACAD_MLEADERVER
 70
     0
  0
ENDTAB
  0
TABLE
  2
DIMSTYLE
  5
10
330
0
100
AcDbSymbolTable
 70
     1
100
AcDbDimStyleTable
  0
DIMSTYLE
105
F
330
10
100
AcDbSymbolTableRecord
100
AcDbDimStyleTableRecord
  2
STANDARD
 70
     0
178
     0
340
11
  0
ENDTAB
  0
TABLE
  2
BLOCK_RECORD
  5
14
330
0
100
AcDbSymbolTable
 70
     0
  0
BLOCK_RECORD
  5
15
102
{ACAD_XDICTIONARY
360
16
102
}
330
14
100
AcDbSymbolTableRecord
100
AcDbBlockTableRecord
  2
*MODEL_SPACE
340
1B
  0
BLOCK_RECORD
  5
1F
330
14
100
AcDbSymbolTableRecord
100
AcDbBlockTableRecord
  2
*PAPER_SPACE
340
22
  0
ENDTAB
  0
ENDSEC
  0
SECTION
  2
BLOCKS
  0
BLOCK
  5
18
330
15
100
AcDbEntity
  8
0
100
AcDbBlockBegin
  2
*MODEL_SPACE
 70
     0
 10
0.0
 20
0.0
 30
0.0
  3
*MODEL_SPACE
  1

  0
ENDBLK
  5
1A
330
15
100
AcDbEntity
  8
0
100
AcDbBlockEnd
  0
BLOCK
  5
20
330
1F
100
AcDbEntity
 67
     1
  8
0
100
AcDbBlockBegin
  2
*PAPER_SPACE
 70
     0
 10
0.0
 20
0.0
 30
0.0
  3
*PAPER_SPACE
  1

  0
ENDBLK
  5
21
330
1F
100
AcDbEntity
 67
     1
  8
0
100
AcDbBlockEnd
  0
ENDSEC
  0
SECTION
  2
ENTITIES
  0
LINE
  5
71
330
15
100
AcDbEntity
  8
4
100
AcDbLine
 10
1365.12803908009
 20
270.5159324552405
 30
0.0
 11
1365.12803908009
 21
160.5159374552404
 31
0.0
  0
ARC
  5
73
330
15
100
AcDbEntity
  8
4
100
AcDbCircle
 10
977.128042080089
 20
507.5159334552404
 30
0.0
 40
389.999974
100
AcDbArc
 50
225.245606
 51
314.755231
  0
LINE
  5
74
330
15
100
AcDbEntity
  8
4
100
AcDbLine
 10
589.1280450800891
 20
270.5159324552405
 30
0.0
 11
589.1280450800891
 21
160.5159374552404
 31
0.0
  0
ARC
  5
75
330
15
100
AcDbEntity
  8
4
100
AcDbCircle
 10
977.128042080089
 20
507.5159334552404
 30
0.0
 40
347.999953
100
AcDbArc
 50
271.6942290000001
 51
268.306615
  0
ARC
  5
76
330
15
100
AcDbEntity
  8
4
100
AcDbCircle
 10
977.128042080089
 20
507.5159334552404
 30
0.0
 40
390.000002
100
AcDbArc
 50
329.6524129999999
 51
210.348473
  0
LINE
  5
77
330
15
100
AcDbEntity
  8
4
100
AcDbLine
 10
571.1280420800895
 20
507.5159334552404
 30
0.0
 11
571.1280420800895
 21
95.51593245524055
 31
0.0
  0
LINE
  5
78
330
15
100
AcDbEntity
  8
4
100
AcDbLine
 10
1383.128035080089
 20
507.5159334552404
 30
0.0
 11
1383.128035080089
 21
95.51593245524055
 31
0.0
  0
LINE
  5
79
330
15
100
AcDbEntity
  8
L-CENTER
 48
2.0
100
AcDbLine
 10
977.128042080089
 20
96.5159314552402
 30
0.0
 11
977.128042080089
 21
1009.489804455241
 31
0.0
  0
LINE
  5
7C
330
15
100
AcDbEntity
  8
4
100
AcDbLine
 10
796.1280410800896
 20
145.5159384552403
 30
0.0
 11
574.1280460800895
 21
145.5159384552403
 31
0.0
  0
LINE
  5
7D
330
15
100
AcDbEntity
  8
4
100
AcDbLine
 10
571.1280420800895
 20
95.51593245524055
 30
0.0
 11
799.1280450800891
 21
95.51593245524055
 31
0.0
  0
LINE
  5
7E
330
15
100
AcDbEntity
  8
4
100
AcDbLine
 10
772.4918130800893
 20
175.5159364552405
 30
0.0
 11
589.1280450800891
 21
175.5159364552405
 31
0.0
  0
ARC
  5
89
330
15
100
AcDbEntity
  8
4
100
AcDbCircle
 10
574.1280460800895
 20
142.5159344552403
 30
0.0
 40
2.999997
100
AcDbArc
 50
90.0
 51
180.0
  0
ARC
  5
8A
330
15
100
AcDbEntity
  8
4
100
AcDbCircle
 10
604.1280440800892
 20
160.5159374552404
 30
0.0
 40
14.999999
100
AcDbArc
 50
180.0
 51
270.0009319999996
  0
LINE
  5
8B
330
15
100
AcDbEntity
  8
L-CENTER
 48
2.0
100
AcDbLine
 10
657.1280400800892
 20
70.51593245524055
 30
0.0
 11
657.1280400800892
 21
170.5159384552403
 31
0.0
  0
LINE
  5
8E
330
15
100
AcDbEntity
  8
4
100
AcDbLine
 10
1181.764271080089
 20
175.5159364552405
 30
0.0
 11
1365.12803908009
 21
175.5159364552405
 31
0.0
  0
LINE
  5
8F
330
15
100
AcDbEntity
  8
4
100
AcDbLine
 10
1383.128035080089
 20
95.51593245524055
 30
0.0
 11
1155.12803908009
 21
95.51593245524055
 31
0.0
  0
LINE
  5
90
330
15
100
AcDbEntity
  8
4
100
AcDbLine
 10
1158.128043080089
 20
145.5159384552403
 30
0.0
 11
1380.128038080089
 21
145.5159384552403
 31
0.0
  0
LINE
  5
98
330
15
100
AcDbEntity
  8
4
100
AcDbLine
 10
805.1280390800898
 20
110.5159384552403
 30
0.0
 11
1149.128038080089
 21
110.5159384552403
 31
0.0
  0
LINE
  5
99
330
15
100
AcDbEntity
  8
4
100
AcDbLine
 10
769.1280400800892
 20
95.51593245524055
 30
0.0
 11
769.1280400800892
 21
142.5159344552403
 31
0.0
  0
LINE
  5
9A
330
15
100
AcDbEntity
  8
4
100
AcDbLine
 10
799.1280450800891
 20
95.51593245524055
 30
0.0
 11
799.1280450800891
 21
142.5159344552403
 31
0.0
  0
ARC
  5
9B
330
15
100
AcDbEntity
  8
4
100
AcDbCircle
 10
805.1280390800898
 20
104.5159374552404
 30
0.0
 40
6.000001
100
AcDbArc
 50
90.0
 51
180.0
  0
ARC
  5
9C
330
15
100
AcDbEntity
  8
4
100
AcDbCircle
 10
766.1280430800894
 20
142.5159344552403
 30
0.0
 40
2.999997
100
AcDbArc
 50
0.0
 51
90.0
  0
ARC
  5
9D
330
15
100
AcDbEntity
  8
4
100
AcDbCircle
 10
796.1280410800896
 20
142.5159344552403
 30
0.0
 40
2.999997
100
AcDbArc
 50
0.0
 51
90.0
  0
CIRCLE
  5
9E
330
15
100
AcDbEntity
  8
2
100
AcDbCircle
 10
977.128042080089
 20
142.5159344552403
 30
0.0
 40
8.331057
  0
CIRCLE
  5
9F
330
15
100
AcDbEntity
  8
4
100
AcDbCircle
 10
977.128042080089
 20
142.5159344552403
 30
0.0
 40
9.331057
  0
LINE
  5
A0
330
15
100
AcDbEntity
  8
2
100
AcDbLine
 10
970.9131690800891
 20
138.9277064552407
 30
0.0
 11
977.128042080089
 21
135.3395764552406
 31
0.0
  0
LINE
  5
A1
330
15
100
AcDbEntity
  8
2
100
AcDbLine
 10
983.3429150800898
 20
138.9277064552407
 30
0.0
 11
977.128042080089
 21
135.3395764552406
 31
0.0
  0
LINE
  5
A2
330
15
100
AcDbEntity
  8
2
100
AcDbLine
 10
977.128042080089
 20
149.6922924552405
 30
0.0
 11
970.9131690800891
 21
146.1041624552404
 31
0.0
  0
ARC
  5
A3
330
15
100
AcDbEntity
  8
4
100
AcDbCircle
 10
977.128042080089
 20
142.5159344552403
 30
0.0
 40
20.000099
100
AcDbArc
 50
59.04823900000044
 51
120.9517609999987
  0
LINE
  5
A4
330
15
100
AcDbEntity
  8
L-CENTER
 48
2.0
100
AcDbLine
 10
1002.55030816497
 20
142.5159344552403
 30
0.0
 11
951.7057759952081
 21
142.5159344552403
 31
0.0
  0
LINE
  5
A5
330
15
100
AcDbEntity
  8
2
100
AcDbLine
 10
970.9131690800891
 20
146.1041624552404
 30
0.0
 11
970.9131690800891
 21
138.9277064552407
 31
0.0
  0
LINE
  5
A6
330
15
100
AcDbEntity
  8
2
100
AcDbLine
 10
977.128042080089
 20
149.6922924552405
 30
0.0
 11
983.3429150800898
 21
146.1041624552404
 31
0.0
  0
LINE
  5
A7
330
15
100
AcDbEntity
  8
2
100
AcDbLine
 10
983.3429150800898
 20
146.1041624552404
 30
0.0
 11
983.3429150800898
 21
138.9277064552407
 31
0.0
  0
LINE
  5
A8
330
15
100
AcDbEntity
  8
4
100
AcDbLine
 10
1155.12803908009
 20
95.51593245524055
 30
0.0
 11
1155.12803908009
 21
142.5159344552403
 31
0.0
  0
LINE
  5
A9
330
15
100
AcDbEntity
  8
4
100
AcDbLine
 10
1185.128037080089
 20
95.51593245524055
 30
0.0
 11
1185.128037080089
 21
142.5159344552403
 31
0.0
  0
ARC
  5
AA
330
15
100
AcDbEntity
  8
4
100
AcDbCircle
 10
1149.128038080089
 20
104.5159374552404
 30
0.0
 40
6.000001
100
AcDbArc
 50
0.0
 51
90.0
  0
ARC
  5
AB
330
15
100
AcDbEntity
  8
4
100
AcDbCircle
 10
1158.128043080089
 20
142.5159344552403
 30
0.0
 40
2.999997
100
AcDbArc
 50
90.0
 51
180.0
  0
ARC
  5
AC
330
15
100
AcDbEntity
  8
4
100
AcDbCircle
 10
1188.12804108009
 20
142.5159344552403
 30
0.0
 40
2.999997
100
AcDbArc
 50
90.0
 51
180.0
  0
LINE
  5
AD
330
15
100
AcDbEntity
  8
L-CENTER
 48
2.0
100
AcDbLine
 10
1297.128037080089
 20
70.51593245524055
 30
0.0
 11
1297.128037080089
 21
170.5159384552403
 31
0.0
  0
ARC
  5
AE
330
15
100
AcDbEntity
  8
4
100
AcDbCircle
 10
1350.128040080089
 20
160.5159374552404
 30
0.0
 40
14.999999
100
AcDbArc
 50
270.0009319999996
 51
0.0
  0
ARC
  5
AF
330
15
100
AcDbEntity
  8
4
100
AcDbCircle
 10
1380.128038080089
 20
142.5159344552403
 30
0.0
 40
2.999997
100
AcDbArc
 50
0.0
 51
90.0
  0
LINE
  5
B0
330
15
100
AcDbEntity
  8
L-CENTER
 48
2.0
100
AcDbLine
 10
773.3966611173477
 20
548.7088783020099
 30
0.0
 11
732.4968738528137
 21
572.3223882929874
 31
0.0
  0
LINE
  5
B1
330
15
100
AcDbEntity
  8
L-CENTER
 48
2.0
100
AcDbLine
 10
773.397006202268
 20
452.3223909038397
 30
0.0
 11
732.4972180582918
 21
428.7088824361008
 31
0.0
  0
CIRCLE
  5
B2
330
15
100
AcDbEntity
  8
L-CENTER
 48
2.0
100
AcDbCircle
 10
856.8699880800891
 20
500.5159334552404
 30
0.0
 40
119.999999
  0
CIRCLE
  5
B3
330
15
100
AcDbEntity
  8
4
100
AcDbCircle
 10
856.8699880800891
 20
500.5159334552404
 30
0.0
 40
140.0
  0
LINE
  5
B4
330
15
100
AcDbEntity
  8
L-CENTER
 48
2.0
100
AcDbLine
 10
1020.857559485828
 20
500.5159334552404
 30
0.0
 11
692.8164153837452
 21
500.5159334552404
 31
0.0
  0
ARC
  5
B5
330
15
100
AcDbEntity
  8
4
100
AcDbCircle
 10
977.128042080089
 20
-517.4840635447595
 30
0.0
 40
1200.000025
100
AcDbArc
 50
74.41223299999999
 51
105.588059
  0
ARC
  5
B6
330
15
100
AcDbEntity
  8
4
100
AcDbCircle
 10
977.128042080089
 20
-892.4840665447596
 30
0.0
 40
1797.000002
100
AcDbArc
 50
78.96179199999999
 51
101.038208
  0
LINE
  5
B7
330
15
100
AcDbEntity
  8
L-CENTER
 48
2.0
100
AcDbLine
 10
1397.396072662212
 20
507.5159334552404
 30
0.0
 11
556.8600114979663
 21
507.5159334552404
 31
0.0
  0
LINE
  5
B8
330
15
100
AcDbEntity
  8
4
100
AcDbLine
 10
764.5933770800898
 20
180.5159384552403
 30
0.0
 11
589.1280450800891
 21
180.5159384552403
 31
0.0
  0
ARC
  5
B9
330
15
100
AcDbEntity
  8
4
100
AcDbCircle
 10
977.128042080089
 20
1518.51593045524
 30
0.0
 40
1200.000095
100
AcDbArc
 50
254.755403
 51
269.091313
  0
LINE
  5
BA
330
15
100
AcDbEntity
  8
L-CENTER
 48
2.0
100
AcDbLine
 10
1550.959580080089
 20
270.5159324552405
 30
0.0
 11
403.2965040800887
 21
270.5159324552405
 31
0.0
  0
ARC
  5
BB
330
15
100
AcDbEntity
  8
4
100
AcDbCircle
 10
1771.12803908009
 20
507.5159334552404
 30
0.0
 40
1199.999934
100
AcDbArc
 50
162.696777
 51
180.0003499992971
  0
LINE
  5
BC
330
15
100
AcDbEntity
  8
4
100
AcDbLine
 10
566.1280400800892
 20
180.5159384552403
 30
0.0
 11
566.1280400800892
 21
360.5159334552404
 31
0.0
  0
LINE
  5
BD
330
15
100
AcDbEntity
  8
2
100
AcDbLine
 10
565.8280400800893
 20
180.5159384552403
 30
0.0
 11
565.8280400800893
 21
360.5159334552404
 31
0.0
  0
LINE
  5
BE
330
15
100
AcDbEntity
  8
4
100
AcDbLine
 10
547.8280430800893
 20
180.5159384552403
 30
0.0
 11
547.8280430800893
 21
360.5159334552404
 31
0.0
  0
LINE
  5
BF
330
15
100
AcDbEntity
  8
4
100
AcDbLine
 10
547.8280430800893
 20
180.5159384552403
 30
0.0
 11
566.1280400800892
 21
180.5159384552403
 31
0.0
  0
ARC
  5
C0
330
15
100
AcDbEntity
  8
4
100
AcDbCircle
 10
596.1280450800891
 20
270.5159324552405
 30
0.0
 40
7.0
100
AcDbArc
 50
90.0
 51
180.0
  0
LINE
  5
C1
330
15
100
AcDbEntity
  8
4
100
AcDbLine
 10
547.8280430800893
 20
360.5159334552404
 30
0.0
 11
566.1280400800892
 21
360.5159334552404
 31
0.0
  0
LINE
  5
C2
330
15
100
AcDbEntity
  8
4
100
AcDbLine
 10
602.3641280800894
 20
365.5159354552407
 30
0.0
 11
571.1280420800895
 21
365.5159354552407
 31
0.0
  0
LINE
  5
C3
330
15
100
AcDbEntity
  8
4
100
AcDbLine
 10
604.1898120800893
 20
360.5159334552404
 30
0.0
 11
566.1280400800892
 21
360.5159334552404
 31
0.0
  0
ARC
  5
C4
330
15
100
AcDbEntity
  8
4
100
AcDbCircle
 10
602.3641280800894
 20
373.5159344552403
 30
0.0
 40
7.999991999999999
100
AcDbArc
 50
270.0
 51
19.67417600000242
  0
ARC
  5
C5
330
15
100
AcDbEntity
  8
4
100
AcDbCircle
 10
604.1898120800893
 20
368.5159324552405
 30
0.0
 40
8.000041
100
AcDbArc
 50
270.0
 51
20.44083299999911
  0
ARC
  5
C6
330
15
100
AcDbEntity
  8
4
100
AcDbCircle
 10
634.9826580800895
 20
861.4559324552401
 30
0.0
 40
9.999996999999999
100
AcDbArc
 50
101.0382080000015
 51
162.6967769999991
  0
LINE
  5
C7
330
15
100
AcDbEntity
  8
L-CENTER
 48
2.0
100
AcDbLine
 10
727.1280400800892
 20
872.6007584552403
 30
0.0
 11
727.1280400800892
 21
911.0236254552406
 31
0.0
  0
LINE
  5
C8
330
15
100
AcDbEntity
  8
4
100
AcDbLine
 10
704.1280420800895
 20
903.8742104552402
 30
0.0
 11
750.1280450800891
 21
903.8742104552402
 31
0.0
  0
LINE
  5
C9
330
15
100
AcDbEntity
  8
4
100
AcDbLine
 10
704.1280420800895
 20
898.8742084552405
 30
0.0
 11
750.1280450800891
 21
898.8742084552405
 31
0.0
  0
LINE
  5
CA
330
15
100
AcDbEntity
  8
4
100
AcDbLine
 10
704.1280420800895
 20
894.8742054552404
 30
0.0
 11
750.1280450800891
 21
894.8742054552404
 31
0.0
  0
LINE
  5
CB
330
15
100
AcDbEntity
  8
4
100
AcDbLine
 10
705.1280410800896
 20
893.3742104552402
 30
0.0
 11
749.1280390800898
 21
893.3742104552402
 31
0.0
  0
LINE
  5
CC
330
15
100
AcDbEntity
  8
4
100
AcDbLine
 10
752.1280430800894
 20
893.3744484552403
 30
0.0
 11
702.1280440800892
 21
893.3744484552403
 31
0.0
  0
LINE
  5
CD
330
15
100
AcDbEntity
  8
4
100
AcDbLine
 10
715.6280410800896
 20
898.8742084552405
 30
0.0
 11
715.6280410800896
 21
903.8742104552402
 31
0.0
  0
LINE
  5
CE
330
15
100
AcDbEntity
  8
4
100
AcDbLine
 10
704.1280420800895
 20
894.8742054552404
 30
0.0
 11
704.1280420800895
 21
903.8742104552402
 31
0.0
  0
LINE
  5
CF
330
15
100
AcDbEntity
  8
4
100
AcDbLine
 10
705.1280410800896
 20
894.8742054552404
 30
0.0
 11
705.1280410800896
 21
893.3742104552402
 31
0.0
  0
LINE
  5
D0
330
15
100
AcDbEntity
  8
4
100
AcDbLine
 10
702.1280440800892
 20
883.3492584552405
 30
0.0
 11
702.1280440800892
 21
893.3744484552403
 31
0.0
  0
LINE
  5
D1
330
15
100
AcDbEntity
  8
4
100
AcDbLine
 10
738.6280390800898
 20
898.8742084552405
 30
0.0
 11
738.6280390800898
 21
903.8742104552402
 31
0.0
  0
LINE
  5
D2
330
15
100
AcDbEntity
  8
4
100
AcDbLine
 10
750.1280450800891
 20
894.8742054552404
 30
0.0
 11
750.1280450800891
 21
903.8742104552402
 31
0.0
  0
LINE
  5
D3
330
15
100
AcDbEntity
  8
4
100
AcDbLine
 10
749.1280390800898
 20
894.8742054552404
 30
0.0
 11
749.1280390800898
 21
893.3742104552402
 31
0.0
  0
LINE
  5
D4
330
15
100
AcDbEntity
  8
4
100
AcDbLine
 10
752.1280430800894
 20
890.3744514552404
 30
0.0
 11
752.1280430800894
 21
893.3744484552403
 31
0.0
  0
ARC
  5
D5
330
15
100
AcDbEntity
  8
4
100
AcDbCircle
 10
183.1280450800891
 20
507.5159334552404
 30
0.0
 40
1199.999927
100
AcDbArc
 50
0.0
 51
17.30322399999999
  0
LINE
  5
D6
330
15
100
AcDbEntity
  8
L-CENTER
 48
2.0
100
AcDbLine
 10
995.433952080089
 20
520.5159344552403
 30
0.0
 11
1256.822128080089
 21
520.5159344552403
 31
0.0
  0
LINE
  5
D7
330
15
100
AcDbEntity
  8
4
100
AcDbLine
 10
1189.662707080089
 20
180.5159384552403
 30
0.0
 11
1365.12803908009
 21
180.5159384552403
 31
0.0
  0
ARC
  5
D8
330
15
100
AcDbEntity
  8
4
100
AcDbCircle
 10
977.128042080089
 20
1518.51593045524
 30
0.0
 40
1200.000095
100
AcDbArc
 50
270.908687
 51
285.2448720000001
  0
LINE
  5
D9
330
15
100
AcDbEntity
  8
L-CENTER
 48
2.0
100
AcDbLine
 10
1126.128040080089
 20
389.8218464552401
 30
0.0
 11
1126.128040080089
 21
651.2100224552405
 31
0.0
  0
CIRCLE
  5
DB
330
15
100
AcDbEntity
  8
4
100
AcDbCircle
 10
1126.128040080089
 20
520.5159344552403
 30
0.0
 40
60.000003
  0
LINE
  5
DC
330
15
100
AcDbEntity
  8
L-CENTER
 48
2.0
100
AcDbLine
 10
856.8699880800891
 20
336.5283620495015
 30
0.0
 11
856.8699880800891
 21
664.5035048609793
 31
0.0
  0
CIRCLE
  5
DD
330
15
100
AcDbEntity
  8
4
100
AcDbCircle
 10
1126.128040080089
 20
520.5159344552403
 30
0.0
 40
110.000002
  0
CIRCLE
  5
DE
330
15
100
AcDbEntity
  8
L-CENTER
 48
2.0
100
AcDbCircle
 10
1126.128040080089
 20
520.5159344552403
 30
0.0
 40
90.000001
  0
LINE
  5
DF
330
15
100
AcDbEntity
  8
L-CENTER
 48
2.0
100
AcDbLine
 10
1013.441032080088
 20
312.5159324552405
 30
0.0
 11
940.8150520800896
 21
312.5159324552405
 31
0.0
  0
LINE
  5
E0
330
15
100
AcDbEntity
  8
4
100
AcDbLine
 10
961.5394200800897
 20
303.5159344552403
 30
0.0
 11
977.128042080089
 21
294.5159364552405
 31
0.0
  0
LINE
  5
E1
330
15
100
AcDbEntity
  8
4
100
AcDbLine
 10
977.128042080089
 20
294.5159364552405
 30
0.0
 11
992.716419080089
 21
303.5159344552403
 31
0.0
  0
CIRCLE
  5
E2
330
15
100
AcDbEntity
  8
4
100
AcDbCircle
 10
977.128042080089
 20
312.5159324552405
 30
0.0
 40
20.000001
  0
LINE
  5
E3
330
15
100
AcDbEntity
  8
4
100
AcDbLine
 10
977.128042080089
 20
330.5159354552407
 30
0.0
 11
961.5394200800897
 21
321.5159374552404
 31
0.0
  0
LINE
  5
E4
330
15
100
AcDbEntity
  8
4
100
AcDbLine
 10
961.5394200800897
 20
303.5159344552403
 30
0.0
 11
961.5394200800897
 21
321.5159374552404
 31
0.0
  0
LINE
  5
E5
330
15
100
AcDbEntity
  8
4
100
AcDbLine
 10
992.716419080089
 20
303.5159344552403
 30
0.0
 11
992.716419080089
 21
321.5159374552404
 31
0.0
  0
LINE
  5
E6
330
15
100
AcDbEntity
  8
4
100
AcDbLine
 10
992.716419080089
 20
321.5159374552404
 30
0.0
 11
977.128042080089
 21
330.5159354552407
 31
0.0
  0
LINE
  5
E7
330
15
100
AcDbEntity
  8
L-CENTER
 48
2.0
100
AcDbLine
 10
940.3433138194655
 20
452.322986489532
 30
0.0
 11
981.2431024496927
 21
428.7094788640047
 31
0.0
  0
LINE
  5
E8
330
15
100
AcDbEntity
  8
L-CENTER
 48
2.0
100
AcDbLine
 10
1027.73594551212
 20
463.7090295344647
 30
0.0
 11
1068.635733358896
 21
487.322538516969
 31
0.0
  0
LINE
  5
E9
330
15
100
AcDbEntity
  8
L-CENTER
 48
2.0
100
AcDbLine
 10
1224.520308881259
 20
463.70933131522
 30
0.0
 11
1183.620519121311
 21
487.322836984014
 31
0.0
  0
LINE
  5
EA
330
15
100
AcDbEntity
  8
L-CENTER
 48
2.0
100
AcDbLine
 10
940.3429650800895
 20
548.7094844552403
 30
0.0
 11
981.2427567726638
 21
572.3229867766272
 31
0.0
  0
LINE
  5
EB
330
15
100
AcDbEntity
  8
L-CENTER
 48
2.0
100
AcDbLine
 10
1027.735771141503
 20
577.3225373572536
 30
0.0
 11
1068.635562697479
 21
553.7090347992716
 31
0.0
  0
LINE
  5
EC
330
15
100
AcDbEntity
  8
L-CENTER
 48
2.0
100
AcDbLine
 10
1224.520134702388
 20
577.3228392819133
 30
0.0
 11
1183.620346145511
 21
553.7093315293405
 31
0.0
  0
LINE
  5
ED
330
15
100
AcDbEntity
  8
4
100
AcDbLine
 10
1431.128036080089
 20
304.5159334552404
 30
0.0
 11
1541.128038080089
 21
304.5159334552404
 31
0.0
  0
LINE
  5
EE
330
15
100
AcDbEntity
  8
4
100
AcDbLine
 10
1421.12803908009
 20
299.5159314552402
 30
0.0
 11
1539.128040080089
 21
299.5159314552402
 31
0.0
  0
LINE
  5
EF
330
15
100
AcDbEntity
  8
4
100
AcDbLine
 10
1421.12803908009
 20
241.5159334552404
 30
0.0
 11
1539.128040080089
 21
241.5159334552404
 31
0.0
  0
LINE
  5
F0
330
15
100
AcDbEntity
  8
4
100
AcDbLine
 10
1406.428041080089
 20
180.5159384552403
 30
0.0
 11
1406.428041080089
 21
360.5159334552404
 31
0.0
  0
LINE
  5
F1
330
15
100
AcDbEntity
  8
4
100
AcDbLine
 10
1388.128037080089
 20
180.5159384552403
 30
0.0
 11
1388.128037080089
 21
360.5159334552404
 31
0.0
  0
LINE
  5
F2
330
15
100
AcDbEntity
  8
2
100
AcDbLine
 10
1388.428037080089
 20
180.5159384552403
 30
0.0
 11
1388.428037080089
 21
360.5159334552404
 31
0.0
  0
ARC
  5
F3
330
15
100
AcDbEntity
  8
4
100
AcDbCircle
 10
1358.12803908009
 20
270.5159324552405
 30
0.0
 40
7.0
100
AcDbArc
 50
0.0
 51
90.0
  0
LINE
  5
F4
330
15
100
AcDbEntity
  8
4
100
AcDbLine
 10
1421.12803908009
 20
238.0159334552404
 30
0.0
 11
1421.12803908009
 21
303.0159314552402
 31
0.0
  0
LINE
  5
F5
330
15
100
AcDbEntity
  8
4
100
AcDbLine
 10
1407.42804008009
 20
315.5159364552405
 30
0.0
 11
1407.42804008009
 21
225.5159354552407
 31
0.0
  0
LINE
  5
F6
330
15
100
AcDbEntity
  8
4
100
AcDbLine
 10
1406.428041080089
 20
180.5159384552403
 30
0.0
 11
1388.128037080089
 21
180.5159384552403
 31
0.0
  0
LINE
  5
F7
330
15
100
AcDbEntity
  8
4
100
AcDbLine
 10
1407.42804008009
 20
238.0159334552404
 30
0.0
 11
1421.12803908009
 21
238.0159334552404
 31
0.0
  0
LINE
  5
F8
330
15
100
AcDbEntity
  8
4
100
AcDbLine
 10
1431.128036080089
 20
304.5159334552404
 30
0.0
 11
1431.128036080089
 21
299.5159314552402
 31
0.0
  0
LINE
  5
F9
330
15
100
AcDbEntity
  8
4
100
AcDbLine
 10
1407.42804008009
 20
315.5159364552405
 30
0.0
 11
1406.428041080089
 21
315.5159364552405
 31
0.0
  0
LINE
  5
FA
330
15
100
AcDbEntity
  8
4
100
AcDbLine
 10
1407.42804008009
 20
303.0159314552402
 30
0.0
 11
1421.12803908009
 21
303.0159314552402
 31
0.0
  0
LINE
  5
FB
330
15
100
AcDbEntity
  8
4
100
AcDbLine
 10
1351.891956080089
 20
365.5159354552407
 30
0.0
 11
1383.128035080089
 21
365.5159354552407
 31
0.0
  0
LINE
  5
FC
330
15
100
AcDbEntity
  8
4
100
AcDbLine
 10
1350.066272080089
 20
360.5159334552404
 30
0.0
 11
1388.128037080089
 21
360.5159334552404
 31
0.0
  0
ARC
  5
FD
330
15
100
AcDbEntity
  8
4
100
AcDbCircle
 10
1351.891956080089
 20
373.5159344552403
 30
0.0
 40
7.999991999999999
100
AcDbArc
 50
160.3258239999976
 51
270.0
  0
ARC
  5
FE
330
15
100
AcDbEntity
  8
4
100
AcDbCircle
 10
1350.066272080089
 20
368.5159324552405
 30
0.0
 40
8.000041
100
AcDbArc
 50
159.5591670000012
 51
270.0
  0
LINE
  5
FF
330
15
100
AcDbEntity
  8
4
100
AcDbLine
 10
1406.428041080089
 20
360.5159334552404
 30
0.0
 11
1388.128034080089
 21
360.5159334552404
 31
0.0
  0
LINE
  5
100
330
15
100
AcDbEntity
  8
4
100
AcDbLine
 10
1541.128038080089
 20
243.5159384552403
 30
0.0
 11
1541.128038080089
 21
304.5159334552404
 31
0.0
  0
LINE
  5
101
330
15
100
AcDbEntity
  8
4
100
AcDbLine
 10
1539.128040080089
 20
299.5159314552402
 30
0.0
 11
1539.128040080089
 21
241.5159334552404
 31
0.0
  0
LINE
  5
102
330
15
100
AcDbEntity
  8
4
100
AcDbLine
 10
1541.128038080089
 20
243.5159384552403
 30
0.0
 11
1539.128040080089
 21
241.5159334552404
 31
0.0
  0
LINE
  5
103
330
15
100
AcDbEntity
  8
4
100
AcDbLine
 10
1539.128040080089
 20
299.5159314552402
 30
0.0
 11
1541.128038080089
 21
297.5159334552404
 31
0.0
  0
LINE
  5
106
330
15
100
AcDbEntity
  8
4
100
AcDbLine
 10
977.128042080089
 20
907.5159324552405
 30
0.0
 11
1007.128040080089
 21
907.5159324552405
 31
0.0
  0
ARC
  5
107
330
15
100
AcDbEntity
  8
4
100
AcDbCircle
 10
977.128042080089
 20
987.5159294552404
 30
0.0
 40
9.999996999999999
100
AcDbArc
 50
0.0
 51
180.0
  0
LINE
  5
108
330
15
100
AcDbEntity
  8
4
100
AcDbLine
 10
998.0533310800897
 20
925.5159284552406
 30
0.0
 11
999.6280440800897
 21
907.5159324552405
 31
0.0
  0
ARC
  5
109
330
15
100
AcDbEntity
  8
4
100
AcDbCircle
 10
963.128042080089
 20
915.5159314552402
 30
0.0
 40
4.000003
100
AcDbArc
 50
270.0
 51
0.0
  0
ARC
  5
10A
330
15
100
AcDbEntity
  8
4
100
AcDbCircle
 10
991.128042080089
 20
915.5159314552402
 30
0.0
 40
4.000003
100
AcDbArc
 50
180.0
 51
270.0
  0
LINE
  5
10B
330
15
100
AcDbEntity
  8
4
100
AcDbLine
 10
956.2027460800896
 20
925.5159284552406
 30
0.0
 11
954.6280400800892
 21
907.5159324552405
 31
0.0
  0
LINE
  5
10C
330
15
100
AcDbEntity
  8
4
100
AcDbLine
 10
977.128042080089
 20
907.5159324552405
 30
0.0
 11
947.1280440800897
 21
907.5159324552405
 31
0.0
  0
LINE
  5
10D
330
15
100
AcDbEntity
  8
4
100
AcDbLine
 10
947.1280440800897
 20
904.2654964552403
 30
0.0
 11
947.1280440800897
 21
907.5159324552405
 31
0.0
  0
LINE
  5
10E
330
15
100
AcDbEntity
  8
4
100
AcDbLine
 10
967.1280380800895
 20
915.5159314552402
 30
0.0
 11
967.1280380800895
 21
987.5159294552404
 31
0.0
  0
LINE
  5
10F
330
15
100
AcDbEntity
  8
4
100
AcDbLine
 10
987.1280390800898
 20
915.5159314552402
 30
0.0
 11
987.1280390800898
 21
987.5159294552404
 31
0.0
  0
LINE
  5
110
330
15
100
AcDbEntity
  8
L-CENTER
 48
2.0
100
AcDbLine
 10
950.3093271763823
 20
952.5159294552404
 30
0.0
 11
1003.946756983796
 21
952.5159294552404
 31
0.0
  0
LINE
  5
111
330
15
100
AcDbEntity
  8
4
100
AcDbLine
 10
956.2027460800896
 20
925.5159284552406
 30
0.0
 11
967.1280380800895
 21
925.5159284552406
 31
0.0
  0
LINE
  5
112
330
15
100
AcDbEntity
  8
4
100
AcDbLine
 10
967.1280380800895
 20
926.5601184552406
 30
0.0
 11
956.2027460800896
 21
925.5159284552406
 31
0.0
  0
LINE
  5
113
330
15
100
AcDbEntity
  8
4
100
AcDbLine
 10
987.1280390800898
 20
925.5159284552406
 30
0.0
 11
998.0533310800897
 21
925.5159284552406
 31
0.0
  0
LINE
  5
114
330
15
100
AcDbEntity
  8
4
100
AcDbLine
 10
987.1280390800898
 20
926.5601184552406
 30
0.0
 11
998.0533310800897
 21
925.5159284552406
 31
0.0
  0
LINE
  5
115
330
15
100
AcDbEntity
  8
4
100
AcDbLine
 10
1007.128040080089
 20
904.2654964552403
 30
0.0
 11
1007.128040080089
 21
907.5159324552405
 31
0.0
  0
ARC
  5
116
330
15
100
AcDbEntity
  8
4
100
AcDbCircle
 10
1319.27341908009
 20
861.4559394552402
 30
0.0
 40
9.999996999999999
100
AcDbArc
 50
17.30322399999971
 51
78.96179200000134
  0
LINE
  5
117
330
15
100
AcDbEntity
  8
4
100
AcDbLine
 10
2485.705452206548
 20
153.5159374552404
 30
0.0
 11
2485.705452206548
 21
897.5159284552406
 31
0.0
  0
ARC
  5
118
330
15
100
AcDbEntity
  8
4
100
AcDbCircle
 10
9791.701863206548
 20
507.5159334552404
 30
0.0
 40
7599.999952999999
100
AcDbArc
 50
177.3761340000001
 51
182.624778
  0
LINE
  5
119
330
15
100
AcDbEntity
  8
4
100
AcDbLine
 10
2481.705449206548
 20
902.5159304552403
 30
0.0
 11
2481.705449206548
 21
165.5159324552405
 31
0.0
  0
LINE
  5
11A
330
15
100
AcDbEntity
  8
4
100
AcDbLine
 10
2513.705452206548
 20
895.5159304552403
 30
0.0
 11
2513.705452206548
 21
145.5159384552403
 31
0.0
  0
LINE
  5
11B
330
15
100
AcDbEntity
  8
L-CENTER
 48
2.0
100
AcDbLine
 10
2296.705452206547
 20
377.7857034552408
 30
0.0
 11
2296.705452206547
 21
163.2461614552403
 31
0.0
  0
LINE
  5
11C
330
15
100
AcDbEntity
  8
4
100
AcDbLine
 10
2199.675295206548
 20
159.4757794552406
 30
0.0
 11
2199.675295206548
 21
855.5159284552406
 31
0.0
  0
LINE
  5
11D
330
15
100
AcDbEntity
  8
L-CENTER
 48
2.0
100
AcDbLine
 10
2354.705450206548
 20
1009.489804455241
 30
0.0
 11
2354.705450206548
 21
74.94216727317735
 31
0.0
  0
LINE
  5
11E
330
15
100
AcDbEntity
  8
4
100
AcDbLine
 10
2203.705454206548
 20
145.5159384552403
 30
0.0
 11
2203.705454206548
 21
230.5659874552402
 31
0.0
  0
LINE
  5
11F
330
15
100
AcDbEntity
  8
4
100
AcDbLine
 10
2202.670294206548
 20
159.5159384552403
 30
0.0
 11
2202.670294206548
 21
242.7500684552406
 31
0.0
  0
ARC
  5
120
330
15
100
AcDbEntity
  8
4
100
AcDbCircle
 10
2222.705449206548
 20
177.3335634552404
 30
0.0
 40
4.999974
100
AcDbArc
 50
0.0
 51
79.47195000000592
  0
TEXT
  5
122
330
15
100
AcDbEntity
  8
3
100
AcDbText
 10
1699.154986226827
 20
91.06515679011238
 30
0.0
 40
24.0
  1
LD9-08
  7
KANJI
100
AcDbText
  0
LINE
  5
123
330
15
100
AcDbEntity
  8
4
100
AcDbLine
 10
2591.705451206547
 20
145.5159384552403
 30
0.0
 11
2117.705449206548
 21
145.5159384552403
 31
0.0
  0
LINE
  5
124
330
15
100
AcDbEntity
  8
4
100
AcDbLine
 10
2594.705448206547
 20
95.51593245524055
 30
0.0
 11
2114.705452206548
 21
95.51593245524055
 31
0.0
  0
LINE
  5
125
330
15
100
AcDbEntity
  8
4
100
AcDbLine
 10
2114.705452206548
 20
95.51593245524055
 30
0.0
 11
2114.705452206548
 21
142.5159344552403
 31
0.0
  0
ARC
  5
126
330
15
100
AcDbEntity
  8
4
100
AcDbCircle
 10
2117.705449206548
 20
142.5159344552403
 30
0.0
 40
2.999997
100
AcDbArc
 50
90.0
 51
180.0
  0
LINE
  5
127
330
15
100
AcDbEntity
  8
L-CENTER
 48
2.0
100
AcDbLine
 10
2164.705451206547
 20
70.51593245524055
 30
0.0
 11
2164.705451206547
 21
170.5159384552403
 31
0.0
  0
ARC
  5
128
330
15
100
AcDbEntity
  8
4
100
AcDbCircle
 10
2207.705450206548
 20
165.5159324552405
 30
0.0
 40
20.000001
100
AcDbArc
 50
270.0006989999989
 51
0.0
  0
LINE
  5
129
330
15
100
AcDbEntity
  8
4
100
AcDbLine
 10
2203.705454206548
 20
159.5159384552403
 30
0.0
 11
2199.673454206547
 21
159.5159384552403
 31
0.0
  0
LINE
  5
12A
330
15
100
AcDbEntity
  8
4
100
AcDbLine
 10
2227.705451206548
 20
177.3335634552404
 30
0.0
 11
2227.705451206548
 21
165.5159324552405
 31
0.0
  0
ARC
  5
12B
330
15
100
AcDbEntity
  8
4
100
AcDbCircle
 10
2501.705450206548
 20
165.5159324552405
 30
0.0
 40
20.000001
100
AcDbArc
 50
180.0
 51
270.0006989999989
  0
LINE
  5
12C
330
15
100
AcDbEntity
  8
4
100
AcDbLine
 10
2594.705448206547
 20
95.51593245524055
 30
0.0
 11
2594.705448206547
 21
142.5159344552403
 31
0.0
  0
LINE
  5
12D
330
15
100
AcDbEntity
  8
L-CENTER
 48
2.0
100
AcDbLine
 10
2544.705449206548
 20
70.51593245524055
 30
0.0
 11
2544.705449206548
 21
170.5159384552403
 31
0.0
  0
LINE
  5
12E
330
15
100
AcDbEntity
  8
4
100
AcDbLine
 10
2531.705448206547
 20
145.5159384552403
 30
0.0
 11
2531.705448206547
 21
95.51593245524055
 31
0.0
  0
LINE
  5
12F
330
15
100
AcDbEntity
  8
4
100
AcDbLine
 10
2557.705450206548
 20
145.5159384552403
 30
0.0
 11
2557.705450206548
 21
95.51593245524055
 31
0.0
  0
ARC
  5
130
330
15
100
AcDbEntity
  8
4
100
AcDbCircle
 10
2502.976202206548
 20
101.6785364552406
 30
0.0
 40
7.616209999999999
100
AcDbArc
 50
305.987537999995
 51
30.25471399999766
  0
ARC
  5
131
330
15
100
AcDbEntity
  8
4
100
AcDbCircle
 10
2502.976202206548
 20
101.6785364552406
 30
0.0
 40
7.616209999999999
100
AcDbArc
 50
305.987537999995
 51
30.25471399999766
  0
ARC
  5
132
330
15
100
AcDbEntity
  8
4
100
AcDbCircle
 10
2511.390265206548
 20
141.6785314552403
 30
0.0
 40
7.616209999999999
100
AcDbArc
 50
305.9875319999977
 51
30.25471799999914
  0
ARC
  5
133
330
15
100
AcDbEntity
  8
4
100
AcDbCircle
 10
2511.390265206548
 20
141.6785314552403
 30
0.0
 40
7.616209999999999
100
AcDbArc
 50
305.9875319999977
 51
30.25471799999914
  0
ARC
  5
134
330
15
100
AcDbEntity
  8
4
100
AcDbCircle
 10
2507.183230206547
 20
121.6785304552404
 30
0.0
 40
7.616209999999999
100
AcDbArc
 50
305.987538000003
 51
30.25471399999988
  0
ARC
  5
135
330
15
100
AcDbEntity
  8
4
100
AcDbCircle
 10
2507.183230206547
 20
121.6785304552404
 30
0.0
 40
7.616209999999999
100
AcDbArc
 50
305.987538000003
 51
30.25471399999988
  0
ARC
  5
136
330
15
100
AcDbEntity
  8
4
100
AcDbCircle
 10
2516.133913206548
 20
109.3533364552404
 30
0.0
 40
7.616209999999999
100
AcDbArc
 50
125.9875430000022
 51
210.2547239999982
  0
ARC
  5
137
330
15
100
AcDbEntity
  8
4
100
AcDbCircle
 10
2516.133913206548
 20
109.3533364552404
 30
0.0
 40
7.616209999999999
100
AcDbArc
 50
125.9875430000022
 51
210.2547239999982
  0
ARC
  5
138
330
15
100
AcDbEntity
  8
4
100
AcDbCircle
 10
2520.340948206548
 20
129.3533374552403
 30
0.0
 40
7.616209999999999
100
AcDbArc
 50
125.9875430000022
 51
210.2547239999974
  0
ARC
  5
139
330
15
100
AcDbEntity
  8
4
100
AcDbCircle
 10
2520.340948206548
 20
129.3533374552403
 30
0.0
 40
7.616209999999999
100
AcDbArc
 50
125.9875430000022
 51
210.2547239999974
  0
ARC
  5
13A
330
15
100
AcDbEntity
  8
4
100
AcDbCircle
 10
2591.705451206547
 20
142.5159344552403
 30
0.0
 40
2.999997
100
AcDbArc
 50
0.0
 51
90.0
  0
LINE
  5
13B
330
15
100
AcDbEntity
  8
L-CENTER
 48
2.0
100
AcDbLine
 10
2556.206292086651
 20
500.5159334552404
 30
0.0
 11
1962.526495206549
 21
500.5159334552404
 31
0.0
  0
LINE
  5
13C
330
15
100
AcDbEntity
  8
4
100
AcDbLine
 10
2203.705454206548
 20
310.4658844552405
 30
0.0
 11
2203.705454206548
 21
895.5159304552403
 31
0.0
  0
LINE
  5
13D
330
15
100
AcDbEntity
  8
4
100
AcDbLine
 10
2227.705451206548
 20
363.6983084552403
 30
0.0
 11
2227.705451206548
 21
902.5159304552403
 31
0.0
  0
ARC
  5
13E
330
15
100
AcDbEntity
  8
4
100
AcDbCircle
 10
2296.705452206547
 20
-39.48382054475951
 30
0.0
 40
400.000013
100
AcDbArc
 50
78.70689099999996
 51
101.2931849999999
  0
ARC
  5
13F
330
15
100
AcDbEntity
  8
4
100
AcDbCircle
 10
2296.705452206547
 20
580.5156924552402
 30
0.0
 40
399.999943
100
AcDbArc
 50
258.7073500000001
 51
281.2935410000001
  0
LINE
  5
140
330
15
100
AcDbEntity
  8
L-CENTER
 48
2.0
100
AcDbLine
 10
2189.435681206547
 20
270.5159324552405
 30
0.0
 11
2403.975223206547
 21
270.5159324552405
 31
0.0
  0
CIRCLE
  5
141
330
15
100
AcDbEntity
  8
L-CENTER
 48
2.0
100
AcDbCircle
 10
2296.705452206547
 20
270.5159324552405
 30
0.0
 40
87.5
  0
LINE
  5
142
330
15
100
AcDbEntity
  8
L-CENTER
 48
2.0
100
AcDbLine
 10
2218.961968307512
 20
192.7724555562045
 30
0.0
 11
2250.705242397937
 21
224.51572964663
 31
0.0
  0
LINE
  5
143
330
15
100
AcDbEntity
  8
L-CENTER
 48
2.0
100
AcDbLine
 10
2218.961971807511
 20
348.2594128542764
 30
0.0
 11
2250.705245897936
 21
316.5161387638509
 31
0.0
  0
LINE
  5
144
330
15
100
AcDbEntity
  8
4
100
AcDbLine
 10
2182.705454206548
 20
360.5159334552404
 30
0.0
 11
2182.705454206548
 21
640.5159334552404
 31
0.0
  0
LINE
  5
145
330
15
100
AcDbEntity
  8
2
100
AcDbLine
 10
2182.405454206547
 20
360.5159334552404
 30
0.0
 11
2182.405454206547
 21
640.5159334552404
 31
0.0
  0
LINE
  5
146
330
15
100
AcDbEntity
  8
4
100
AcDbLine
 10
2167.805448206547
 20
639.5159334552404
 30
0.0
 11
2167.805448206547
 21
361.5159334552404
 31
0.0
  0
ARC
  5
147
330
15
100
AcDbEntity
  8
4
100
AcDbCircle
 10
2606.705450206548
 20
270.5159324552405
 30
0.0
 40
399.999985
100
AcDbArc
 50
168.707247
 51
191.2931499999999
  0
ARC
  5
148
330
15
100
AcDbEntity
  8
4
100
AcDbCircle
 10
2601.705448206547
 20
270.5159324552405
 30
0.0
 40
400.000069
100
AcDbArc
 50
168.092994
 51
191.9075409999999
  0
ARC
  5
149
330
15
100
AcDbEntity
  8
4
100
AcDbCircle
 10
2215.204963206547
 20
189.0152054552404
 30
0.0
 40
4.999939
100
AcDbArc
 50
191.9085390000007
 51
258.091461000005
  0
ARC
  5
14A
330
15
100
AcDbEntity
  8
4
100
AcDbCircle
 10
2219.353401206547
 20
193.1636434552402
 30
0.0
 40
4.999910999999999
100
AcDbArc
 50
191.2945689999995
 51
258.7054310000055
  0
ARC
  5
14B
330
15
100
AcDbEntity
  8
4
100
AcDbCircle
 10
2296.705286323785
 20
575.5148796183562
 30
0.0
 40
399.9991223837034
100
AcDbArc
 50
258.0930282865401
 51
281.9074510154804
  0
LINE
  5
14C
330
15
100
AcDbEntity
  8
L-CENTER
 48
2.0
100
AcDbLine
 10
2210.060845206548
 20
307.5159374552404
 30
0.0
 11
2178.682946206548
 21
307.5159374552404
 31
0.0
  0
LINE
  5
14D
330
15
100
AcDbEntity
  8
4
100
AcDbLine
 10
2192.330937206547
 20
327.5159314552402
 30
0.0
 11
2192.330937206547
 21
287.5159364552405
 31
0.0
  0
LINE
  5
14E
330
15
100
AcDbEntity
  8
4
100
AcDbLine
 10
2183.830942206547
 20
289.5159344552403
 30
0.0
 11
2183.830942206547
 21
325.5159334552404
 31
0.0
  0
LINE
  5
14F
330
15
100
AcDbEntity
  8
4
100
AcDbLine
 10
2192.330937206547
 20
290.5159334552404
 30
0.0
 11
2192.330937206547
 21
324.5159344552403
 31
0.0
  0
LINE
  5
150
330
15
100
AcDbEntity
  8
4
100
AcDbLine
 10
2190.830942206547
 20
289.5159344552403
 30
0.0
 11
2190.830942206547
 21
325.5159334552404
 31
0.0
  0
LINE
  5
151
330
15
100
AcDbEntity
  8
4
100
AcDbLine
 10
2188.830937206547
 20
289.5159344552403
 30
0.0
 11
2188.830937206547
 21
325.5159334552404
 31
0.0
  0
LINE
  5
152
330
15
100
AcDbEntity
  8
4
100
AcDbLine
 10
2188.830937206547
 20
298.5159324552405
 30
0.0
 11
2183.830942206547
 21
298.5159324552405
 31
0.0
  0
LINE
  5
153
330
15
100
AcDbEntity
  8
4
100
AcDbLine
 10
2190.830942206547
 20
289.5159344552403
 30
0.0
 11
2183.830942206547
 21
289.5159344552403
 31
0.0
  0
LINE
  5
154
330
15
100
AcDbEntity
  8
4
100
AcDbLine
 10
2194.886784206547
 20
287.5159364552405
 30
0.0
 11
2192.330937206547
 21
287.5159364552405
 31
0.0
  0
LINE
  5
155
330
15
100
AcDbEntity
  8
4
100
AcDbLine
 10
2190.830942206547
 20
290.5159334552404
 30
0.0
 11
2192.330937206547
 21
290.5159334552404
 31
0.0
  0
LINE
  5
156
330
15
100
AcDbEntity
  8
4
100
AcDbLine
 10
2188.830937206547
 20
316.5159354552407
 30
0.0
 11
2183.830942206547
 21
316.5159354552407
 31
0.0
  0
LINE
  5
157
330
15
100
AcDbEntity
  8
4
100
AcDbLine
 10
2190.830942206547
 20
325.5159334552404
 30
0.0
 11
2183.830942206547
 21
325.5159334552404
 31
0.0
  0
LINE
  5
158
330
15
100
AcDbEntity
  8
4
100
AcDbLine
 10
2192.330937206547
 20
327.5159314552402
 30
0.0
 11
2193.833781206548
 21
327.5159314552402
 31
0.0
  0
LINE
  5
159
330
15
100
AcDbEntity
  8
4
100
AcDbLine
 10
2192.330937206547
 20
324.5159344552403
 30
0.0
 11
2190.830942206547
 21
324.5159344552403
 31
0.0
  0
LINE
  5
15A
330
15
100
AcDbEntity
  8
4
100
AcDbLine
 10
2168.805448206547
 20
360.5159334552404
 30
0.0
 11
2182.705454206548
 21
360.5159334552404
 31
0.0
  0
LINE
  5
15B
330
15
100
AcDbEntity
  8
4
100
AcDbLine
 10
2168.805448206547
 20
410.5159324552405
 30
0.0
 11
2182.705454206548
 21
410.5159324552405
 31
0.0
  0
ARC
  5
15C
330
15
100
AcDbEntity
  8
4
100
AcDbCircle
 10
2215.204963206547
 20
352.0166664552407
 30
0.0
 40
4.999939
100
AcDbArc
 50
101.908538999995
 51
168.0914610000055
  0
LINE
  5
15D
330
15
100
AcDbEntity
  8
4
100
AcDbLine
 10
2193.123680206547
 20
360.5159334552404
 30
0.0
 11
2182.705454206548
 21
360.5159334552404
 31
0.0
  0
ARC
  5
15E
330
15
100
AcDbEntity
  8
4
100
AcDbCircle
 10
2222.705449206548
 20
363.6983084552403
 30
0.0
 40
4.999974
100
AcDbArc
 50
280.5280519999891
 51
0.0
  0
ARC
  5
15F
330
15
100
AcDbEntity
  8
4
100
AcDbCircle
 10
2219.353401206547
 20
347.8682284552406
 30
0.0
 40
4.999910999999999
100
AcDbArc
 50
101.2945689999944
 51
168.7054310000005
  0
ARC
  5
160
330
15
100
AcDbEntity
  8
4
100
AcDbCircle
 10
2296.705184545635
 20
-34.48251027292463
 30
0.0
 40
399.9986566525608
100
AcDbArc
 50
78.09252001788643
 51
101.9074731511712
  0
LINE
  5
161
330
15
100
AcDbEntity
  8
4
100
AcDbLine
 10
2182.705454206548
 20
410.5159324552405
 30
0.0
 11
2192.320941206548
 21
410.5159324552405
 31
0.0
  0
LINE
  5
162
330
15
100
AcDbEntity
  8
4
100
AcDbLine
 10
2168.805448206547
 20
630.5159294552404
 30
0.0
 11
2182.705454206548
 21
630.5159294552404
 31
0.0
  0
LINE
  5
163
330
15
100
AcDbEntity
  8
4
100
AcDbLine
 10
2168.805448206547
 20
640.5159334552404
 30
0.0
 11
2182.705454206548
 21
640.5159334552404
 31
0.0
  0
LINE
  5
164
330
15
100
AcDbEntity
  8
4
100
AcDbLine
 10
2192.865744206547
 20
640.5159334552404
 30
0.0
 11
2182.705454206548
 21
640.5159334552404
 31
0.0
  0
LINE
  5
165
330
15
100
AcDbEntity
  8
4
100
AcDbLine
 10
2192.697296206547
 20
630.5159294552404
 30
0.0
 11
2182.705454206548
 21
630.5159294552404
 31
0.0
  0
LINE
  5
166
330
15
100
AcDbEntity
  8
4
100
AcDbLine
 10
2526.705446206548
 20
360.5159334552404
 30
0.0
 11
2526.705446206548
 21
640.5159334552404
 31
0.0
  0
LINE
  5
167
330
15
100
AcDbEntity
  8
2
100
AcDbLine
 10
2527.005446206548
 20
360.5159334552404
 30
0.0
 11
2527.005446206548
 21
640.5159334552404
 31
0.0
  0
ARC
  5
168
330
15
100
AcDbEntity
  8
4
100
AcDbCircle
 10
-5082.291333793452
 20
507.5159334552404
 30
0.0
 40
7599.999925
100
AcDbArc
 50
358.1402670000001
 51
1.859732999999974
  0
LINE
  5
169
330
15
100
AcDbEntity
  8
4
100
AcDbLine
 10
2541.605452206548
 20
361.5159334552404
 30
0.0
 11
2541.605452206548
 21
639.5159334552404
 31
0.0
  0
ARC
  5
16F
330
15
100
AcDbEntity
  8
4
100
AcDbCircle
 10
1986.705454206548
 20
270.5159324552405
 30
0.0
 40
399.999894
100
AcDbArc
 50
348.7075629999999
 51
11.29315000000009
  0
LINE
  5
170
330
15
100
AcDbEntity
  8
L-CENTER
 48
2.0
100
AcDbLine
 10
2342.705655437899
 20
316.5161418411089
 30
0.0
 11
2374.448933283319
 21
348.2594121765392
 31
0.0
  0
LINE
  5
171
330
15
100
AcDbEntity
  8
L-CENTER
 48
2.0
100
AcDbLine
 10
2342.705658515158
 20
224.5157261466306
 30
0.0
 11
2374.448932605583
 21
192.7724520562051
 31
0.0
  0
CIRCLE
  5
172
330
15
100
AcDbEntity
  8
4
100
AcDbCircle
 10
2296.705452206547
 20
270.5159324552405
 30
0.0
 40
44.999997
  0
ARC
  5
173
330
15
100
AcDbEntity
  8
4
100
AcDbCircle
 10
2296.705452206547
 20
270.5159324552405
 30
0.0
 40
29.000034
100
AcDbArc
 50
104.988214999998
 51
75.01178499999833
  0
LINE
  5
174
330
15
100
AcDbEntity
  8
4
100
AcDbLine
 10
2289.205449206548
 20
304.5159334552404
 30
0.0
 11
2289.205449206548
 21
294.5159364552405
 31
0.0
  0
LINE
  5
175
330
15
100
AcDbEntity
  8
4
100
AcDbLine
 10
2304.205448206547
 20
294.5159364552405
 30
0.0
 11
2304.205448206547
 21
304.5159334552404
 31
0.0
  0
LINE
  5
176
330
15
100
AcDbEntity
  8
4
100
AcDbLine
 10
2304.205448206547
 20
294.5159364552405
 30
0.0
 11
2289.205449206548
 21
294.5159364552405
 31
0.0
  0
LINE
  5
177
330
15
100
AcDbEntity
  8
4
100
AcDbLine
 10
2304.205448206547
 20
304.5159334552404
 30
0.0
 11
2289.205449206548
 21
304.5159334552404
 31
0.0
  0
ARC
  5
178
330
15
100
AcDbEntity
  8
4
100
AcDbCircle
 10
2374.057503206548
 20
193.1636434552402
 30
0.0
 40
4.999910999999999
100
AcDbArc
 50
281.2945689999945
 51
348.7054310000055
  0
ARC
  5
179
330
15
100
AcDbEntity
  8
4
100
AcDbCircle
 10
2374.057503206548
 20
347.8682284552406
 30
0.0
 40
4.999910999999999
100
AcDbArc
 50
11.29456899999443
 51
78.70543100000558
  0
LINE
  5
17B
330
15
100
AcDbEntity
  8
4
100
AcDbLine
 10
2516.286821206548
 20
360.5159334552404
 30
0.0
 11
2526.705446206548
 21
360.5159334552404
 31
0.0
  0
LINE
  5
17C
330
15
100
AcDbEntity
  8
4
100
AcDbLine
 10
2540.605452206548
 20
360.5159334552404
 30
0.0
 11
2526.705446206548
 21
360.5159334552404
 31
0.0
  0
LINE
  5
17D
330
15
100
AcDbEntity
  8
4
100
AcDbLine
 10
2526.705446206548
 20
410.5159324552405
 30
0.0
 11
2517.089560206547
 21
410.5159324552405
 31
0.0
  0
LINE
  5
17E
330
15
100
AcDbEntity
  8
4
100
AcDbLine
 10
2540.605452206548
 20
410.5159324552405
 30
0.0
 11
2526.705446206548
 21
410.5159324552405
 31
0.0
  0
LINE
  5
180
330
15
100
AcDbEntity
  8
4
100
AcDbLine
 10
2542.605451206548
 20
430.5159334552404
 30
0.0
 11
2541.605452206548
 21
430.5159334552404
 31
0.0
  0
LINE
  5
186
330
15
100
AcDbEntity
  8
4
100
AcDbLine
 10
2516.713205206547
 20
630.5159294552404
 30
0.0
 11
2526.705446206548
 21
630.5159294552404
 31
0.0
  0
LINE
  5
187
330
15
100
AcDbEntity
  8
4
100
AcDbLine
 10
2516.544757206548
 20
640.5159334552404
 30
0.0
 11
2526.705446206548
 21
640.5159334552404
 31
0.0
  0
LINE
  5
188
330
15
100
AcDbEntity
  8
4
100
AcDbLine
 10
2540.605452206548
 20
630.5159294552404
 30
0.0
 11
2526.705446206548
 21
630.5159294552404
 31
0.0
  0
LINE
  5
189
330
15
100
AcDbEntity
  8
4
100
AcDbLine
 10
2540.605452206548
 20
640.5159334552404
 30
0.0
 11
2526.705446206548
 21
640.5159334552404
 31
0.0
  0
LINE
  5
18B
330
15
100
AcDbEntity
  8
4
100
AcDbLine
 10
2479.705451206547
 20
904.5159284552406
 30
0.0
 11
2229.705449206548
 21
904.5159284552406
 31
0.0
  0
LINE
  5
18C
330
15
100
AcDbEntity
  8
4
100
AcDbLine
 10
2199.673454206547
 20
855.5159284552406
 30
0.0
 11
2203.705454206548
 21
855.5159284552406
 31
0.0
  0
LINE
  5
18D
330
15
100
AcDbEntity
  8
4
100
AcDbLine
 10
2205.705452206548
 20
897.5159284552406
 30
0.0
 11
2227.705451206548
 21
897.5159284552406
 31
0.0
  0
ARC
  5
18E
330
15
100
AcDbEntity
  8
4
100
AcDbCircle
 10
2205.705452206548
 20
895.5159304552403
 30
0.0
 40
1.999998
100
AcDbArc
 50
90.0
 51
180.0
  0
ARC
  5
18F
330
15
100
AcDbEntity
  8
4
100
AcDbCircle
 10
2229.705449206548
 20
902.5159304552403
 30
0.0
 40
1.999998
100
AcDbArc
 50
90.0
 51
180.0
  0
LINE
  5
190
330
15
100
AcDbEntity
  8
4
100
AcDbLine
 10
2511.705447206547
 20
897.5159284552406
 30
0.0
 11
2485.705452206548
 21
897.5159284552406
 31
0.0
  0
ARC
  5
191
330
15
100
AcDbEntity
  8
4
100
AcDbCircle
 10
2354.705450206548
 20
952.5159294552404
 30
0.0
 40
45.000025
100
AcDbArc
 50
299.2650449999991
 51
240.7363439999996
  0
LINE
  5
192
330
15
100
AcDbEntity
  8
4
100
AcDbLine
 10
2412.705448206547
 20
907.5159324552405
 30
0.0
 11
2296.705452206547
 21
907.5159324552405
 31
0.0
  0
LINE
  5
193
330
15
100
AcDbEntity
  8
L-CENTER
 48
2.0
100
AcDbLine
 10
2297.731575206547
 20
952.5159294552404
 30
0.0
 11
2411.679325206549
 21
952.5159294552404
 31
0.0
  0
CIRCLE
  5
194
330
15
100
AcDbEntity
  8
4
100
AcDbCircle
 10
2354.705450206548
 20
952.5159294552404
 30
0.0
 40
25.000003
  0
LINE
  5
195
330
15
100
AcDbEntity
  8
4
100
AcDbLine
 10
2375.630984206548
 20
925.5159284552406
 30
0.0
 11
2333.780399206548
 21
925.5159284552406
 31
0.0
  0
LINE
  5
196
330
15
100
AcDbEntity
  8
4
100
AcDbLine
 10
2354.705450206548
 20
927.5159334552404
 30
0.0
 11
2375.630984206548
 21
925.5159284552406
 31
0.0
  0
LINE
  5
197
330
15
100
AcDbEntity
  8
4
100
AcDbLine
 10
2332.705451206547
 20
907.5159324552405
 30
0.0
 11
2376.705449206548
 21
907.5159324552405
 31
0.0
  0
LINE
  5
198
330
15
100
AcDbEntity
  8
4
100
AcDbLine
 10
2376.705449206548
 20
907.5159324552405
 30
0.0
 11
2332.705451206547
 21
907.5159324552405
 31
0.0
  0
LINE
  5
199
330
15
100
AcDbEntity
  8
4
100
AcDbLine
 10
2333.780399206548
 20
925.5159284552406
 30
0.0
 11
2332.205448206547
 21
907.5159324552405
 31
0.0
  0
LINE
  5
19A
330
15
100
AcDbEntity
  8
4
100
AcDbLine
 10
2296.705452206547
 20
904.5159284552406
 30
0.0
 11
2296.705452206547
 21
907.5159324552405
 31
0.0
  0
LINE
  5
19B
330
15
100
AcDbEntity
  8
4
100
AcDbLine
 10
2331.705452206548
 20
909.5159304552403
 30
0.0
 11
2331.705452206548
 21
913.5159334552404
 31
0.0
  0
LINE
  5
19C
330
15
100
AcDbEntity
  8
4
100
AcDbLine
 10
2331.705452206548
 20
909.5159304552403
 30
0.0
 11
2332.380497206547
 21
909.5159304552403
 31
0.0
  0
LINE
  5
19D
330
15
100
AcDbEntity
  8
4
100
AcDbLine
 10
2331.705452206548
 20
913.5159334552404
 30
0.0
 11
2332.255498206547
 21
913.5159334552404
 31
0.0
  0
LINE
  5
19E
330
15
100
AcDbEntity
  8
4
100
AcDbLine
 10
2333.780399206548
 20
925.5159284552406
 30
0.0
 11
2354.705450206548
 21
927.5159334552404
 31
0.0
  0
LINE
  5
19F
330
15
100
AcDbEntity
  8
4
100
AcDbLine
 10
2375.630984206548
 20
925.5159284552406
 30
0.0
 11
2377.205697206548
 21
907.5159324552405
 31
0.0
  0
LINE
  5
1A0
330
15
100
AcDbEntity
  8
4
100
AcDbLine
 10
2377.705448206547
 20
909.5159304552403
 30
0.0
 11
2377.705448206547
 21
913.5159334552404
 31
0.0
  0
LINE
  5
1A1
330
15
100
AcDbEntity
  8
4
100
AcDbLine
 10
2377.030648206548
 20
909.5159304552403
 30
0.0
 11
2377.705448206547
 21
909.5159304552403
 31
0.0
  0
LINE
  5
1A2
330
15
100
AcDbEntity
  8
4
100
AcDbLine
 10
2377.155402206547
 20
913.5159334552404
 30
0.0
 11
2377.705448206547
 21
913.5159334552404
 31
0.0
  0
LINE
  5
1A3
330
15
100
AcDbEntity
  8
4
100
AcDbLine
 10
2412.705448206547
 20
904.5159284552406
 30
0.0
 11
2412.705448206547
 21
907.5159324552405
 31
0.0
  0
LINE
  5
1A4
330
15
100
AcDbEntity
  8
4
100
AcDbLine
 10
2481.705449206548
 20
897.5159284552406
 30
0.0
 11
2485.705452206548
 21
897.5159284552406
 31
0.0
  0
ARC
  5
1A5
330
15
100
AcDbEntity
  8
4
100
AcDbCircle
 10
2479.705451206547
 20
902.5159304552403
 30
0.0
 40
1.999998
100
AcDbArc
 50
0.0
 51
90.0
  0
ARC
  5
1A6
330
15
100
AcDbEntity
  8
4
100
AcDbCircle
 10
2511.705447206547
 20
895.5159304552403
 30
0.0
 40
1.999998
100
AcDbArc
 50
0.0
 51
90.0
  0
LINE
  5
1A9
330
15
100
AcDbEntity
  8
L-CENTER
 48
2.0
100
AcDbLine
 10
556.8600114979663
 20
1812.647382718481
 30
0.0
 11
1397.396072662212
 21
1812.647382718481
 31
0.0
  0
LINE
  5
1AA
330
15
100
AcDbEntity
  8
4
100
AcDbLine
 10
587.128042080089
 20
1943.647382718481
 30
0.0
 11
1367.128042080089
 21
1943.647382718481
 31
0.0
  0
LINE
  5
1AB
330
15
100
AcDbEntity
  8
4
100
AcDbLine
 10
716.5380420800893
 20
1640.647382718481
 30
0.0
 11
996.5380420800889
 21
1640.647382718481
 31
0.0
  0
ARC
  5
1AC
330
15
100
AcDbEntity
  8
4
100
AcDbCircle
 10
977.128042080089
 20
9249.675833666224
 30
0.0
 40
7600.0
100
AcDbArc
 50
267.375538758927
 51
272.624461241073
  0
LINE
  5
1AD
330
15
100
AcDbEntity
  8
4
100
AcDbLine
 10
571.1280420800895
 20
1587.647382718481
 30
0.0
 11
571.1280420800886
 21
2037.647382718481
 31
0.0
  0
LINE
  5
1AE
330
15
100
AcDbEntity
  8
4
100
AcDbLine
 10
566.1280420800895
 20
1664.647382718481
 30
0.0
 11
566.1280420800895
 21
1844.647382718481
 31
0.0
  0
LINE
  5
1AF
330
15
100
AcDbEntity
  8
2
100
AcDbLine
 10
565.8280420800895
 20
1664.647382718481
 30
0.0
 11
565.8280420800895
 21
1844.647382718481
 31
0.0
  0
LINE
  5
1B0
330
15
100
AcDbEntity
  8
4
100
AcDbLine
 10
587.1280420800895
 20
1683.647382718481
 30
0.0
 11
587.1280420800895
 21
1663.64738271848
 31
0.0
  0
ARC
  5
1B1
330
15
100
AcDbEntity
  8
4
100
AcDbCircle
 10
977.128042080089
 20
9249.675833666224
 30
0.0
 40
7604.0
100
AcDbArc
 50
267.3769202932932
 51
272.6230797067068
  0
LINE
  5
1B2
330
15
100
AcDbEntity
  8
4
100
AcDbLine
 10
763.4364935249419
 20
1572.647382718481
 30
0.0
 11
586.1280420800895
 21
1572.647382718481
 31
0.0
  0
LINE
  5
1B3
330
15
100
AcDbEntity
  8
L-CENTER
 48
2.0
100
AcDbLine
 10
692.1280420800886
 20
1622.647382718481
 30
0.0
 11
622.1280420800886
 21
1622.647382718481
 31
0.0
  0
ARC
  5
1B4
330
15
100
AcDbEntity
  8
4
100
AcDbCircle
 10
586.1280420800895
 20
1587.647382718481
 30
0.0
 40
15.0
100
AcDbArc
 50
180.0
 51
270.0
  0
LINE
  5
1B5
330
15
100
AcDbEntity
  8
4
100
AcDbLine
 10
589.1280420800895
 20
1661.64738271848
 30
0.0
 11
1365.128042080089
 21
1661.64738271848
 31
0.0
  0
LINE
  5
1B6
330
15
100
AcDbEntity
  8
4
100
AcDbLine
 10
571.1280420800895
 20
1659.64738271848
 30
0.0
 11
628.9564692048198
 21
1659.64738271848
 31
0.0
  0
LINE
  5
1B7
330
15
100
AcDbEntity
  8
4
100
AcDbLine
 10
591.1280420800895
 20
1622.647382718481
 30
0.0
 11
591.1280420800895
 21
1656.64738271848
 31
0.0
  0
LINE
  5
1B8
330
15
100
AcDbEntity
  8
4
100
AcDbLine
 10
594.1280420800895
 20
1622.647382718481
 30
0.0
 11
594.1280420800895
 21
1656.64738271848
 31
0.0
  0
LINE
  5
1B9
330
15
100
AcDbEntity
  8
4
100
AcDbLine
 10
594.1280420800895
 20
1622.647382718481
 30
0.0
 11
571.1280420800895
 21
1622.647382718481
 31
0.0
  0
ARC
  5
1BA
330
15
100
AcDbEntity
  8
4
100
AcDbCircle
 10
594.1280420800895
 20
1656.64738271848
 30
0.0
 40
3.0
100
AcDbArc
 50
90.0
 51
180.0
  0
ARC
  5
1BB
330
15
100
AcDbEntity
  8
4
100
AcDbCircle
 10
589.1280420800895
 20
1663.64738271848
 30
0.0
 40
2.0
100
AcDbArc
 50
180.0
 51
270.0
  0
LINE
  5
1BC
330
15
100
AcDbEntity
  8
4
100
AcDbLine
 10
566.1280420800895
 20
1664.647382718481
 30
0.0
 11
571.1280420800886
 21
1659.647382718481
 31
0.0
  0
ARC
  5
1BD
330
15
100
AcDbEntity
  8
4
100
AcDbCircle
 10
597.1280420800895
 20
1656.64738271848
 30
0.0
 40
3.0
100
AcDbArc
 50
90.0
 51
180.0
  0
LINE
  5
1BE
330
15
100
AcDbEntity
  8
L-CENTER
 48
2.0
100
AcDbLine
 10
657.1280420800886
 20
1587.647382718481
 30
0.0
 11
657.1280420800877
 21
1657.647382718481
 31
0.0
  0
CIRCLE
  5
1BF
330
15
100
AcDbEntity
  8
4
100
AcDbCircle
 10
657.1280420800886
 20
1622.647382718481
 30
0.0
 40
13.0
  0
LINE
  5
1C0
330
15
100
AcDbEntity
  8
4
100
AcDbLine
 10
629.1280420800895
 20
1658.64738271848
 30
0.0
 11
629.1280420800895
 21
1653.643184973882
 31
0.0
  0
ARC
  5
1C1
330
15
100
AcDbEntity
  8
4
100
AcDbCircle
 10
626.1280420800895
 20
1658.64738271848
 30
0.0
 40
3.0
100
AcDbArc
 50
0.0
 51
90.0
  0
LINE
  5
1C2
330
15
100
AcDbEntity
  8
4
100
AcDbLine
 10
785.2253872128324
 20
1625.747382718482
 30
0.0
 11
773.1016763108569
 21
1580.081404987708
 31
0.0
  0
ARC
  5
1C3
330
15
100
AcDbEntity
  8
4
100
AcDbCircle
 10
763.4364935249419
 20
1582.647382718481
 30
0.0
 40
10.0
100
AcDbArc
 50
270.0
 51
345.1317186415046
  0
ARC
  5
1C4
330
15
100
AcDbEntity
  8
4
100
AcDbCircle
 10
711.5380420800893
 20
1645.312418369715
 30
0.0
 40
5.0
100
AcDbArc
 50
0.0
 51
87.99970065370903
  0
LINE
  5
1C5
330
15
100
AcDbEntity
  8
4
100
AcDbLine
 10
716.5380420800893
 20
1640.647382718481
 30
0.0
 11
716.5380420800893
 21
1645.312418369715
 31
0.0
  0
ARC
  5
1C6
330
15
100
AcDbEntity
  8
4
100
AcDbCircle
 10
585.1280420800895
 20
1683.647382718481
 30
0.0
 40
2.0
100
AcDbArc
 50
0.0
 51
90.0
  0
LINE
  5
1C7
330
15
100
AcDbEntity
  8
4
100
AcDbLine
 10
573.1280420800895
 20
1685.64738271848
 30
0.0
 11
1381.128042080089
 21
1685.64738271851
 31
0.0
  0
ARC
  5
1C8
330
15
100
AcDbEntity
  8
4
100
AcDbCircle
 10
573.1280420800895
 20
1687.64738271848
 30
0.0
 40
2.0
100
AcDbArc
 50
180.0
 51
270.0
  0
LINE
  5
1C9
330
15
100
AcDbEntity
  8
4
100
AcDbLine
 10
594.1280420800886
 20
1971.947382718482
 30
0.0
 11
594.1280420800886
 21
2002.647382718481
 31
0.0
  0
LINE
  5
1CA
330
15
100
AcDbEntity
  8
4
100
AcDbLine
 10
591.1280420800886
 20
1971.947382718482
 30
0.0
 11
591.1280420800886
 21
2002.647382718481
 31
0.0
  0
CIRCLE
  5
1CB
330
15
100
AcDbEntity
  8
4
100
AcDbCircle
 10
657.1280420800886
 20
2002.647382718481
 30
0.0
 40
13.0
  0
LINE
  5
1CC
330
15
100
AcDbEntity
  8
L-CENTER
 48
2.0
100
AcDbLine
 10
657.1280420800886
 20
2037.647382718481
 30
0.0
 11
657.1280420800877
 21
1967.647382718481
 31
0.0
  0
LINE
  5
1CD
330
15
100
AcDbEntity
  8
4
100
AcDbLine
 10
774.0884934262399
 20
2041.496349314644
 30
0.0
 11
785.1457411951324
 21
1999.847382718482
 31
0.0
  0
LINE
  5
1CE
330
15
100
AcDbEntity
  8
4
100
AcDbLine
 10
566.1280420800895
 20
1844.647382718481
 30
0.0
 11
571.1280420800886
 21
1849.647382718481
 31
0.0
  0
ARC
  5
1CF
330
15
100
AcDbEntity
  8
4
100
AcDbCircle
 10
573.1280420800895
 20
1937.647382718481
 30
0.0
 40
2.0
100
AcDbArc
 50
90.0
 51
180.0
  0
LINE
  5
1D0
330
15
100
AcDbEntity
  8
4
100
AcDbLine
 10
573.1280420800895
 20
1939.647382718481
 30
0.0
 11
1381.128042080089
 21
1939.647382718481
 31
0.0
  0
LINE
  5
1D1
330
15
100
AcDbEntity
  8
4
100
AcDbLine
 10
586.1280420800886
 20
2052.647382718481
 30
0.0
 11
759.5907192473665
 21
2052.647382718481
 31
0.0
  0
LINE
  5
1D2
330
15
100
AcDbEntity
  8
L-CENTER
 48
2.0
100
AcDbLine
 10
692.1280420800886
 20
2002.647382718481
 30
0.0
 11
622.1280420800886
 21
2002.647382718481
 31
0.0
  0
LINE
  5
1D3
330
15
100
AcDbEntity
  8
4
100
AcDbLine
 10
594.1280420800886
 20
2002.647382718481
 30
0.0
 11
571.1280420800886
 21
2002.64738271848
 31
0.0
  0
ARC
  5
1D4
330
15
100
AcDbEntity
  8
4
100
AcDbCircle
 10
586.1280420800886
 20
2037.647382718481
 30
0.0
 40
15.0
100
AcDbArc
 50
90.0
 51
180.0
  0
ARC
  5
1D5
330
15
100
AcDbEntity
  8
4
100
AcDbCircle
 10
759.5907192473665
 20
2037.647382718481
 30
0.0
 40
15.0
100
AcDbArc
 50
14.86828135850259
 51
90.0
  0
LINE
  5
1D6
330
15
100
AcDbEntity
  8
L-CENTER
 48
2.0
100
AcDbLine
 10
1262.128042080091
 20
2002.647382718481
 30
0.0
 11
1332.128042080091
 21
2002.647382718481
 31
0.0
  0
CIRCLE
  5
1D7
330
15
100
AcDbEntity
  8
4
100
AcDbCircle
 10
1297.128042080091
 20
2002.647382718481
 30
0.0
 40
13.0
  0
LINE
  5
1D8
330
15
100
AcDbEntity
  8
4
100
AcDbLine
 10
1368.128042080089
 20
2052.647382718481
 30
0.0
 11
1194.665364912812
 21
2052.647382718481
 31
0.0
  0
CIRCLE
  5
1D9
330
15
100
AcDbEntity
  8
4
100
AcDbCircle
 10
1297.128042080091
 20
1622.647382718481
 30
0.0
 40
13.0
  0
LINE
  5
1DA
330
15
100
AcDbEntity
  8
L-CENTER
 48
2.0
100
AcDbLine
 10
1262.128042080091
 20
1622.647382718481
 30
0.0
 11
1332.128042080091
 21
1622.647382718481
 31
0.0
  0
LINE
  5
1DB
330
15
100
AcDbEntity
  8
4
100
AcDbLine
 10
1190.819590635238
 20
1572.647382718481
 30
0.0
 11
1368.128042080089
 21
1572.647382718481
 31
0.0
  0
LINE
  5
1DC
330
15
100
AcDbEntity
  8
L-CENTER
 48
2.0
100
AcDbLine
 10
977.128042080089
 20
1991.216113347136
 30
0.0
 11
977.128042080089
 21
1634.078652089827
 31
0.0
  0
LINE
  5
1DD
330
15
100
AcDbEntity
  8
4
100
AcDbLine
 10
587.128042080089
 20
1969.947382718482
 30
0.0
 11
587.128042080089
 21
1939.647382718481
 31
0.0
  0
LINE
  5
1DE
330
15
100
AcDbEntity
  8
4
100
AcDbLine
 10
1367.128042080089
 20
1969.947382718482
 30
0.0
 11
1367.128042080089
 21
1939.647382718481
 31
0.0
  0
LINE
  5
1DF
330
15
100
AcDbEntity
  8
4
100
AcDbLine
 10
1016.538042080089
 20
1640.647382718481
 30
0.0
 11
1236.538042080089
 21
1640.647382718481
 31
0.0
  0
LINE
  5
1E0
330
15
100
AcDbEntity
  8
4
100
AcDbLine
 10
996.5380420800889
 20
1640.647382718481
 30
0.0
 11
996.5380420800889
 21
1640.714987933083
 31
0.0
  0
LINE
  5
1E1
330
15
100
AcDbEntity
  8
4
100
AcDbLine
 10
1016.538042080089
 20
1640.647382718481
 30
0.0
 11
1016.538042080089
 21
1640.753639826943
 31
0.0
  0
ARC
  5
1E2
330
15
100
AcDbEntity
  8
4
100
AcDbCircle
 10
1001.538042080089
 20
1640.714987933083
 30
0.0
 40
5.0
100
AcDbArc
 50
90.18380764576611
 51
180.0
  0
ARC
  5
1E3
330
15
100
AcDbEntity
  8
4
100
AcDbCircle
 10
1011.538042080089
 20
1640.753639826943
 30
0.0
 40
5.0
100
AcDbArc
 50
0.0
 51
90.25910822621238
  0
LINE
  5
1E4
330
15
100
AcDbEntity
  8
4
100
AcDbLine
 10
1169.030696947347
 20
1625.747382718481
 30
0.0
 11
1181.154407849321
 21
1580.081404987707
 31
0.0
  0
ARC
  5
1E5
330
15
100
AcDbEntity
  8
4
100
AcDbCircle
 10
1190.819590635238
 20
1582.647382718481
 30
0.0
 40
10.0
100
AcDbArc
 50
194.8682813585007
 51
270.0
  0
LINE
  5
1E6
330
15
100
AcDbEntity
  8
4
100
AcDbLine
 10
1236.538042080089
 20
1640.647382718481
 30
0.0
 11
1236.538042080089
 21
1645.271297353076
 31
0.0
  0
ARC
  5
1E7
330
15
100
AcDbEntity
  8
4
100
AcDbCircle
 10
1241.538042080089
 20
1645.271297353076
 30
0.0
 40
5.0
100
AcDbArc
 50
91.9914085511411
 51
180.0
  0
LINE
  5
1E8
330
15
100
AcDbEntity
  8
L-CENTER
 48
2.0
100
AcDbLine
 10
1297.128042080089
 20
1587.647382718481
 30
0.0
 11
1297.128042080091
 21
1657.647382718481
 31
0.0
  0
LINE
  5
1E9
330
15
100
AcDbEntity
  8
L-CENTER
 48
2.0
100
AcDbLine
 10
1297.128042080089
 20
2037.647382718481
 30
0.0
 11
1297.128042080091
 21
1967.647382718481
 31
0.0
  0
LINE
  5
1EA
330
15
100
AcDbEntity
  8
4
100
AcDbLine
 10
1180.167590733936
 20
2041.496349314642
 30
0.0
 11
1169.110342965045
 21
1999.847382718482
 31
0.0
  0
ARC
  5
1EB
330
15
100
AcDbEntity
  8
4
100
AcDbCircle
 10
1194.665364912812
 20
2037.647382718481
 30
0.0
 40
15.0
100
AcDbArc
 50
90.0
 51
165.1317186415047
  0
LINE
  5
1EC
330
15
100
AcDbEntity
  8
4
100
AcDbLine
 10
1383.128042080089
 20
1587.647382718481
 30
0.0
 11
1383.128042080089
 21
2037.647382718481
 31
0.0
  0
LINE
  5
1ED
330
15
100
AcDbEntity
  8
4
100
AcDbLine
 10
1388.128042080089
 20
1664.647382718481
 30
0.0
 11
1388.128042080089
 21
1844.647382718481
 31
0.0
  0
LINE
  5
1EE
330
15
100
AcDbEntity
  8
2
100
AcDbLine
 10
1388.428042080089
 20
1664.647382718481
 30
0.0
 11
1388.428042080089
 21
1844.647382718481
 31
0.0
  0
LINE
  5
1EF
330
15
100
AcDbEntity
  8
4
100
AcDbLine
 10
1367.128042080089
 20
1683.647382718481
 30
0.0
 11
1367.128042080089
 21
1663.64738271848
 31
0.0
  0
ARC
  5
1F0
330
15
100
AcDbEntity
  8
4
100
AcDbCircle
 10
1368.128042080089
 20
1587.647382718481
 30
0.0
 40
15.0
100
AcDbArc
 50
270.0
 51
0.0
  0
ARC
  5
1F1
330
15
100
AcDbEntity
  8
4
100
AcDbCircle
 10
1365.128042080089
 20
1663.64738271848
 30
0.0
 40
2.0
100
AcDbArc
 50
270.0
 51
0.0
  0
LINE
  5
1F2
330
15
100
AcDbEntity
  8
4
100
AcDbLine
 10
1360.128042080089
 20
1622.647382718481
 30
0.0
 11
1383.128042080089
 21
1622.647382718481
 31
0.0
  0
LINE
  5
1F3
330
15
100
AcDbEntity
  8
4
100
AcDbLine
 10
1383.128042080089
 20
1659.64738271848
 30
0.0
 11
1325.299614955359
 21
1659.64738271848
 31
0.0
  0
LINE
  5
1F4
330
15
100
AcDbEntity
  8
4
100
AcDbLine
 10
1363.128042080089
 20
1622.647382718481
 30
0.0
 11
1363.128042080089
 21
1656.64738271848
 31
0.0
  0
LINE
  5
1F5
330
15
100
AcDbEntity
  8
4
100
AcDbLine
 10
1360.128042080089
 20
1622.647382718481
 30
0.0
 11
1360.128042080089
 21
1656.64738271848
 31
0.0
  0
LINE
  5
1F6
330
15
100
AcDbEntity
  8
4
100
AcDbLine
 10
1325.128042080089
 20
1658.64738271848
 30
0.0
 11
1325.128042080089
 21
1653.643184973882
 31
0.0
  0
ARC
  5
1F7
330
15
100
AcDbEntity
  8
4
100
AcDbCircle
 10
1328.128042080089
 20
1658.64738271848
 30
0.0
 40
3.0
100
AcDbArc
 50
90.0
 51
180.0
  0
ARC
  5
1F8
330
15
100
AcDbEntity
  8
4
100
AcDbCircle
 10
1360.128042080089
 20
1656.64738271848
 30
0.0
 40
3.0
100
AcDbArc
 50
0.0
 51
90.0
  0
ARC
  5
1F9
330
15
100
AcDbEntity
  8
4
100
AcDbCircle
 10
1357.128042080089
 20
1656.64738271848
 30
0.0
 40
3.0
100
AcDbArc
 50
0.0
 51
90.0
  0
LINE
  5
1FA
330
15
100
AcDbEntity
  8
4
100
AcDbLine
 10
1388.128042080089
 20
1664.647382718481
 30
0.0
 11
1383.128042080089
 21
1659.647382718481
 31
0.0
  0
ARC
  5
1FB
330
15
100
AcDbEntity
  8
4
100
AcDbCircle
 10
1369.128042080089
 20
1683.647382718481
 30
0.0
 40
2.0
100
AcDbArc
 50
90.0
 51
180.0
  0
ARC
  5
1FC
330
15
100
AcDbEntity
  8
4
100
AcDbCircle
 10
1381.128042080089
 20
1687.64738271848
 30
0.0
 40
2.0
100
AcDbArc
 50
270.0
 51
0.0
  0
LINE
  5
1FD
330
15
100
AcDbEntity
  8
4
100
AcDbLine
 10
1363.128042080091
 20
1971.947382718482
 30
0.0
 11
1363.128042080091
 21
2002.647382718481
 31
0.0
  0
LINE
  5
1FE
330
15
100
AcDbEntity
  8
4
100
AcDbLine
 10
1360.128042080091
 20
1971.947382718482
 30
0.0
 11
1360.128042080091
 21
2002.647382718481
 31
0.0
  0
LINE
  5
1FF
330
15
100
AcDbEntity
  8
4
100
AcDbLine
 10
1388.128042080089
 20
1844.647382718481
 30
0.0
 11
1383.128042080089
 21
1849.647382718481
 31
0.0
  0
ARC
  5
200
330
15
100
AcDbEntity
  8
4
100
AcDbCircle
 10
1381.128042080089
 20
1937.647382718481
 30
0.0
 40
2.0
100
AcDbArc
 50
0.0
 51
90.0
  0
LINE
  5
201
330
15
100
AcDbEntity
  8
4
100
AcDbLine
 10
1360.128042080091
 20
2002.647382718481
 30
0.0
 11
1383.128042080091
 21
2002.64738271848
 31
0.0
  0
ARC
  5
202
330
15
100
AcDbEntity
  8
4
100
AcDbCircle
 10
1368.128042080089
 20
2037.647382718481
 30
0.0
 40
15.0
100
AcDbArc
 50
0.0
 51
90.0
  0
LINE
  5
203
330
15
100
AcDbEntity
  8
4
100
AcDbLine
 10
1007.128042080089
 20
1757.647382718481
 30
0.0
 11
1007.128042080089
 21
1867.647382718481
 31
0.0
  0
LINE
  5
204
330
15
100
AcDbEntity
  8
4
100
AcDbLine
 10
950.128042080089
 20
1754.647382718481
 30
0.0
 11
1004.128042080089
 21
1754.647382718481
 31
0.0
  0
ARC
  5
205
330
15
100
AcDbEntity
  8
4
100
AcDbCircle
 10
1004.128042080089
 20
1757.647382718481
 30
0.0
 40
3.0
100
AcDbArc
 50
270.0
 51
0.0
  0
LINE
  5
206
330
15
100
AcDbEntity
  8
4
100
AcDbLine
 10
947.128042080089
 20
1757.647382718481
 30
0.0
 11
947.128042080089
 21
1867.647382718481
 31
0.0
  0
ARC
  5
207
330
15
100
AcDbEntity
  8
4
100
AcDbCircle
 10
950.128042080089
 20
1757.647382718481
 30
0.0
 40
3.0
100
AcDbArc
 50
180.0
 51
270.0
  0
LINE
  5
208
330
15
100
AcDbEntity
  8
4
100
AcDbLine
 10
950.128042080089
 20
1870.647382718481
 30
0.0
 11
1004.128042080089
 21
1870.647382718481
 31
0.0
  0
ARC
  5
209
330
15
100
AcDbEntity
  8
4
100
AcDbCircle
 10
950.128042080089
 20
1867.647382718481
 30
0.0
 40
3.0
100
AcDbArc
 50
90.0
 51
180.0
  0
ARC
  5
20A
330
15
100
AcDbEntity
  8
4
100
AcDbCircle
 10
1004.128042080089
 20
1867.647382718481
 30
0.0
 40
3.0
100
AcDbArc
 50
0.0
 51
90.0
  0
CIRCLE
  5
20B
330
15
100
AcDbEntity
  8
4
100
AcDbCircle
 10
727.1280420800895
 20
1812.647382718481
 30
0.0
 40
25.0
  0
LINE
  5
20C
330
15
100
AcDbEntity
  8
L-CENTER
 48
2.0
100
AcDbLine
 10
727.1280420800895
 20
1777.647382718482
 30
0.0
 11
727.1280420800895
 21
1847.64738271848
 31
0.0
  0
LINE
  5
20D
330
15
100
AcDbEntity
  8
L-CENTER
 48
2.0
100
AcDbLine
 10
403.2965040800889
 20
1754.647382718481
 30
0.0
 11
1550.959580080089
 21
1754.647382718481
 31
0.0
  0
ARC
  5
20E
330
15
100
AcDbEntity
  8
4
100
AcDbCircle
 10
977.1280420800908
 20
-5624.081068229263
 30
0.0
 40
7600.0
100
AcDbArc
 50
88.14762157577965
 51
91.85237842422035
  0
ARC
  5
20F
330
15
100
AcDbEntity
  8
4
100
AcDbCircle
 10
977.1280420800908
 20
-5624.081068229263
 30
0.0
 40
7604.0
100
AcDbArc
 50
87.37622925480406
 51
92.6237707451959
  0
LINE
  5
210
330
15
100
AcDbEntity
  8
2
100
AcDbLine
 10
587.128042080089
 20
1943.947382718482
 30
0.0
 11
1367.128042080089
 21
1943.947382718482
 31
0.0
  0
LINE
  5
211
330
15
100
AcDbEntity
  8
4
100
AcDbLine
 10
589.128042080089
 20
1971.947382718482
 30
0.0
 11
1365.128042080089
 21
1971.947382718482
 31
0.0
  0
LINE
  5
212
330
15
100
AcDbEntity
  8
4
100
AcDbLine
 10
716.5380420800893
 20
1984.947382718482
 30
0.0
 11
996.5380420800889
 21
1984.947382718482
 31
0.0
  0
ARC
  5
213
330
15
100
AcDbEntity
  8
4
100
AcDbCircle
 10
711.5380420800889
 20
1980.282347067248
 30
0.0
 40
5.0
100
AcDbArc
 50
272.0002993462543
 51
0.0
  0
LINE
  5
214
330
15
100
AcDbEntity
  8
4
100
AcDbLine
 10
716.5380420800893
 20
1980.282347067247
 30
0.0
 11
716.5380420800893
 21
1984.947382718482
 31
0.0
  0
LINE
  5
215
330
15
100
AcDbEntity
  8
L-CENTER
 48
2.0
100
AcDbLine
 10
856.5380420800889
 20
1420.468427718482
 30
0.0
 11
856.5380420800889
 21
2014.448222598586
 31
0.0
  0
LINE
  5
216
330
15
100
AcDbEntity
  8
L-CENTER
 48
2.0
100
AcDbLine
 10
1126.538042080089
 20
1605.554623838435
 30
0.0
 11
1126.538042080089
 21
2016.761011371223
 31
0.0
  0
LINE
  5
217
330
15
100
AcDbEntity
  8
4
100
AcDbLine
 10
1016.538042080089
 20
1984.947382718482
 30
0.0
 11
1236.538042080089
 21
1984.947382718482
 31
0.0
  0
ARC
  5
218
330
15
100
AcDbEntity
  8
4
100
AcDbCircle
 10
1001.538042080089
 20
1984.87977750388
 30
0.0
 40
5.0
100
AcDbArc
 50
180.0
 51
269.8161923541921
  0
LINE
  5
219
330
15
100
AcDbEntity
  8
4
100
AcDbLine
 10
996.5380420800889
 20
1984.87977750388
 30
0.0
 11
996.5380420800889
 21
1984.947382718482
 31
0.0
  0
LINE
  5
21A
330
15
100
AcDbEntity
  8
4
100
AcDbLine
 10
1016.538042080089
 20
1984.84112561002
 30
0.0
 11
1016.538042080089
 21
1984.947382718482
 31
0.0
  0
ARC
  5
21B
330
15
100
AcDbEntity
  8
4
100
AcDbCircle
 10
1011.538042080089
 20
1984.84112561002
 30
0.0
 40
5.0
100
AcDbArc
 50
269.7408917738189
 51
0.0
  0
LINE
  5
21C
330
15
100
AcDbEntity
  8
4
100
AcDbLine
 10
1236.538042080089
 20
1980.323468083886
 30
0.0
 11
1236.538042080089
 21
1984.947382718482
 31
0.0
  0
ARC
  5
21D
330
15
100
AcDbEntity
  8
4
100
AcDbCircle
 10
1241.538042080089
 20
1980.323468083886
 30
0.0
 40
5.0
100
AcDbArc
 50
180.0
 51
268.0085914488276
  0
LINE
  5
21E
330
15
100
AcDbEntity
  8
4
100
AcDbLine
 10
717.5380420800893
 20
1999.847382718482
 30
0.0
 11
995.5380420800889
 21
1999.847382718482
 31
0.0
  0
LINE
  5
21F
330
15
100
AcDbEntity
  8
4
100
AcDbLine
 10
717.5380420800893
 20
1625.747382718482
 30
0.0
 11
995.5380420800889
 21
1625.747382718482
 31
0.0
  0
LINE
  5
220
330
15
100
AcDbEntity
  8
4
100
AcDbLine
 10
716.5380420800893
 20
1984.947382718482
 30
0.0
 11
716.5380420800893
 21
1998.847382718482
 31
0.0
  0
LINE
  5
221
330
15
100
AcDbEntity
  8
4
100
AcDbLine
 10
996.5380420800889
 20
1984.947382718482
 30
0.0
 11
996.5380420800889
 21
1998.847382718482
 31
0.0
  0
LINE
  5
222
330
15
100
AcDbEntity
  8
4
100
AcDbLine
 10
996.5380420800889
 20
1640.714987933083
 30
0.0
 11
996.5380420800889
 21
1626.747382718482
 31
0.0
  0
LINE
  5
223
330
15
100
AcDbEntity
  8
4
100
AcDbLine
 10
716.5380420800893
 20
1640.647382718481
 30
0.0
 11
716.5380420800893
 21
1626.747382718482
 31
0.0
  0
LINE
  5
224
330
15
100
AcDbEntity
  8
2
100
AcDbLine
 10
716.5380420800893
 20
1640.347382718482
 30
0.0
 11
996.5380420800889
 21
1640.347382718481
 31
0.0
  0
LINE
  5
225
330
15
100
AcDbEntity
  8
2
100
AcDbLine
 10
716.5380420800893
 20
1985.247382718482
 30
0.0
 11
996.5380420800889
 21
1985.247382718482
 31
0.0
  0
LINE
  5
226
330
15
100
AcDbEntity
  8
4
100
AcDbLine
 10
1017.538042080089
 20
1999.847382718482
 30
0.0
 11
1235.538042080089
 21
1999.847382718482
 31
0.0
  0
LINE
  5
227
330
15
100
AcDbEntity
  8
4
100
AcDbLine
 10
1017.538042080089
 20
1625.747382718481
 30
0.0
 11
1235.538042080089
 21
1625.747382718481
 31
0.0
  0
LINE
  5
228
330
15
100
AcDbEntity
  8
4
100
AcDbLine
 10
1016.538042080089
 20
1984.947382718482
 30
0.0
 11
1016.538042080089
 21
1998.847382718482
 31
0.0
  0
LINE
  5
229
330
15
100
AcDbEntity
  8
4
100
AcDbLine
 10
1236.538042080089
 20
1998.847382718482
 30
0.0
 11
1236.538042080089
 21
1984.947382718482
 31
0.0
  0
LINE
  5
22A
330
15
100
AcDbEntity
  8
4
100
AcDbLine
 10
1236.538042080089
 20
1640.647382718481
 30
0.0
 11
1236.538042080089
 21
1626.747382718481
 31
0.0
  0
LINE
  5
22B
330
15
100
AcDbEntity
  8
4
100
AcDbLine
 10
1016.538042080089
 20
1640.647382718481
 30
0.0
 11
1016.538042080089
 21
1626.747382718481
 31
0.0
  0
LINE
  5
22C
330
15
100
AcDbEntity
  8
2
100
AcDbLine
 10
1016.538042080089
 20
1640.34738271848
 30
0.0
 11
1236.538042080089
 21
1640.34738271848
 31
0.0
  0
LINE
  5
22D
330
15
100
AcDbEntity
  8
2
100
AcDbLine
 10
1016.538042080089
 20
1985.247382718482
 30
0.0
 11
1236.538042080089
 21
1985.247382718482
 31
0.0
  0
LINE
  5
22E
330
15
100
AcDbEntity
  8
4
100
AcDbLine
 10
1406.428046080088
 20
1664.647389028828
 30
0.0
 11
1406.428046080088
 21
1844.647383770205
 31
0.0
  0
LINE
  5
22F
330
15
100
AcDbEntity
  8
4
100
AcDbLine
 10
1388.128042080089
 20
1664.647382718481
 30
0.0
 11
1406.428046080088
 21
1664.647389028828
 31
0.0
  0
LINE
  5
230
330
15
100
AcDbEntity
  8
4
100
AcDbLine
 10
1388.128042080089
 20
1844.647382718481
 30
0.0
 11
1406.428046080088
 21
1844.647383770205
 31
0.0
  0
LINE
  5
231
330
15
100
AcDbEntity
  8
4
100
AcDbLine
 10
547.8280380800862
 20
1664.647389028838
 30
0.0
 11
547.8280380800908
 21
1844.647383770216
 31
0.0
  0
LINE
  5
232
330
15
100
AcDbEntity
  8
4
100
AcDbLine
 10
566.1280420800863
 20
1664.64738271849
 30
0.0
 11
547.8280380800862
 21
1664.647389028838
 31
0.0
  0
LINE
  5
233
330
15
100
AcDbEntity
  8
4
100
AcDbLine
 10
566.1280420800908
 20
1844.64738271849
 30
0.0
 11
547.8280380800908
 21
1844.647383770216
 31
0.0
  0
LINE
  5
234
330
15
100
AcDbEntity
  8
4
100
AcDbLine
 10
1406.428046080088
 20
1799.647382718481
 30
0.0
 11
1407.428046080088
 21
1799.647382718481
 31
0.0
  0
LINE
  5
235
330
15
100
AcDbEntity
  8
4
100
AcDbLine
 10
1406.428046080088
 20
1709.647382718481
 30
0.0
 11
1407.428046080088
 21
1709.647382718481
 31
0.0
  0
LINE
  5
236
330
15
100
AcDbEntity
  8
4
100
AcDbLine
 10
1407.428046080088
 20
1709.647382718481
 30
0.0
 11
1407.428046080088
 21
1799.647382718481
 31
0.0
  0
LINE
  5
237
330
15
100
AcDbEntity
  8
4
100
AcDbLine
 10
851.3851605227878
 20
630.0159324552405
 30
0.0
 11
845.9003329654865
 21
620.5159324552405
 31
0.0
  0
LINE
  5
238
330
15
100
AcDbEntity
  8
4
100
AcDbLine
 10
867.8396431946926
 20
620.5159324552405
 30
0.0
 11
862.3548156373904
 21
630.0159324552405
 31
0.0
  0
CIRCLE
  5
239
330
15
100
AcDbEntity
  8
4
100
AcDbCircle
 10
856.8699880800891
 20
620.5159324552405
 30
0.0
 40
9.5
  0
LINE
  5
23A
330
15
100
AcDbEntity
  8
4
100
AcDbLine
 10
845.9003329654865
 20
620.5159324552405
 30
0.0
 11
851.3851605227878
 21
611.0159324552405
 31
0.0
  0
LINE
  5
23B
330
15
100
AcDbEntity
  8
4
100
AcDbLine
 10
851.3851605227878
 20
611.0159324552405
 30
0.0
 11
862.3548156373904
 21
611.0159324552405
 31
0.0
  0
LINE
  5
23C
330
15
100
AcDbEntity
  8
4
100
AcDbLine
 10
862.3548156373904
 20
611.0159324552405
 30
0.0
 11
867.8396431946926
 21
620.5159324552405
 31
0.0
  0
LINE
  5
23D
330
15
100
AcDbEntity
  8
4
100
AcDbLine
 10
862.3548156373904
 20
630.0159324552405
 30
0.0
 11
851.3851605227878
 21
630.0159324552405
 31
0.0
  0
LINE
  5
23E
330
15
100
AcDbEntity
  8
4
100
AcDbLine
 10
747.4619399277794
 20
570.0156332974989
 30
0.0
 11
741.9771123704782
 21
560.5156332974989
 31
0.0
  0
LINE
  5
23F
330
15
100
AcDbEntity
  8
4
100
AcDbLine
 10
763.9164225996842
 20
560.5156332974989
 30
0.0
 11
758.431595042382
 21
570.0156332974989
 31
0.0
  0
CIRCLE
  5
240
330
15
100
AcDbEntity
  8
4
100
AcDbCircle
 10
752.9467674850807
 20
560.5156332974989
 30
0.0
 40
9.5
  0
LINE
  5
241
330
15
100
AcDbEntity
  8
4
100
AcDbLine
 10
741.9771123704782
 20
560.5156332974989
 30
0.0
 11
747.4619399277794
 21
551.0156332974989
 31
0.0
  0
LINE
  5
242
330
15
100
AcDbEntity
  8
4
100
AcDbLine
 10
747.4619399277794
 20
551.0156332974989
 30
0.0
 11
758.431595042382
 21
551.0156332974989
 31
0.0
  0
LINE
  5
243
330
15
100
AcDbEntity
  8
4
100
AcDbLine
 10
758.431595042382
 20
551.0156332974989
 30
0.0
 11
763.9164225996842
 21
560.5156332974989
 31
0.0
  0
LINE
  5
244
330
15
100
AcDbEntity
  8
4
100
AcDbLine
 10
758.431595042382
 20
570.0156332974989
 30
0.0
 11
747.4619399277794
 21
570.0156332974989
 31
0.0
  0
LINE
  5
245
330
15
100
AcDbEntity
  8
4
100
AcDbLine
 10
747.4622845729787
 20
450.0156366699703
 30
0.0
 11
741.9774570156774
 21
440.5156366699703
 31
0.0
  0
LINE
  5
246
330
15
100
AcDbEntity
  8
4
100
AcDbLine
 10
763.9167672448834
 20
440.5156366699703
 30
0.0
 11
758.4319396875812
 21
450.0156366699703
 31
0.0
  0
CIRCLE
  5
247
330
15
100
AcDbEntity
  8
4
100
AcDbCircle
 10
752.94711213028
 20
440.5156366699703
 30
0.0
 40
9.5
  0
LINE
  5
248
330
15
100
AcDbEntity
  8
4
100
AcDbLine
 10
741.9774570156774
 20
440.5156366699703
 30
0.0
 11
747.4622845729787
 21
431.0156366699703
 31
0.0
  0
LINE
  5
249
330
15
100
AcDbEntity
  8
4
100
AcDbLine
 10
747.4622845729787
 20
431.0156366699703
 30
0.0
 11
758.4319396875812
 21
431.0156366699703
 31
0.0
  0
LINE
  5
24A
330
15
100
AcDbEntity
  8
4
100
AcDbLine
 10
758.4319396875812
 20
431.0156366699703
 30
0.0
 11
763.9167672448834
 21
440.5156366699703
 31
0.0
  0
LINE
  5
24B
330
15
100
AcDbEntity
  8
4
100
AcDbLine
 10
758.4319396875812
 20
450.0156366699703
 30
0.0
 11
747.4622845729787
 21
450.0156366699703
 31
0.0
  0
LINE
  5
24C
330
15
100
AcDbEntity
  8
4
100
AcDbLine
 10
955.3080333690746
 20
570.0162356159335
 30
0.0
 11
949.8232058117733
 21
560.5162356159335
 31
0.0
  0
LINE
  5
24D
330
15
100
AcDbEntity
  8
4
100
AcDbLine
 10
971.7625160409793
 20
560.5162356159335
 30
0.0
 11
966.2776884836771
 21
570.0162356159335
 31
0.0
  0
CIRCLE
  5
24E
330
15
100
AcDbEntity
  8
4
100
AcDbCircle
 10
960.7928609263768
 20
560.5162356159335
 30
0.0
 40
9.5
  0
LINE
  5
24F
330
15
100
AcDbEntity
  8
4
100
AcDbLine
 10
949.8232058117733
 20
560.5162356159335
 30
0.0
 11
955.3080333690746
 21
551.0162356159335
 31
0.0
  0
LINE
  5
250
330
15
100
AcDbEntity
  8
4
100
AcDbLine
 10
955.3080333690746
 20
551.0162356159335
 30
0.0
 11
966.2776884836771
 21
551.0162356159335
 31
0.0
  0
LINE
  5
251
330
15
100
AcDbEntity
  8
4
100
AcDbLine
 10
966.2776884836771
 20
551.0162356159335
 30
0.0
 11
971.7625160409793
 21
560.5162356159335
 31
0.0
  0
LINE
  5
252
330
15
100
AcDbEntity
  8
4
100
AcDbLine
 10
966.2776884836771
 20
570.0162356159335
 30
0.0
 11
955.3080333690746
 21
570.0162356159335
 31
0.0
  0
LINE
  5
253
330
15
100
AcDbEntity
  8
4
100
AcDbLine
 10
851.3851605227878
 20
390.0159344552403
 30
0.0
 11
845.9003329654865
 21
380.5159344552403
 31
0.0
  0
LINE
  5
254
330
15
100
AcDbEntity
  8
4
100
AcDbLine
 10
867.8396431946926
 20
380.5159344552403
 30
0.0
 11
862.3548156373904
 21
390.0159344552403
 31
0.0
  0
CIRCLE
  5
255
330
15
100
AcDbEntity
  8
4
100
AcDbCircle
 10
856.8699880800891
 20
380.5159344552403
 30
0.0
 40
9.5
  0
LINE
  5
256
330
15
100
AcDbEntity
  8
4
100
AcDbLine
 10
845.9003329654865
 20
380.5159344552403
 30
0.0
 11
851.3851605227878
 21
371.0159344552403
 31
0.0
  0
LINE
  5
257
330
15
100
AcDbEntity
  8
4
100
AcDbLine
 10
851.3851605227878
 20
371.0159344552403
 30
0.0
 11
862.3548156373904
 21
371.0159344552403
 31
0.0
  0
LINE
  5
258
330
15
100
AcDbEntity
  8
4
100
AcDbLine
 10
862.3548156373904
 20
371.0159344552403
 30
0.0
 11
867.8396431946926
 21
380.5159344552403
 31
0.0
  0
LINE
  5
259
330
15
100
AcDbEntity
  8
4
100
AcDbLine
 10
862.3548156373904
 20
390.0159344552403
 30
0.0
 11
851.3851605227878
 21
390.0159344552403
 31
0.0
  0
LINE
  5
25A
330
15
100
AcDbEntity
  8
4
100
AcDbLine
 10
955.3083805772771
 20
450.0162326767686
 30
0.0
 11
949.8235530199759
 21
440.5162326767686
 31
0.0
  0
LINE
  5
25B
330
15
100
AcDbEntity
  8
4
100
AcDbLine
 10
971.7628632491819
 20
440.5162326767686
 30
0.0
 11
966.2780356918797
 21
450.0162326767686
 31
0.0
  0
CIRCLE
  5
25C
330
15
100
AcDbEntity
  8
4
100
AcDbCircle
 10
960.7932081345793
 20
440.5162326767686
 30
0.0
 40
9.5
  0
LINE
  5
25D
330
15
100
AcDbEntity
  8
4
100
AcDbLine
 10
949.8235530199759
 20
440.5162326767686
 30
0.0
 11
955.3083805772771
 21
431.0162326767686
 31
0.0
  0
LINE
  5
25E
330
15
100
AcDbEntity
  8
4
100
AcDbLine
 10
955.3083805772771
 20
431.0162326767686
 30
0.0
 11
966.2780356918797
 21
431.0162326767686
 31
0.0
  0
LINE
  5
25F
330
15
100
AcDbEntity
  8
4
100
AcDbLine
 10
966.2780356918797
 20
431.0162326767686
 30
0.0
 11
971.7628632491819
 21
440.5162326767686
 31
0.0
  0
LINE
  5
260
330
15
100
AcDbEntity
  8
4
100
AcDbLine
 10
966.2780356918797
 20
450.0162326767686
 30
0.0
 11
955.3083805772771
 21
450.0162326767686
 31
0.0
  0
LINE
  5
261
330
15
100
AcDbEntity
  8
4
100
AcDbLine
 10
1120.643212522788
 20
620.0159354552402
 30
0.0
 11
1115.158384965487
 21
610.5159354552402
 31
0.0
  0
LINE
  5
262
330
15
100
AcDbEntity
  8
4
100
AcDbLine
 10
1137.097695194693
 20
610.5159354552402
 30
0.0
 11
1131.612867637391
 21
620.0159354552402
 31
0.0
  0
CIRCLE
  5
263
330
15
100
AcDbEntity
  8
4
100
AcDbCircle
 10
1126.128040080089
 20
610.5159354552402
 30
0.0
 40
9.5
  0
LINE
  5
264
330
15
100
AcDbEntity
  8
4
100
AcDbLine
 10
1115.158384965487
 20
610.5159354552402
 30
0.0
 11
1120.643212522788
 21
601.0159354552402
 31
0.0
  0
LINE
  5
265
330
15
100
AcDbEntity
  8
4
100
AcDbLine
 10
1120.643212522788
 20
601.0159354552402
 30
0.0
 11
1131.612867637391
 21
601.0159354552402
 31
0.0
  0
LINE
  5
266
330
15
100
AcDbEntity
  8
4
100
AcDbLine
 10
1131.612867637391
 20
601.0159354552402
 30
0.0
 11
1137.097695194693
 21
610.5159354552402
 31
0.0
  0
LINE
  5
267
330
15
100
AcDbEntity
  8
4
100
AcDbLine
 10
1131.612867637391
 20
620.0159354552402
 30
0.0
 11
1120.643212522788
 21
620.0159354552402
 31
0.0
  0
LINE
  5
268
330
15
100
AcDbEntity
  8
4
100
AcDbLine
 10
1042.70083936219
 20
575.0157860782629
 30
0.0
 11
1037.216011804888
 21
565.5157860782629
 31
0.0
  0
LINE
  5
269
330
15
100
AcDbEntity
  8
4
100
AcDbLine
 10
1059.155322034094
 20
565.5157860782629
 30
0.0
 11
1053.670494476792
 21
575.0157860782629
 31
0.0
  0
CIRCLE
  5
26A
330
15
100
AcDbEntity
  8
4
100
AcDbCircle
 10
1048.185666919491
 20
565.5157860782629
 30
0.0
 40
9.5
  0
LINE
  5
26B
330
15
100
AcDbEntity
  8
4
100
AcDbLine
 10
1037.216011804888
 20
565.5157860782629
 30
0.0
 11
1042.70083936219
 21
556.0157860782629
 31
0.0
  0
LINE
  5
26C
330
15
100
AcDbEntity
  8
4
100
AcDbLine
 10
1042.70083936219
 20
556.0157860782629
 30
0.0
 11
1053.670494476792
 21
556.0157860782629
 31
0.0
  0
LINE
  5
26D
330
15
100
AcDbEntity
  8
4
100
AcDbLine
 10
1053.670494476792
 20
556.0157860782629
 30
0.0
 11
1059.155322034094
 21
565.5157860782629
 31
0.0
  0
LINE
  5
26E
330
15
100
AcDbEntity
  8
4
100
AcDbLine
 10
1053.670494476792
 20
575.0157860782629
 30
0.0
 11
1042.70083936219
 21
575.0157860782629
 31
0.0
  0
LINE
  5
26F
330
15
100
AcDbEntity
  8
4
100
AcDbLine
 10
1042.701011878206
 20
485.0157840257166
 30
0.0
 11
1037.216184320905
 21
475.5157840257166
 31
0.0
  0
LINE
  5
270
330
15
100
AcDbEntity
  8
4
100
AcDbLine
 10
1059.155494550111
 20
475.5157840257166
 30
0.0
 11
1053.670666992808
 21
485.0157840257166
 31
0.0
  0
CIRCLE
  5
271
330
15
100
AcDbEntity
  8
4
100
AcDbCircle
 10
1048.185839435508
 20
475.5157840257166
 30
0.0
 40
9.5
  0
LINE
  5
272
330
15
100
AcDbEntity
  8
4
100
AcDbLine
 10
1037.216184320905
 20
475.5157840257166
 30
0.0
 11
1042.701011878206
 21
466.0157840257166
 31
0.0
  0
LINE
  5
273
330
15
100
AcDbEntity
  8
4
100
AcDbLine
 10
1042.701011878206
 20
466.0157840257166
 30
0.0
 11
1053.670666992808
 21
466.0157840257166
 31
0.0
  0
LINE
  5
274
330
15
100
AcDbEntity
  8
4
100
AcDbLine
 10
1053.670666992808
 20
466.0157840257166
 30
0.0
 11
1059.155494550111
 21
475.5157840257166
 31
0.0
  0
LINE
  5
275
330
15
100
AcDbEntity
  8
4
100
AcDbLine
 10
1053.670666992808
 20
485.0157840257166
 30
0.0
 11
1042.701011878206
 21
485.0157840257166
 31
0.0
  0
LINE
  5
276
330
15
100
AcDbEntity
  8
4
100
AcDbLine
 10
1120.643212522788
 20
440.0159334552404
 30
0.0
 11
1115.158384965487
 21
430.5159334552404
 31
0.0
  0
LINE
  5
277
330
15
100
AcDbEntity
  8
4
100
AcDbLine
 10
1137.097695194693
 20
430.5159334552404
 30
0.0
 11
1131.612867637391
 21
440.0159334552404
 31
0.0
  0
CIRCLE
  5
278
330
15
100
AcDbEntity
  8
4
100
AcDbCircle
 10
1126.128040080089
 20
430.5159334552404
 30
0.0
 40
9.5
  0
LINE
  5
279
330
15
100
AcDbEntity
  8
4
100
AcDbLine
 10
1115.158384965487
 20
430.5159334552404
 30
0.0
 11
1120.643212522788
 21
421.0159334552404
 31
0.0
  0
LINE
  5
27A
330
15
100
AcDbEntity
  8
4
100
AcDbLine
 10
1120.643212522788
 20
421.0159334552404
 30
0.0
 11
1131.612867637391
 21
421.0159334552404
 31
0.0
  0
LINE
  5
27B
330
15
100
AcDbEntity
  8
4
100
AcDbLine
 10
1131.612867637391
 20
421.0159334552404
 30
0.0
 11
1137.097695194693
 21
430.5159334552404
 31
0.0
  0
LINE
  5
27C
330
15
100
AcDbEntity
  8
4
100
AcDbLine
 10
1131.612867637391
 20
440.0159334552404
 30
0.0
 11
1120.643212522788
 21
440.0159334552404
 31
0.0
  0
LINE
  5
27D
330
15
100
AcDbEntity
  8
4
100
AcDbLine
 10
1198.585412866648
 20
575.0160854056267
 30
0.0
 11
1193.100585309347
 21
565.5160854056267
 31
0.0
  0
LINE
  5
27E
330
15
100
AcDbEntity
  8
4
100
AcDbLine
 10
1215.039895538553
 20
565.5160854056267
 30
0.0
 11
1209.555067981251
 21
575.0160854056267
 31
0.0
  0
CIRCLE
  5
27F
330
15
100
AcDbEntity
  8
4
100
AcDbCircle
 10
1204.07024042395
 20
565.5160854056267
 30
0.0
 40
9.5
  0
LINE
  5
280
330
15
100
AcDbEntity
  8
4
100
AcDbLine
 10
1193.100585309347
 20
565.5160854056267
 30
0.0
 11
1198.585412866648
 21
556.0160854056267
 31
0.0
  0
LINE
  5
281
330
15
100
AcDbEntity
  8
4
100
AcDbLine
 10
1198.585412866648
 20
556.0160854056267
 30
0.0
 11
1209.555067981251
 21
556.0160854056267
 31
0.0
  0
LINE
  5
282
330
15
100
AcDbEntity
  8
4
100
AcDbLine
 10
1209.555067981251
 20
556.0160854056267
 30
0.0
 11
1215.039895538553
 21
565.5160854056267
 31
0.0
  0
LINE
  5
283
330
15
100
AcDbEntity
  8
4
100
AcDbLine
 10
1209.555067981251
 20
575.0160854056267
 30
0.0
 11
1198.585412866648
 21
575.0160854056267
 31
0.0
  0
LINE
  5
284
330
15
100
AcDbEntity
  8
4
100
AcDbLine
 10
1198.585586443984
 20
485.0160841496172
 30
0.0
 11
1193.100758886683
 21
475.5160841496172
 31
0.0
  0
LINE
  5
285
330
15
100
AcDbEntity
  8
4
100
AcDbLine
 10
1215.040069115889
 20
475.5160841496172
 30
0.0
 11
1209.555241558587
 21
485.0160841496172
 31
0.0
  0
CIRCLE
  5
286
330
15
100
AcDbEntity
  8
4
100
AcDbCircle
 10
1204.070414001285
 20
475.5160841496172
 30
0.0
 40
9.5
  0
LINE
  5
287
330
15
100
AcDbEntity
  8
4
100
AcDbLine
 10
1193.100758886683
 20
475.5160841496172
 30
0.0
 11
1198.585586443984
 21
466.0160841496172
 31
0.0
  0
LINE
  5
288
330
15
100
AcDbEntity
  8
4
100
AcDbLine
 10
1198.585586443984
 20
466.0160841496172
 30
0.0
 11
1209.555241558587
 21
466.0160841496172
 31
0.0
  0
LINE
  5
289
330
15
100
AcDbEntity
  8
4
100
AcDbLine
 10
1209.555241558587
 20
466.0160841496172
 30
0.0
 11
1215.040069115889
 21
475.5160841496172
 31
0.0
  0
LINE
  5
28A
330
15
100
AcDbEntity
  8
4
100
AcDbLine
 10
1209.555241558587
 20
485.0160841496172
 30
0.0
 11
1198.585586443984
 21
485.0160841496172
 31
0.0
  0
LINE
  5
28B
330
15
100
AcDbEntity
  8
L-CENTER
 48
2.0
100
AcDbLine
 10
752.9467674850807
 20
2014.448222598586
 30
0.0
 11
752.9467674850807
 21
1961.364688391446
 31
0.0
  0
LINE
  5
28C
330
15
100
AcDbEntity
  8
4
100
AcDbLine
 10
763.9164225996833
 20
1999.847382718482
 30
0.0
 11
763.9164225996833
 21
2009.710201807854
 31
0.0
  0
LINE
  5
28D
330
15
100
AcDbEntity
  8
4
100
AcDbLine
 10
758.4315950423811
 20
2009.710201807854
 30
0.0
 11
758.4315950423811
 21
2002.847382718482
 31
0.0
  0
LINE
  5
28E
330
15
100
AcDbEntity
  8
4
100
AcDbLine
 10
741.9771123704763
 20
2009.710201807854
 30
0.0
 11
741.9771123704763
 21
1999.847382718482
 31
0.0
  0
LINE
  5
28F
330
15
100
AcDbEntity
  8
4
100
AcDbLine
 10
747.4619399277785
 20
2009.710201807854
 30
0.0
 11
747.4619399277785
 21
2002.847382718482
 31
0.0
  0
ARC
  5
290
330
15
100
AcDbEntity
  8
4
100
AcDbCircle
 10
761.1740088210322
 20
2006.972003843202
 30
0.0
 40
3.875378875279264
100
AcDbArc
 50
44.95592676274281
 51
135.0440732372382
  0
ARC
  5
291
330
15
100
AcDbEntity
  8
4
100
AcDbCircle
 10
744.7195261491274
 20
2006.972003843202
 30
0.0
 40
3.875378875279244
100
AcDbArc
 50
44.95592676274281
 51
135.0440732372382
  0
LINE
  5
292
330
15
100
AcDbEntity
  8
4
100
AcDbLine
 10
761.1740088210322
 20
2010.847382718482
 30
0.0
 11
744.7195261491274
 21
2010.847382718482
 31
0.0
  0
ARC
  5
293
330
15
100
AcDbEntity
  8
4
100
AcDbCircle
 10
752.9467674850807
 20
1997.051638583305
 30
0.0
 40
13.7957441351769
100
AcDbArc
 50
66.57340249137208
 51
113.4265975086326
  0
LINE
  5
294
330
15
100
AcDbEntity
  8
4
100
AcDbLine
 10
741.9771123704763
 20
2002.847382718482
 30
0.0
 11
763.9164225996833
 21
2002.847382718482
 31
0.0
  0
LINE
  5
295
330
15
100
AcDbEntity
  8
4
100
AcDbLine
 10
741.9771123704763
 20
1999.847382718482
 30
0.0
 11
763.9164225996833
 21
1999.847382718482
 31
0.0
  0
LINE
  5
296
330
15
100
AcDbEntity
  8
L-CENTER
 48
2.0
100
AcDbLine
 10
1048.185666919491
 20
2014.448222598586
 30
0.0
 11
1048.185666919491
 21
1961.364688391446
 31
0.0
  0
LINE
  5
297
330
15
100
AcDbEntity
  8
4
100
AcDbLine
 10
1059.155322034093
 20
1999.847382718482
 30
0.0
 11
1059.155322034093
 21
2009.710201807855
 31
0.0
  0
LINE
  5
298
330
15
100
AcDbEntity
  8
4
100
AcDbLine
 10
1053.670494476792
 20
2009.710201807855
 30
0.0
 11
1053.670494476792
 21
2002.847382718482
 31
0.0
  0
LINE
  5
299
330
15
100
AcDbEntity
  8
4
100
AcDbLine
 10
1037.216011804887
 20
2009.710201807855
 30
0.0
 11
1037.216011804887
 21
1999.847382718482
 31
0.0
  0
LINE
  5
29A
330
15
100
AcDbEntity
  8
4
100
AcDbLine
 10
1042.70083936219
 20
2009.710201807855
 30
0.0
 11
1042.70083936219
 21
2002.847382718482
 31
0.0
  0
ARC
  5
29B
330
15
100
AcDbEntity
  8
4
100
AcDbCircle
 10
1056.412908255443
 20
2006.972003843203
 30
0.0
 40
3.875378875279264
100
AcDbArc
 50
44.95592676274281
 51
135.0440732372572
  0
ARC
  5
29C
330
15
100
AcDbEntity
  8
4
100
AcDbCircle
 10
1039.958425583538
 20
2006.972003843203
 30
0.0
 40
3.875378875279244
100
AcDbArc
 50
44.95592676274281
 51
135.0440732372572
  0
LINE
  5
29D
330
15
100
AcDbEntity
  8
4
100
AcDbLine
 10
1056.412908255443
 20
2010.847382718482
 30
0.0
 11
1039.958425583538
 21
2010.847382718482
 31
0.0
  0
ARC
  5
29E
330
15
100
AcDbEntity
  8
4
100
AcDbCircle
 10
1048.185666919491
 20
1997.051638583305
 30
0.0
 40
13.7957441351769
100
AcDbArc
 50
66.5734024913725
 51
113.4265975086275
  0
LINE
  5
29F
330
15
100
AcDbEntity
  8
4
100
AcDbLine
 10
1037.216011804887
 20
2002.847382718482
 30
0.0
 11
1059.155322034093
 21
2002.847382718482
 31
0.0
  0
LINE
  5
2A0
330
15
100
AcDbEntity
  8
4
100
AcDbLine
 10
1037.216011804887
 20
1999.847382718482
 30
0.0
 11
1059.155322034093
 21
1999.847382718482
 31
0.0
  0
LINE
  5
2A1
330
15
100
AcDbEntity
  8
4
100
AcDbLine
 10
971.0989717897014
 20
1999.847382718482
 30
0.0
 11
949.1596615604963
 21
1999.847382718482
 31
0.0
  0
LINE
  5
2A2
330
15
100
AcDbEntity
  8
4
100
AcDbLine
 10
971.0989717897014
 20
2002.847382718482
 30
0.0
 11
949.1596615604963
 21
2002.847382718482
 31
0.0
  0
ARC
  5
2A3
330
15
100
AcDbEntity
  8
4
100
AcDbCircle
 10
960.1293166750988
 20
1997.051638583305
 30
0.0
 40
13.7957441351769
100
AcDbArc
 50
66.57340249137208
 51
113.4265975086326
  0
LINE
  5
2A4
330
15
100
AcDbEntity
  8
4
100
AcDbLine
 10
951.9020753391455
 20
2010.847382718482
 30
0.0
 11
968.3565580110503
 21
2010.847382718482
 31
0.0
  0
LINE
  5
2A5
330
15
100
AcDbEntity
  8
4
100
AcDbLine
 10
971.0989717897014
 20
2009.710201807854
 30
0.0
 11
971.0989717897014
 21
1999.847382718482
 31
0.0
  0
ARC
  5
2A6
330
15
100
AcDbEntity
  8
4
100
AcDbCircle
 10
968.3565580110503
 20
2006.972003843202
 30
0.0
 40
3.875378875279244
100
AcDbArc
 50
44.95592676274281
 51
135.0440732372382
  0
LINE
  5
2A7
330
15
100
AcDbEntity
  8
4
100
AcDbLine
 10
965.6141442323992
 20
2009.710201807854
 30
0.0
 11
965.6141442323992
 21
2002.847382718482
 31
0.0
  0
LINE
  5
2A8
330
15
100
AcDbEntity
  8
4
100
AcDbLine
 10
949.1596615604963
 20
1999.847382718482
 30
0.0
 11
949.1596615604963
 21
2009.710201807854
 31
0.0
  0
ARC
  5
2A9
330
15
100
AcDbEntity
  8
4
100
AcDbCircle
 10
951.9020753391455
 20
2006.972003843202
 30
0.0
 40
3.875378875279264
100
AcDbArc
 50
44.95592676274281
 51
135.0440732372382
  0
LINE
  5
2AA
330
15
100
AcDbEntity
  8
4
100
AcDbLine
 10
954.6444891177966
 20
2009.710201807854
 30
0.0
 11
954.6444891177966
 21
2002.847382718482
 31
0.0
  0
LINE
  5
2AB
330
15
100
AcDbEntity
  8
L-CENTER
 48
2.0
100
AcDbLine
 10
960.1293166750988
 20
2014.448222598586
 30
0.0
 11
960.1293166750988
 21
1961.364688391446
 31
0.0
  0
LINE
  5
2AC
330
15
100
AcDbEntity
  8
4
100
AcDbLine
 10
1215.860072355289
 20
2009.710201807858
 30
0.0
 11
1215.860072355289
 21
1999.847382718485
 31
0.0
  0
LINE
  5
2AD
330
15
100
AcDbEntity
  8
4
100
AcDbLine
 10
1193.920762126083
 20
1999.847382718484
 30
0.0
 11
1193.920762126083
 21
2009.710201807857
 31
0.0
  0
LINE
  5
2AE
330
15
100
AcDbEntity
  8
4
100
AcDbLine
 10
1215.860072355289
 20
1999.847382718485
 30
0.0
 11
1193.920762126083
 21
1999.847382718484
 31
0.0
  0
LINE
  5
2AF
330
15
100
AcDbEntity
  8
4
100
AcDbLine
 10
1215.860072355289
 20
2002.847382718485
 30
0.0
 11
1193.920762126083
 21
2002.847382718484
 31
0.0
  0
ARC
  5
2B0
330
15
100
AcDbEntity
  8
4
100
AcDbCircle
 10
1204.890417240686
 20
1997.051638583307
 30
0.0
 40
13.7957441351769
100
AcDbArc
 50
66.57340249137758
 51
113.4265975086301
  0
LINE
  5
2B1
330
15
100
AcDbEntity
  8
4
100
AcDbLine
 10
1196.663175904733
 20
2010.847382718484
 30
0.0
 11
1213.117658576637
 21
2010.847382718485
 31
0.0
  0
ARC
  5
2B2
330
15
100
AcDbEntity
  8
4
100
AcDbCircle
 10
1213.117658576637
 20
2006.972003843206
 30
0.0
 40
3.875378875279244
100
AcDbArc
 50
44.95592676274281
 51
135.0440732372572
  0
ARC
  5
2B3
330
15
100
AcDbEntity
  8
4
100
AcDbCircle
 10
1196.663175904733
 20
2006.972003843206
 30
0.0
 40
3.875378875279264
100
AcDbArc
 50
44.95592676274281
 51
135.0440732372572
  0
LINE
  5
2B4
330
15
100
AcDbEntity
  8
4
100
AcDbLine
 10
1210.375244797986
 20
2009.710201807858
 30
0.0
 11
1210.375244797986
 21
2002.847382718485
 31
0.0
  0
LINE
  5
2B5
330
15
100
AcDbEntity
  8
4
100
AcDbLine
 10
1199.405589683384
 20
2009.710201807858
 30
0.0
 11
1199.405589683384
 21
2002.847382718484
 31
0.0
  0
LINE
  5
2B6
330
15
100
AcDbEntity
  8
L-CENTER
 48
2.0
100
AcDbLine
 10
1204.890417240685
 20
2014.448222598588
 30
0.0
 11
1204.890417240686
 21
1961.364688391448
 31
0.0
  0
LINE
  5
2B7
330
15
100
AcDbEntity
  8
4
100
AcDbLine
 10
741.9771123704763
 20
1625.74738271848
 30
0.0
 11
763.9164225996833
 21
1625.74738271848
 31
0.0
  0
LINE
  5
2B8
330
15
100
AcDbEntity
  8
4
100
AcDbLine
 10
741.9771123704763
 20
1622.74738271848
 30
0.0
 11
763.9164225996833
 21
1622.74738271848
 31
0.0
  0
ARC
  5
2B9
330
15
100
AcDbEntity
  8
4
100
AcDbCircle
 10
752.9467674850807
 20
1628.543126853657
 30
0.0
 40
13.7957441351769
100
AcDbArc
 50
246.5734024913674
 51
293.4265975086279
  0
LINE
  5
2BA
330
15
100
AcDbEntity
  8
4
100
AcDbLine
 10
761.1740088210322
 20
1614.74738271848
 30
0.0
 11
744.7195261491274
 21
1614.74738271848
 31
0.0
  0
LINE
  5
2BB
330
15
100
AcDbEntity
  8
4
100
AcDbLine
 10
741.9771123704763
 20
1615.884563629108
 30
0.0
 11
741.9771123704763
 21
1625.74738271848
 31
0.0
  0
ARC
  5
2BC
330
15
100
AcDbEntity
  8
4
100
AcDbCircle
 10
744.7195261491274
 20
1618.62276159376
 30
0.0
 40
3.875378875279244
100
AcDbArc
 50
224.9559267627618
 51
315.0440732372572
  0
LINE
  5
2BD
330
15
100
AcDbEntity
  8
4
100
AcDbLine
 10
747.4619399277785
 20
1615.884563629108
 30
0.0
 11
747.4619399277785
 21
1622.74738271848
 31
0.0
  0
LINE
  5
2BE
330
15
100
AcDbEntity
  8
4
100
AcDbLine
 10
763.9164225996833
 20
1625.74738271848
 30
0.0
 11
763.9164225996833
 21
1615.884563629108
 31
0.0
  0
ARC
  5
2BF
330
15
100
AcDbEntity
  8
4
100
AcDbCircle
 10
761.1740088210322
 20
1618.62276159376
 30
0.0
 40
3.875378875279264
100
AcDbArc
 50
224.9559267627618
 51
315.0440732372572
  0
LINE
  5
2C0
330
15
100
AcDbEntity
  8
4
100
AcDbLine
 10
758.4315950423811
 20
1615.884563629108
 30
0.0
 11
758.4315950423811
 21
1622.74738271848
 31
0.0
  0
LINE
  5
2C1
330
15
100
AcDbEntity
  8
4
100
AcDbLine
 10
949.1596615604963
 20
1625.74738271848
 30
0.0
 11
949.1596615604963
 21
1615.884563629108
 31
0.0
  0
LINE
  5
2C2
330
15
100
AcDbEntity
  8
4
100
AcDbLine
 10
971.0989717897014
 20
1615.884563629108
 30
0.0
 11
971.0989717897014
 21
1625.74738271848
 31
0.0
  0
LINE
  5
2C3
330
15
100
AcDbEntity
  8
4
100
AcDbLine
 10
971.0989717897014
 20
1625.74738271848
 30
0.0
 11
949.1596615604963
 21
1625.74738271848
 31
0.0
  0
LINE
  5
2C4
330
15
100
AcDbEntity
  8
4
100
AcDbLine
 10
954.6444891177966
 20
1615.884563629108
 30
0.0
 11
954.6444891177966
 21
1622.74738271848
 31
0.0
  0
ARC
  5
2C5
330
15
100
AcDbEntity
  8
4
100
AcDbCircle
 10
951.9020753391455
 20
1618.62276159376
 30
0.0
 40
3.875378875279264
100
AcDbArc
 50
224.9559267627618
 51
315.0440732372572
  0
LINE
  5
2C6
330
15
100
AcDbEntity
  8
4
100
AcDbLine
 10
965.6141442323992
 20
1615.884563629108
 30
0.0
 11
965.6141442323992
 21
1622.74738271848
 31
0.0
  0
ARC
  5
2C7
330
15
100
AcDbEntity
  8
4
100
AcDbCircle
 10
968.3565580110503
 20
1618.62276159376
 30
0.0
 40
3.875378875279244
100
AcDbArc
 50
224.9559267627618
 51
315.0440732372572
  0
LINE
  5
2C8
330
15
100
AcDbEntity
  8
4
100
AcDbLine
 10
951.9020753391455
 20
1614.74738271848
 30
0.0
 11
968.3565580110503
 21
1614.74738271848
 31
0.0
  0
ARC
  5
2C9
330
15
100
AcDbEntity
  8
4
100
AcDbCircle
 10
960.1293166750988
 20
1628.543126853657
 30
0.0
 40
13.7957441351769
100
AcDbArc
 50
246.5734024913674
 51
293.4265975086279
  0
LINE
  5
2CA
330
15
100
AcDbEntity
  8
4
100
AcDbLine
 10
971.0989717897014
 20
1622.74738271848
 30
0.0
 11
949.1596615604963
 21
1622.74738271848
 31
0.0
  0
LINE
  5
2CB
330
15
100
AcDbEntity
  8
L-CENTER
 48
2.0
100
AcDbLine
 10
960.1293166750988
 20
1611.146542838376
 30
0.0
 11
960.1293166750988
 21
1664.230077045516
 31
0.0
  0
LINE
  5
2CC
330
15
100
AcDbEntity
  8
L-CENTER
 48
2.0
100
AcDbLine
 10
752.9467674850807
 20
1611.146542838376
 30
0.0
 11
752.9467674850807
 21
1664.230077045516
 31
0.0
  0
LINE
  5
2CD
330
15
100
AcDbEntity
  8
4
100
AcDbLine
 10
1037.216011804887
 20
1615.884563629107
 30
0.0
 11
1037.216011804887
 21
1625.74738271848
 31
0.0
  0
LINE
  5
2CE
330
15
100
AcDbEntity
  8
4
100
AcDbLine
 10
1059.155322034093
 20
1625.74738271848
 30
0.0
 11
1059.155322034093
 21
1615.884563629107
 31
0.0
  0
LINE
  5
2CF
330
15
100
AcDbEntity
  8
4
100
AcDbLine
 10
1037.216011804887
 20
1625.74738271848
 30
0.0
 11
1059.155322034093
 21
1625.74738271848
 31
0.0
  0
LINE
  5
2D0
330
15
100
AcDbEntity
  8
4
100
AcDbLine
 10
1037.216011804887
 20
1622.74738271848
 30
0.0
 11
1059.155322034093
 21
1622.74738271848
 31
0.0
  0
ARC
  5
2D1
330
15
100
AcDbEntity
  8
4
100
AcDbCircle
 10
1048.185666919491
 20
1628.543126853657
 30
0.0
 40
13.7957441351769
100
AcDbArc
 50
246.5734024913725
 51
293.4265975086275
  0
LINE
  5
2D2
330
15
100
AcDbEntity
  8
4
100
AcDbLine
 10
1056.412908255443
 20
1614.74738271848
 30
0.0
 11
1039.958425583538
 21
1614.74738271848
 31
0.0
  0
ARC
  5
2D3
330
15
100
AcDbEntity
  8
4
100
AcDbCircle
 10
1039.958425583538
 20
1618.622761593759
 30
0.0
 40
3.875378875279244
100
AcDbArc
 50
224.9559267627428
 51
315.0440732372572
  0
ARC
  5
2D4
330
15
100
AcDbEntity
  8
4
100
AcDbCircle
 10
1056.412908255443
 20
1618.622761593759
 30
0.0
 40
3.875378875279264
100
AcDbArc
 50
224.9559267627428
 51
315.0440732372572
  0
LINE
  5
2D5
330
15
100
AcDbEntity
  8
4
100
AcDbLine
 10
1042.70083936219
 20
1615.884563629107
 30
0.0
 11
1042.70083936219
 21
1622.74738271848
 31
0.0
  0
LINE
  5
2D6
330
15
100
AcDbEntity
  8
4
100
AcDbLine
 10
1053.670494476792
 20
1615.884563629107
 30
0.0
 11
1053.670494476792
 21
1622.74738271848
 31
0.0
  0
LINE
  5
2D7
330
15
100
AcDbEntity
  8
L-CENTER
 48
2.0
100
AcDbLine
 10
1048.185666919491
 20
1611.046542838375
 30
0.0
 11
1048.185666919491
 21
1664.130077045516
 31
0.0
  0
LINE
  5
2D8
330
15
100
AcDbEntity
  8
4
100
AcDbLine
 10
1193.920762126083
 20
1625.747382718478
 30
0.0
 11
1193.920762126083
 21
1615.884563629105
 31
0.0
  0
LINE
  5
2D9
330
15
100
AcDbEntity
  8
4
100
AcDbLine
 10
1215.860072355289
 20
1615.884563629104
 30
0.0
 11
1215.860072355289
 21
1625.747382718477
 31
0.0
  0
LINE
  5
2DA
330
15
100
AcDbEntity
  8
4
100
AcDbLine
 10
1215.860072355289
 20
1625.747382718477
 30
0.0
 11
1193.920762126083
 21
1625.747382718478
 31
0.0
  0
LINE
  5
2DB
330
15
100
AcDbEntity
  8
4
100
AcDbLine
 10
1199.405589683384
 20
1615.884563629104
 30
0.0
 11
1199.405589683384
 21
1622.747382718478
 31
0.0
  0
LINE
  5
2DC
330
15
100
AcDbEntity
  8
4
100
AcDbLine
 10
1210.375244797986
 20
1615.884563629104
 30
0.0
 11
1210.375244797986
 21
1622.747382718477
 31
0.0
  0
ARC
  5
2DD
330
15
100
AcDbEntity
  8
4
100
AcDbCircle
 10
1196.663175904733
 20
1618.622761593756
 30
0.0
 40
3.875378875279264
100
AcDbArc
 50
224.9559267627428
 51
315.0440732372572
  0
ARC
  5
2DE
330
15
100
AcDbEntity
  8
4
100
AcDbCircle
 10
1213.117658576637
 20
1618.622761593756
 30
0.0
 40
3.875378875279244
100
AcDbArc
 50
224.9559267627428
 51
315.0440732372572
  0
LINE
  5
2DF
330
15
100
AcDbEntity
  8
4
100
AcDbLine
 10
1196.663175904733
 20
1614.747382718478
 30
0.0
 11
1213.117658576637
 21
1614.747382718477
 31
0.0
  0
ARC
  5
2E0
330
15
100
AcDbEntity
  8
4
100
AcDbCircle
 10
1204.890417240686
 20
1628.543126853655
 30
0.0
 40
13.7957441351769
100
AcDbArc
 50
246.5734024913699
 51
293.4265975086224
  0
LINE
  5
2E1
330
15
100
AcDbEntity
  8
4
100
AcDbLine
 10
1215.860072355289
 20
1622.747382718477
 30
0.0
 11
1193.920762126083
 21
1622.747382718478
 31
0.0
  0
LINE
  5
2E2
330
15
100
AcDbEntity
  8
L-CENTER
 48
2.0
100
AcDbLine
 10
1204.890417240685
 20
1611.146542838374
 30
0.0
 11
1204.890417240686
 21
1664.230077045514
 31
0.0
  0
CIRCLE
  5
2E3
330
15
100
AcDbEntity
  8
4
100
AcDbCircle
 10
2234.833608852724
 20
332.3877758090634
 30
0.0
 40
12.0
  0
LINE
  5
2E4
330
15
100
AcDbEntity
  8
4
100
AcDbLine
 10
2221.449347992919
 20
335.9740776977355
 30
0.0
 11
2225.035649881591
 21
322.5898168379308
 31
0.0
  0
LINE
  5
2E5
330
15
100
AcDbEntity
  8
4
100
AcDbLine
 10
2248.21786971253
 20
328.8014739203913
 30
0.0
 11
2244.631567823857
 21
342.1857347801961
 31
0.0
  0
LINE
  5
2E6
330
15
100
AcDbEntity
  8
4
100
AcDbLine
 10
2238.419910741397
 20
319.0035149492578
 30
0.0
 11
2248.21786971253
 21
328.8014739203913
 31
0.0
  0
LINE
  5
2E7
330
15
100
AcDbEntity
  8
4
100
AcDbLine
 10
2225.035649881591
 20
322.5898168379308
 30
0.0
 11
2238.419910741397
 21
319.0035149492578
 31
0.0
  0
LINE
  5
2E8
330
15
100
AcDbEntity
  8
4
100
AcDbLine
 10
2244.631567823857
 20
342.1857347801961
 30
0.0
 11
2231.247306964052
 21
345.7720366688682
 31
0.0
  0
LINE
  5
2E9
330
15
100
AcDbEntity
  8
4
100
AcDbLine
 10
2231.247306964052
 20
345.7720366688682
 30
0.0
 11
2221.449347992919
 21
335.9740776977355
 31
0.0
  0
CIRCLE
  5
2EA
330
15
100
AcDbEntity
  8
4
100
AcDbCircle
 10
2358.57729556037
 20
208.6440891014181
 30
0.0
 40
12.0
  0
LINE
  5
2EB
330
15
100
AcDbEntity
  8
4
100
AcDbLine
 10
2345.193034700566
 20
212.2303909900902
 30
0.0
 11
2348.779336589238
 21
198.8461301302855
 31
0.0
  0
LINE
  5
2EC
330
15
100
AcDbEntity
  8
4
100
AcDbLine
 10
2371.961556420175
 20
205.057787212746
 30
0.0
 11
2368.375254531503
 21
218.4420480725503
 31
0.0
  0
LINE
  5
2ED
330
15
100
AcDbEntity
  8
4
100
AcDbLine
 10
2362.163597449042
 20
195.2598282416125
 30
0.0
 11
2371.961556420175
 21
205.057787212746
 31
0.0
  0
LINE
  5
2EE
330
15
100
AcDbEntity
  8
4
100
AcDbLine
 10
2348.779336589238
 20
198.8461301302855
 30
0.0
 11
2362.163597449042
 21
195.2598282416125
 31
0.0
  0
LINE
  5
2EF
330
15
100
AcDbEntity
  8
4
100
AcDbLine
 10
2368.375254531503
 20
218.4420480725503
 30
0.0
 11
2354.990993671698
 21
222.0283499612224
 31
0.0
  0
LINE
  5
2F0
330
15
100
AcDbEntity
  8
4
100
AcDbLine
 10
2354.990993671698
 20
222.0283499612224
 30
0.0
 11
2345.193034700566
 21
212.2303909900902
 31
0.0
  0
LINE
  5
2F1
330
15
100
AcDbEntity
  8
4
100
AcDbLine
 10
2248.21786621253
 20
212.23039449009
 30
0.0
 11
2238.419907241396
 21
222.0283534612222
 31
0.0
  0
LINE
  5
2F2
330
15
100
AcDbEntity
  8
4
100
AcDbLine
 10
2238.419907241396
 20
222.0283534612222
 30
0.0
 11
2225.035646381592
 21
218.4420515725501
 31
0.0
  0
LINE
  5
2F3
330
15
100
AcDbEntity
  8
4
100
AcDbLine
 10
2221.44934449292
 20
205.0577907127454
 30
0.0
 11
2231.247303464052
 21
195.2598317416127
 31
0.0
  0
CIRCLE
  5
2F4
330
15
100
AcDbEntity
  8
4
100
AcDbCircle
 10
2234.833605352724
 20
208.6440926014175
 30
0.0
 40
12.0
  0
LINE
  5
2F5
330
15
100
AcDbEntity
  8
4
100
AcDbLine
 10
2225.035646381592
 20
218.4420515725501
 30
0.0
 11
2221.44934449292
 21
205.0577907127454
 31
0.0
  0
LINE
  5
2F6
330
15
100
AcDbEntity
  8
4
100
AcDbLine
 10
2244.631564323857
 20
198.8461336302848
 30
0.0
 11
2248.21786621253
 21
212.23039449009
 31
0.0
  0
LINE
  5
2F7
330
15
100
AcDbEntity
  8
4
100
AcDbLine
 10
2231.247303464052
 20
195.2598317416127
 30
0.0
 11
2244.631564323857
 21
198.8461336302848
 31
0.0
  0
LINE
  5
2F8
330
15
100
AcDbEntity
  8
4
100
AcDbLine
 10
2371.961555220415
 20
335.9740788974968
 30
0.0
 11
2362.163596249281
 21
345.772037868629
 31
0.0
  0
LINE
  5
2F9
330
15
100
AcDbEntity
  8
4
100
AcDbLine
 10
2362.163596249281
 20
345.772037868629
 30
0.0
 11
2348.779335389476
 21
342.1857359799569
 31
0.0
  0
LINE
  5
2FA
330
15
100
AcDbEntity
  8
4
100
AcDbLine
 10
2345.193033500804
 20
328.8014751201522
 30
0.0
 11
2354.990992471937
 21
319.0035161490196
 31
0.0
  0
CIRCLE
  5
2FB
330
15
100
AcDbEntity
  8
4
100
AcDbCircle
 10
2358.577294360609
 20
332.3877770088243
 30
0.0
 40
12.0
  0
LINE
  5
2FC
330
15
100
AcDbEntity
  8
4
100
AcDbLine
 10
2348.779335389476
 20
342.1857359799569
 30
0.0
 11
2345.193033500804
 21
328.8014751201522
 31
0.0
  0
LINE
  5
2FD
330
15
100
AcDbEntity
  8
4
100
AcDbLine
 10
2368.375253331742
 20
322.5898180376917
 30
0.0
 11
2371.961555220415
 21
335.9740788974968
 31
0.0
  0
LINE
  5
2FE
330
15
100
AcDbEntity
  8
4
100
AcDbLine
 10
2354.990992471937
 20
319.0035161490196
 30
0.0
 11
2368.375253331742
 21
322.5898180376917
 31
0.0
  0
LINE
  5
2FF
330
15
100
AcDbEntity
  8
L-CENTER
 48
2.0
100
AcDbLine
 10
1424.774524515909
 20
332.3877758090634
 30
0.0
 11
1365.486372367599
 21
332.3877758090634
 31
0.0
  0
LINE
  5
300
330
15
100
AcDbEntity
  8
4
100
AcDbLine
 10
1419.06756917577
 20
325.4595725787881
 30
0.0
 11
1410.428041080089
 21
325.4595725787881
 31
0.0
  0
LINE
  5
301
330
15
100
AcDbEntity
  8
4
100
AcDbLine
 10
1406.428041080089
 20
318.5313693485127
 30
0.0
 11
1419.06756917577
 21
318.5313693485127
 31
0.0
  0
LINE
  5
302
330
15
100
AcDbEntity
  8
4
100
AcDbLine
 10
1419.06756917577
 20
339.3159790393388
 30
0.0
 11
1410.428041080089
 21
339.3159790393388
 31
0.0
  0
LINE
  5
303
330
15
100
AcDbEntity
  8
4
100
AcDbLine
 10
1419.06756917577
 20
346.2441822696151
 30
0.0
 11
1406.428041080089
 21
346.2441822696151
 31
0.0
  0
LINE
  5
304
330
15
100
AcDbEntity
  8
4
100
AcDbLine
 10
1410.428041080089
 20
346.2441822696151
 30
0.0
 11
1410.428041080089
 21
318.5313693485127
 31
0.0
  0
LINE
  5
305
330
15
100
AcDbEntity
  8
4
100
AcDbLine
 10
1406.428041080089
 20
346.2441822696151
 30
0.0
 11
1406.428041080089
 21
318.5313693485127
 31
0.0
  0
ARC
  5
306
330
15
100
AcDbEntity
  8
4
100
AcDbCircle
 10
1415.337570722536
 20
321.99547096365
 30
0.0
 40
5.090470357553002
100
AcDbArc
 50
317.1167115949141
 51
42.88328840508593
  0
ARC
  5
307
330
15
100
AcDbEntity
  8
4
100
AcDbCircle
 10
1415.337570722536
 20
342.7800806544769
 30
0.0
 40
5.090470357553012
100
AcDbArc
 50
317.1167115949141
 51
42.88328840508593
  0
ARC
  5
308
330
15
100
AcDbEntity
  8
4
100
AcDbCircle
 10
1402.106867506356
 20
332.3877758090634
 30
0.0
 40
18.32117357373317
100
AcDbArc
 50
337.7806898294696
 51
22.21931017052721
  0
LINE
  5
309
330
15
100
AcDbEntity
  8
4
100
AcDbLine
 10
1420.428041080089
 20
321.99547096365
 30
0.0
 11
1420.428041080089
 21
342.7800806544769
 31
0.0
  0
ARC
  5
30A
330
15
100
AcDbEntity
  8
4
100
AcDbCircle
 10
1402.106867506357
 20
208.6440891014172
 30
0.0
 40
18.32117357373317
100
AcDbArc
 50
337.7806898294712
 51
22.21931017052882
  0
ARC
  5
30B
330
15
100
AcDbEntity
  8
4
100
AcDbCircle
 10
1415.337570722538
 20
198.2517842560037
 30
0.0
 40
5.090470357553012
100
AcDbArc
 50
317.1167115949141
 51
42.88328840509315
  0
LINE
  5
30C
330
15
100
AcDbEntity
  8
4
100
AcDbLine
 10
1419.067569175771
 20
194.7876826408656
 30
0.0
 11
1406.428041080091
 21
194.7876826408656
 31
0.0
  0
LINE
  5
30D
330
15
100
AcDbEntity
  8
4
100
AcDbLine
 10
1419.067569175771
 20
201.7158858711418
 30
0.0
 11
1410.428041080091
 21
201.7158858711418
 31
0.0
  0
LINE
  5
30E
330
15
100
AcDbEntity
  8
4
100
AcDbLine
 10
1419.067569175771
 20
215.5722923316926
 30
0.0
 11
1410.42804108009
 21
215.5722923316926
 31
0.0
  0
LINE
  5
30F
330
15
100
AcDbEntity
  8
4
100
AcDbLine
 10
1420.42804108009
 20
219.0363939468307
 30
0.0
 11
1420.428041080091
 21
198.2517842560037
 31
0.0
  0
ARC
  5
310
330
15
100
AcDbEntity
  8
4
100
AcDbCircle
 10
1415.337570722537
 20
219.0363939468307
 30
0.0
 40
5.090470357553002
100
AcDbArc
 50
317.1167115949141
 51
42.88328840509141
  0
LINE
  5
311
330
15
100
AcDbEntity
  8
4
100
AcDbLine
 10
1406.428041080091
 20
194.7876826408656
 30
0.0
 11
1406.42804108009
 21
222.5004955619679
 31
0.0
  0
LINE
  5
312
330
15
100
AcDbEntity
  8
4
100
AcDbLine
 10
1410.428041080091
 20
194.7876826408656
 30
0.0
 11
1410.42804108009
 21
222.5004955619679
 31
0.0
  0
LINE
  5
313
330
15
100
AcDbEntity
  8
4
100
AcDbLine
 10
1406.42804108009
 20
222.5004955619679
 30
0.0
 11
1419.067569175771
 21
222.5004955619679
 31
0.0
  0
LINE
  5
314
330
15
100
AcDbEntity
  8
4
100
AcDbLine
 10
1407.42804008009
 20
225.5159284552406
 30
0.0
 11
1406.428041080089
 21
225.5159284552406
 31
0.0
  0
LINE
  5
315
330
15
100
AcDbEntity
  8
4
100
AcDbLine
 10
547.8280430800884
 20
222.5004955619679
 30
0.0
 11
535.188514984408
 21
222.5004955619679
 31
0.0
  0
LINE
  5
316
330
15
100
AcDbEntity
  8
4
100
AcDbLine
 10
543.8280430800879
 20
194.7876826408656
 30
0.0
 11
543.8280430800884
 21
222.5004955619679
 31
0.0
  0
LINE
  5
317
330
15
100
AcDbEntity
  8
4
100
AcDbLine
 10
547.8280430800879
 20
194.7876826408656
 30
0.0
 11
547.8280430800884
 21
222.5004955619679
 31
0.0
  0
ARC
  5
318
330
15
100
AcDbEntity
  8
4
100
AcDbCircle
 10
538.9185134376418
 20
219.0363939468307
 30
0.0
 40
5.090470357553002
100
AcDbArc
 50
137.1167115949077
 51
222.8832884050859
  0
LINE
  5
319
330
15
100
AcDbEntity
  8
4
100
AcDbLine
 10
533.8280430800884
 20
219.0363939468307
 30
0.0
 11
533.8280430800879
 21
198.2517842560037
 31
0.0
  0
LINE
  5
31A
330
15
100
AcDbEntity
  8
4
100
AcDbLine
 10
535.188514984408
 20
215.5722923316926
 30
0.0
 11
543.8280430800884
 21
215.5722923316926
 31
0.0
  0
LINE
  5
31B
330
15
100
AcDbEntity
  8
4
100
AcDbLine
 10
535.1885149844076
 20
201.7158858711418
 30
0.0
 11
543.8280430800879
 21
201.7158858711418
 31
0.0
  0
LINE
  5
31C
330
15
100
AcDbEntity
  8
4
100
AcDbLine
 10
535.1885149844076
 20
194.7876826408656
 30
0.0
 11
547.8280430800879
 21
194.7876826408656
 31
0.0
  0
ARC
  5
31D
330
15
100
AcDbEntity
  8
4
100
AcDbCircle
 10
538.9185134376413
 20
198.2517842560037
 30
0.0
 40
5.090470357553012
100
AcDbArc
 50
137.1167115949141
 51
222.8832884050859
  0
ARC
  5
31E
330
15
100
AcDbEntity
  8
4
100
AcDbCircle
 10
552.1492166538211
 20
208.6440891014172
 30
0.0
 40
18.32117357373317
100
AcDbArc
 50
157.7806898294696
 51
202.2193101705288
  0
LINE
  5
31F
330
15
100
AcDbEntity
  8
4
100
AcDbLine
 10
533.8280430800897
 20
321.99547096365
 30
0.0
 11
533.8280430800897
 21
342.7800806544769
 31
0.0
  0
ARC
  5
320
330
15
100
AcDbEntity
  8
4
100
AcDbCircle
 10
552.1492166538229
 20
332.3877758090634
 30
0.0
 40
18.32117357373317
100
AcDbArc
 50
157.7806898294712
 51
202.2193101705304
  0
ARC
  5
321
330
15
100
AcDbEntity
  8
4
100
AcDbCircle
 10
538.9185134376431
 20
342.7800806544769
 30
0.0
 40
5.090470357553012
100
AcDbArc
 50
137.1167115949141
 51
222.8832884050859
  0
ARC
  5
322
330
15
100
AcDbEntity
  8
4
100
AcDbCircle
 10
538.9185134376431
 20
321.99547096365
 30
0.0
 40
5.090470357553002
100
AcDbArc
 50
137.1167115949141
 51
222.8832884050859
  0
LINE
  5
323
330
15
100
AcDbEntity
  8
4
100
AcDbLine
 10
547.8280430800897
 20
346.2441822696151
 30
0.0
 11
547.8280430800897
 21
318.5313693485127
 31
0.0
  0
LINE
  5
324
330
15
100
AcDbEntity
  8
4
100
AcDbLine
 10
543.8280430800897
 20
346.2441822696151
 30
0.0
 11
543.8280430800897
 21
318.5313693485127
 31
0.0
  0
LINE
  5
325
330
15
100
AcDbEntity
  8
4
100
AcDbLine
 10
535.1885149844094
 20
346.2441822696151
 30
0.0
 11
547.8280430800897
 21
346.2441822696151
 31
0.0
  0
LINE
  5
326
330
15
100
AcDbEntity
  8
4
100
AcDbLine
 10
535.1885149844094
 20
339.3159790393388
 30
0.0
 11
543.8280430800897
 21
339.3159790393388
 31
0.0
  0
LINE
  5
327
330
15
100
AcDbEntity
  8
4
100
AcDbLine
 10
547.8280430800897
 20
318.5313693485127
 30
0.0
 11
535.1885149844094
 21
318.5313693485127
 31
0.0
  0
LINE
  5
328
330
15
100
AcDbEntity
  8
4
100
AcDbLine
 10
535.1885149844094
 20
325.4595725787881
 30
0.0
 11
543.8280430800897
 21
325.4595725787881
 31
0.0
  0
LINE
  5
329
330
15
100
AcDbEntity
  8
4
100
AcDbLine
 10
1406.42804108009
 20
1706.631945825209
 30
0.0
 11
1419.067569175771
 21
1706.631945825209
 31
0.0
  0
LINE
  5
32A
330
15
100
AcDbEntity
  8
4
100
AcDbLine
 10
1410.428041080091
 20
1678.919132904105
 30
0.0
 11
1410.42804108009
 21
1706.631945825209
 31
0.0
  0
LINE
  5
32B
330
15
100
AcDbEntity
  8
4
100
AcDbLine
 10
1406.428041080091
 20
1678.919132904105
 30
0.0
 11
1406.42804108009
 21
1706.631945825209
 31
0.0
  0
ARC
  5
32C
330
15
100
AcDbEntity
  8
4
100
AcDbCircle
 10
1415.337570722538
 20
1703.167844210071
 30
0.0
 40
5.090470357553002
100
AcDbArc
 50
317.1167115949086
 51
42.88328840509141
  0
LINE
  5
32D
330
15
100
AcDbEntity
  8
4
100
AcDbLine
 10
1420.42804108009
 20
1703.167844210071
 30
0.0
 11
1420.428041080091
 21
1682.383234519244
 31
0.0
  0
LINE
  5
32E
330
15
100
AcDbEntity
  8
4
100
AcDbLine
 10
1419.067569175771
 20
1699.703742594932
 30
0.0
 11
1410.42804108009
 21
1699.703742594932
 31
0.0
  0
LINE
  5
32F
330
15
100
AcDbEntity
  8
4
100
AcDbLine
 10
1419.067569175771
 20
1685.847336134382
 30
0.0
 11
1410.428041080091
 21
1685.847336134382
 31
0.0
  0
LINE
  5
330
330
15
100
AcDbEntity
  8
4
100
AcDbLine
 10
1419.067569175771
 20
1678.919132904105
 30
0.0
 11
1406.428041080091
 21
1678.919132904105
 31
0.0
  0
ARC
  5
331
330
15
100
AcDbEntity
  8
4
100
AcDbCircle
 10
1415.337570722538
 20
1682.383234519244
 30
0.0
 40
5.090470357553012
100
AcDbArc
 50
317.1167115949213
 51
42.88328840509141
  0
ARC
  5
332
330
15
100
AcDbEntity
  8
4
100
AcDbCircle
 10
1402.106867506357
 20
1692.775539364658
 30
0.0
 40
18.32117357373317
100
AcDbArc
 50
337.7806898294712
 51
22.2193101705259
  0
LINE
  5
333
330
15
100
AcDbEntity
  8
4
100
AcDbLine
 10
1420.428041080089
 20
1806.12692122689
 30
0.0
 11
1420.428041080089
 21
1826.911530917717
 31
0.0
  0
ARC
  5
334
330
15
100
AcDbEntity
  8
4
100
AcDbCircle
 10
1402.106867506356
 20
1816.519226072304
 30
0.0
 40
18.32117357373317
100
AcDbArc
 50
337.7806898294712
 51
22.21931017052882
  0
ARC
  5
335
330
15
100
AcDbEntity
  8
4
100
AcDbCircle
 10
1415.337570722536
 20
1826.911530917717
 30
0.0
 40
5.090470357553012
100
AcDbArc
 50
317.1167115949086
 51
42.88328840509141
  0
ARC
  5
336
330
15
100
AcDbEntity
  8
4
100
AcDbCircle
 10
1415.337570722536
 20
1806.12692122689
 30
0.0
 40
5.090470357553002
100
AcDbArc
 50
317.1167115949086
 51
42.88328840509141
  0
LINE
  5
337
330
15
100
AcDbEntity
  8
4
100
AcDbLine
 10
1406.428041080089
 20
1830.375632532855
 30
0.0
 11
1406.428041080089
 21
1802.662819611753
 31
0.0
  0
LINE
  5
338
330
15
100
AcDbEntity
  8
4
100
AcDbLine
 10
1410.428041080089
 20
1830.375632532855
 30
0.0
 11
1410.428041080089
 21
1802.662819611753
 31
0.0
  0
LINE
  5
339
330
15
100
AcDbEntity
  8
4
100
AcDbLine
 10
1419.06756917577
 20
1830.375632532855
 30
0.0
 11
1406.428041080089
 21
1830.375632532855
 31
0.0
  0
LINE
  5
33A
330
15
100
AcDbEntity
  8
4
100
AcDbLine
 10
1419.06756917577
 20
1823.447429302579
 30
0.0
 11
1410.428041080089
 21
1823.447429302579
 31
0.0
  0
LINE
  5
33B
330
15
100
AcDbEntity
  8
4
100
AcDbLine
 10
1406.428041080089
 20
1802.662819611753
 30
0.0
 11
1419.06756917577
 21
1802.662819611753
 31
0.0
  0
LINE
  5
33C
330
15
100
AcDbEntity
  8
4
100
AcDbLine
 10
1419.06756917577
 20
1809.591022842028
 30
0.0
 11
1410.428041080089
 21
1809.591022842028
 31
0.0
  0
ARC
  5
33D
330
15
100
AcDbEntity
  8
4
100
AcDbCircle
 10
552.1492166538216
 20
1692.775539364658
 30
0.0
 40
18.32117357373317
100
AcDbArc
 50
157.7806898294711
 51
202.2193101705288
  0
ARC
  5
33E
330
15
100
AcDbEntity
  8
4
100
AcDbCircle
 10
538.9185134376413
 20
1682.383234519244
 30
0.0
 40
5.090470357553012
100
AcDbArc
 50
137.1167115949077
 51
222.8832884050787
  0
LINE
  5
33F
330
15
100
AcDbEntity
  8
4
100
AcDbLine
 10
535.1885149844076
 20
1678.919132904105
 30
0.0
 11
547.8280430800879
 21
1678.919132904105
 31
0.0
  0
LINE
  5
340
330
15
100
AcDbEntity
  8
4
100
AcDbLine
 10
535.1885149844076
 20
1685.847336134382
 30
0.0
 11
543.8280430800879
 21
1685.847336134382
 31
0.0
  0
LINE
  5
341
330
15
100
AcDbEntity
  8
4
100
AcDbLine
 10
535.188514984408
 20
1699.703742594932
 30
0.0
 11
543.8280430800884
 21
1699.703742594932
 31
0.0
  0
LINE
  5
342
330
15
100
AcDbEntity
  8
4
100
AcDbLine
 10
533.8280430800884
 20
1703.167844210071
 30
0.0
 11
533.8280430800879
 21
1682.383234519244
 31
0.0
  0
ARC
  5
343
330
15
100
AcDbEntity
  8
4
100
AcDbCircle
 10
538.9185134376418
 20
1703.167844210071
 30
0.0
 40
5.090470357553002
100
AcDbArc
 50
137.1167115949077
 51
222.8832884050795
  0
LINE
  5
344
330
15
100
AcDbEntity
  8
4
100
AcDbLine
 10
547.8280430800879
 20
1678.919132904105
 30
0.0
 11
547.8280430800884
 21
1706.631945825209
 31
0.0
  0
LINE
  5
345
330
15
100
AcDbEntity
  8
4
100
AcDbLine
 10
543.8280430800879
 20
1678.919132904105
 30
0.0
 11
543.8280430800884
 21
1706.631945825209
 31
0.0
  0
LINE
  5
346
330
15
100
AcDbEntity
  8
4
100
AcDbLine
 10
547.8280430800884
 20
1706.631945825209
 30
0.0
 11
535.188514984408
 21
1706.631945825209
 31
0.0
  0
LINE
  5
347
330
15
100
AcDbEntity
  8
4
100
AcDbLine
 10
535.1885149844094
 20
1809.591022842028
 30
0.0
 11
543.8280430800897
 21
1809.591022842028
 31
0.0
  0
LINE
  5
348
330
15
100
AcDbEntity
  8
4
100
AcDbLine
 10
547.8280430800897
 20
1802.662819611753
 30
0.0
 11
535.1885149844094
 21
1802.662819611753
 31
0.0
  0
LINE
  5
349
330
15
100
AcDbEntity
  8
4
100
AcDbLine
 10
535.1885149844094
 20
1823.447429302579
 30
0.0
 11
543.8280430800897
 21
1823.447429302579
 31
0.0
  0
LINE
  5
34A
330
15
100
AcDbEntity
  8
4
100
AcDbLine
 10
535.1885149844094
 20
1830.375632532855
 30
0.0
 11
547.8280430800897
 21
1830.375632532855
 31
0.0
  0
LINE
  5
34B
330
15
100
AcDbEntity
  8
4
100
AcDbLine
 10
543.8280430800897
 20
1830.375632532855
 30
0.0
 11
543.8280430800897
 21
1802.662819611753
 31
0.0
  0
LINE
  5
34C
330
15
100
AcDbEntity
  8
4
100
AcDbLine
 10
547.8280430800897
 20
1830.375632532855
 30
0.0
 11
547.8280430800897
 21
1802.662819611753
 31
0.0
  0
ARC
  5
34D
330
15
100
AcDbEntity
  8
4
100
AcDbCircle
 10
538.9185134376431
 20
1806.12692122689
 30
0.0
 40
5.090470357553002
100
AcDbArc
 50
137.1167115949077
 51
222.8832884050923
  0
ARC
  5
34E
330
15
100
AcDbEntity
  8
4
100
AcDbCircle
 10
538.9185134376431
 20
1826.911530917717
 30
0.0
 40
5.090470357553012
100
AcDbArc
 50
137.1167115949077
 51
222.8832884050923
  0
ARC
  5
34F
330
15
100
AcDbEntity
  8
4
100
AcDbCircle
 10
552.1492166538229
 20
1816.519226072304
 30
0.0
 40
18.32117357373317
100
AcDbArc
 50
157.7806898294712
 51
202.2193101705288
  0
LINE
  5
350
330
15
100
AcDbEntity
  8
4
100
AcDbLine
 10
533.8280430800897
 20
1806.12692122689
 30
0.0
 11
533.8280430800897
 21
1826.911530917717
 31
0.0
  0
LINE
  5
351
330
15
100
AcDbEntity
  8
4
100
AcDbLine
 10
2164.805448206547
 20
609.5462773406371
 30
0.0
 11
2164.805448206547
 21
631.4855875698431
 31
0.0
  0
ARC
  5
352
330
15
100
AcDbEntity
  8
4
100
AcDbCircle
 10
2170.601192341725
 20
620.5159324552405
 30
0.0
 40
13.7957441351769
100
AcDbArc
 50
156.573402491369
 51
184.8215478413528
  0
LINE
  5
353
330
15
100
AcDbEntity
  8
4
100
AcDbLine
 10
2156.805448206547
 20
628.7431737911929
 30
0.0
 11
2156.805448206547
 21
612.2886911192882
 31
0.0
  0
LINE
  5
354
330
15
100
AcDbEntity
  8
4
100
AcDbLine
 10
2167.805448206547
 20
609.5462773406371
 30
0.0
 11
2167.805448206547
 21
631.4855875698431
 31
0.0
  0
LINE
  5
355
330
15
100
AcDbEntity
  8
4
100
AcDbLine
 10
2157.942629117174
 20
626.0007600125418
 30
0.0
 11
2164.805448206547
 21
626.0007600125418
 31
0.0
  0
LINE
  5
356
330
15
100
AcDbEntity
  8
4
100
AcDbLine
 10
2167.805448206547
 20
631.4855875698431
 30
0.0
 11
2157.942629117174
 21
631.4855875698431
 31
0.0
  0
LINE
  5
357
330
15
100
AcDbEntity
  8
L-CENTER
 48
2.0
100
AcDbLine
 10
2153.204608326443
 20
620.5159324552405
 30
0.0
 11
2206.288142533584
 21
620.5159324552405
 31
0.0
  0
ARC
  5
358
330
15
100
AcDbEntity
  8
4
100
AcDbCircle
 10
2160.680827081826
 20
628.7431737911929
 30
0.0
 40
3.875378875279264
100
AcDbArc
 50
134.9559267627452
 51
225.0440732372548
  0
LINE
  5
359
330
15
100
AcDbEntity
  8
4
100
AcDbLine
 10
2164.805448206547
 20
599.5462803406367
 30
0.0
 11
2164.805448206547
 21
621.4855905698428
 31
0.0
  0
ARC
  5
35A
330
15
100
AcDbEntity
  8
4
100
AcDbCircle
 10
2170.601192341725
 20
610.5159354552402
 30
0.0
 40
13.7957441351769
100
AcDbArc
 50
156.5734024913708
 51
203.4265975086292
  0
LINE
  5
35B
330
15
100
AcDbEntity
  8
4
100
AcDbLine
 10
2156.805448206547
 20
618.7431767911926
 30
0.0
 11
2156.805448206547
 21
602.2886941192878
 31
0.0
  0
LINE
  5
35C
330
15
100
AcDbEntity
  8
4
100
AcDbLine
 10
2167.805448206547
 20
599.5462803406367
 30
0.0
 11
2167.805448206547
 21
621.4855905698428
 31
0.0
  0
LINE
  5
35D
330
15
100
AcDbEntity
  8
4
100
AcDbLine
 10
2157.942629117174
 20
605.0311078979389
 30
0.0
 11
2164.805448206547
 21
605.0311078979389
 31
0.0
  0
LINE
  5
35E
330
15
100
AcDbEntity
  8
4
100
AcDbLine
 10
2157.942629117174
 20
599.5462803406367
 30
0.0
 11
2167.805448206547
 21
599.5462803406367
 31
0.0
  0
ARC
  5
35F
330
15
100
AcDbEntity
  8
4
100
AcDbCircle
 10
2160.680827081826
 20
602.2886941192878
 30
0.0
 40
3.875378875279244
100
AcDbArc
 50
134.9559267627452
 51
225.0440732372548
  0
LINE
  5
360
330
15
100
AcDbEntity
  8
4
100
AcDbLine
 10
2157.942629117174
 20
616.0007630125415
 30
0.0
 11
2164.805448206547
 21
616.0007630125415
 31
0.0
  0
LINE
  5
361
330
15
100
AcDbEntity
  8
4
100
AcDbLine
 10
2167.805448206547
 20
621.4855905698428
 30
0.0
 11
2157.942629117174
 21
621.4855905698428
 31
0.0
  0
LINE
  5
362
330
15
100
AcDbEntity
  8
L-CENTER
 48
2.0
100
AcDbLine
 10
2153.204608326443
 20
610.5159354552402
 30
0.0
 11
2206.288142533584
 21
610.5159354552402
 31
0.0
  0
ARC
  5
363
330
15
100
AcDbEntity
  8
4
100
AcDbCircle
 10
2160.680827081826
 20
618.7431767911926
 30
0.0
 40
3.875378875279264
100
AcDbArc
 50
134.9559267627452
 51
225.0440732372548
  0
LINE
  5
364
330
15
100
AcDbEntity
  8
4
100
AcDbLine
 10
2164.805448206547
 20
549.54658050133
 30
0.0
 11
2164.805448206547
 21
571.4858907305361
 31
0.0
  0
LINE
  5
365
330
15
100
AcDbEntity
  8
4
100
AcDbLine
 10
2156.805448206547
 20
557.2888440696743
 30
0.0
 11
2156.805448206548
 21
552.2889942799811
 31
0.0
  0
LINE
  5
366
330
15
100
AcDbEntity
  8
4
100
AcDbLine
 10
2167.805448206547
 20
549.54658050133
 30
0.0
 11
2167.805448206547
 21
571.4858907305361
 31
0.0
  0
LINE
  5
367
330
15
100
AcDbEntity
  8
4
100
AcDbLine
 10
2157.942629117175
 20
549.54658050133
 30
0.0
 11
2167.805448206547
 21
549.54658050133
 31
0.0
  0
ARC
  5
368
330
15
100
AcDbEntity
  8
4
100
AcDbCircle
 10
2160.680827081826
 20
552.2889942799811
 30
0.0
 40
3.875378875279244
100
AcDbArc
 50
139.8284134034343
 51
225.0440732372477
  0
LINE
  5
369
330
15
100
AcDbEntity
  8
L-CENTER
 48
2.0
100
AcDbLine
 10
2153.204608326443
 20
560.5162356159335
 30
0.0
 11
2206.288142533584
 21
560.5162356159335
 31
0.0
  0
LINE
  5
36A
330
15
100
AcDbEntity
  8
4
100
AcDbLine
 10
2164.805448206547
 20
554.5464302910232
 30
0.0
 11
2164.805448206547
 21
576.4857405202292
 31
0.0
  0
ARC
  5
36B
330
15
100
AcDbEntity
  8
4
100
AcDbCircle
 10
2170.601192341725
 20
565.5160854056267
 30
0.0
 40
13.7957441351769
100
AcDbArc
 50
156.573402491369
 51
203.426597508631
  0
LINE
  5
36C
330
15
100
AcDbEntity
  8
4
100
AcDbLine
 10
2156.805448206547
 20
573.743326741579
 30
0.0
 11
2156.805448206547
 21
557.2888440696743
 31
0.0
  0
LINE
  5
36D
330
15
100
AcDbEntity
  8
4
100
AcDbLine
 10
2167.805448206547
 20
554.5464302910232
 30
0.0
 11
2167.805448206547
 21
576.4857405202292
 31
0.0
  0
LINE
  5
36E
330
15
100
AcDbEntity
  8
4
100
AcDbLine
 10
2157.942629117175
 20
560.0312578483254
 30
0.0
 11
2164.805448206547
 21
560.0312578483254
 31
0.0
  0
LINE
  5
36F
330
15
100
AcDbEntity
  8
4
100
AcDbLine
 10
2157.942629117175
 20
554.5464302910232
 30
0.0
 11
2167.805448206547
 21
554.5464302910232
 31
0.0
  0
ARC
  5
370
330
15
100
AcDbEntity
  8
4
100
AcDbCircle
 10
2160.680827081826
 20
557.2888440696743
 30
0.0
 40
3.875378875279244
100
AcDbArc
 50
134.9559267627452
 51
225.0440732372548
  0
LINE
  5
371
330
15
100
AcDbEntity
  8
4
100
AcDbLine
 10
2157.942629117175
 20
571.0009129629279
 30
0.0
 11
2164.805448206547
 21
571.0009129629279
 31
0.0
  0
LINE
  5
372
330
15
100
AcDbEntity
  8
4
100
AcDbLine
 10
2167.805448206547
 20
576.4857405202292
 30
0.0
 11
2157.942629117175
 21
576.4857405202292
 31
0.0
  0
LINE
  5
373
330
15
100
AcDbEntity
  8
L-CENTER
 48
2.0
100
AcDbLine
 10
2153.204608326443
 20
565.5160854056267
 30
0.0
 11
2206.288142533584
 21
565.5160854056267
 31
0.0
  0
ARC
  5
374
330
15
100
AcDbEntity
  8
4
100
AcDbCircle
 10
2160.680827081826
 20
573.743326741579
 30
0.0
 40
3.875378875279264
100
AcDbArc
 50
134.9559267627452
 51
225.0440732372548
  0
LINE
  5
375
330
15
100
AcDbEntity
  8
4
100
AcDbLine
 10
2164.805448206547
 20
464.5461289111131
 30
0.0
 11
2164.805448206547
 21
486.4854391403192
 31
0.0
  0
ARC
  5
376
330
15
100
AcDbEntity
  8
4
100
AcDbCircle
 10
2170.601192341725
 20
475.5157840257166
 30
0.0
 40
13.7957441351769
100
AcDbArc
 50
156.5734024913708
 51
203.4265975086292
  0
LINE
  5
377
330
15
100
AcDbEntity
  8
4
100
AcDbLine
 10
2156.805448206547
 20
483.743025361669
 30
0.0
 11
2156.805448206547
 21
467.2885426897642
 31
0.0
  0
LINE
  5
378
330
15
100
AcDbEntity
  8
4
100
AcDbLine
 10
2167.805448206547
 20
464.5461289111131
 30
0.0
 11
2167.805448206547
 21
486.4854391403192
 31
0.0
  0
LINE
  5
379
330
15
100
AcDbEntity
  8
4
100
AcDbLine
 10
2157.942629117175
 20
470.0309564684153
 30
0.0
 11
2164.805448206547
 21
470.0309564684153
 31
0.0
  0
LINE
  5
37A
330
15
100
AcDbEntity
  8
4
100
AcDbLine
 10
2157.942629117175
 20
464.5461289111131
 30
0.0
 11
2167.805448206547
 21
464.5461289111131
 31
0.0
  0
ARC
  5
37B
330
15
100
AcDbEntity
  8
4
100
AcDbCircle
 10
2160.680827081826
 20
467.2885426897642
 30
0.0
 40
3.875378875279244
100
AcDbArc
 50
134.9559267627452
 51
225.0440732372548
  0
LINE
  5
37C
330
15
100
AcDbEntity
  8
4
100
AcDbLine
 10
2157.942629117175
 20
481.0006115830179
 30
0.0
 11
2164.805448206547
 21
481.0006115830179
 31
0.0
  0
LINE
  5
37D
330
15
100
AcDbEntity
  8
4
100
AcDbLine
 10
2167.805448206547
 20
486.4854391403192
 30
0.0
 11
2157.942629117175
 21
486.4854391403192
 31
0.0
  0
LINE
  5
37E
330
15
100
AcDbEntity
  8
L-CENTER
 48
2.0
100
AcDbLine
 10
2153.204608326443
 20
475.5157840257166
 30
0.0
 11
2206.288142533584
 21
475.5157840257166
 31
0.0
  0
ARC
  5
37F
330
15
100
AcDbEntity
  8
4
100
AcDbCircle
 10
2160.680827081826
 20
483.743025361669
 30
0.0
 40
3.875378875279264
100
AcDbArc
 50
134.9559267627452
 51
225.0440732372548
  0
LINE
  5
380
330
15
100
AcDbEntity
  8
4
100
AcDbLine
 10
2164.805448206547
 20
429.5465775621651
 30
0.0
 11
2164.805448206547
 21
451.4858877913712
 31
0.0
  0
ARC
  5
381
330
15
100
AcDbEntity
  8
4
100
AcDbCircle
 10
2170.601192341725
 20
440.5162326767686
 30
0.0
 40
13.7957441351769
100
AcDbArc
 50
156.573402491369
 51
184.8223730769658
  0
LINE
  5
382
330
15
100
AcDbEntity
  8
4
100
AcDbLine
 10
2156.805448206547
 20
448.743474012721
 30
0.0
 11
2156.805448206547
 21
432.2889913408162
 31
0.0
  0
LINE
  5
383
330
15
100
AcDbEntity
  8
4
100
AcDbLine
 10
2167.805448206547
 20
429.5465775621651
 30
0.0
 11
2167.805448206547
 21
451.4858877913712
 31
0.0
  0
LINE
  5
384
330
15
100
AcDbEntity
  8
4
100
AcDbLine
 10
2157.942629117175
 20
446.0010602340699
 30
0.0
 11
2164.805448206547
 21
446.0010602340699
 31
0.0
  0
LINE
  5
385
330
15
100
AcDbEntity
  8
4
100
AcDbLine
 10
2167.805448206547
 20
451.4858877913712
 30
0.0
 11
2157.942629117175
 21
451.4858877913712
 31
0.0
  0
LINE
  5
386
330
15
100
AcDbEntity
  8
L-CENTER
 48
2.0
100
AcDbLine
 10
2153.204608326443
 20
440.5162326767686
 30
0.0
 11
2206.288142533584
 21
440.5162326767686
 31
0.0
  0
ARC
  5
387
330
15
100
AcDbEntity
  8
4
100
AcDbCircle
 10
2160.680827081826
 20
448.743474012721
 30
0.0
 40
3.875378875279264
100
AcDbArc
 50
134.9559267627452
 51
225.0440732372548
  0
LINE
  5
388
330
15
100
AcDbEntity
  8
4
100
AcDbLine
 10
2164.805448206547
 20
419.5462783406369
 30
0.0
 11
2164.805448206547
 21
441.485588569843
 31
0.0
  0
ARC
  5
389
330
15
100
AcDbEntity
  8
4
100
AcDbCircle
 10
2170.601192341725
 20
430.5159334552404
 30
0.0
 40
13.7957441351769
100
AcDbArc
 50
156.5734024913708
 51
203.4265975086292
  0
LINE
  5
38A
330
15
100
AcDbEntity
  8
4
100
AcDbLine
 10
2156.805448206547
 20
438.7431747911928
 30
0.0
 11
2156.805448206547
 21
422.288692119288
 31
0.0
  0
LINE
  5
38B
330
15
100
AcDbEntity
  8
4
100
AcDbLine
 10
2167.805448206547
 20
419.5462783406369
 30
0.0
 11
2167.805448206547
 21
441.485588569843
 31
0.0
  0
LINE
  5
38C
330
15
100
AcDbEntity
  8
4
100
AcDbLine
 10
2157.942629117174
 20
425.0311058979391
 30
0.0
 11
2164.805448206547
 21
425.0311058979391
 31
0.0
  0
LINE
  5
38D
330
15
100
AcDbEntity
  8
4
100
AcDbLine
 10
2157.942629117174
 20
419.5462783406369
 30
0.0
 11
2167.805448206547
 21
419.5462783406369
 31
0.0
  0
ARC
  5
38E
330
15
100
AcDbEntity
  8
4
100
AcDbCircle
 10
2160.680827081826
 20
422.288692119288
 30
0.0
 40
3.875378875279244
100
AcDbArc
 50
134.9559267627452
 51
225.0440732372548
  0
LINE
  5
38F
330
15
100
AcDbEntity
  8
4
100
AcDbLine
 10
2157.942629117174
 20
436.0007610125417
 30
0.0
 11
2164.805448206547
 21
436.0007610125417
 31
0.0
  0
LINE
  5
390
330
15
100
AcDbEntity
  8
4
100
AcDbLine
 10
2167.805448206547
 20
441.485588569843
 30
0.0
 11
2157.942629117174
 21
441.485588569843
 31
0.0
  0
LINE
  5
391
330
15
100
AcDbEntity
  8
L-CENTER
 48
2.0
100
AcDbLine
 10
2153.204608326443
 20
430.5159334552404
 30
0.0
 11
2206.288142533584
 21
430.5159334552404
 31
0.0
  0
ARC
  5
392
330
15
100
AcDbEntity
  8
4
100
AcDbCircle
 10
2160.680827081826
 20
438.7431747911928
 30
0.0
 40
3.875378875279264
100
AcDbArc
 50
134.9559267627452
 51
225.0440732372548
  0
LINE
  5
393
330
15
100
AcDbEntity
  8
4
100
AcDbLine
 10
2164.805448206547
 20
369.5462793406368
 30
0.0
 11
2164.805448206547
 21
391.4855895698429
 31
0.0
  0
ARC
  5
394
330
15
100
AcDbEntity
  8
4
100
AcDbCircle
 10
2170.601192341725
 20
380.5159344552403
 30
0.0
 40
13.7957441351769
100
AcDbArc
 50
156.5734024913725
 51
203.4265975086275
  0
LINE
  5
395
330
15
100
AcDbEntity
  8
4
100
AcDbLine
 10
2156.805448206547
 20
388.7431757911927
 30
0.0
 11
2156.805448206547
 21
372.2886931192879
 31
0.0
  0
LINE
  5
396
330
15
100
AcDbEntity
  8
4
100
AcDbLine
 10
2167.805448206547
 20
369.5462793406368
 30
0.0
 11
2167.805448206547
 21
391.4855895698429
 31
0.0
  0
LINE
  5
397
330
15
100
AcDbEntity
  8
4
100
AcDbLine
 10
2157.942629117174
 20
375.031106897939
 30
0.0
 11
2164.805448206547
 21
375.031106897939
 31
0.0
  0
LINE
  5
398
330
15
100
AcDbEntity
  8
4
100
AcDbLine
 10
2157.942629117174
 20
369.5462793406368
 30
0.0
 11
2167.805448206547
 21
369.5462793406368
 31
0.0
  0
ARC
  5
399
330
15
100
AcDbEntity
  8
4
100
AcDbCircle
 10
2160.680827081826
 20
372.2886931192879
 30
0.0
 40
3.875378875279244
100
AcDbArc
 50
134.9559267627452
 51
225.0440732372548
  0
LINE
  5
39A
330
15
100
AcDbEntity
  8
4
100
AcDbLine
 10
2157.942629117174
 20
386.0007620125416
 30
0.0
 11
2164.805448206547
 21
386.0007620125416
 31
0.0
  0
LINE
  5
39B
330
15
100
AcDbEntity
  8
4
100
AcDbLine
 10
2167.805448206547
 20
391.4855895698429
 30
0.0
 11
2157.942629117174
 21
391.4855895698429
 31
0.0
  0
LINE
  5
39C
330
15
100
AcDbEntity
  8
L-CENTER
 48
2.0
100
AcDbLine
 10
2153.204608326443
 20
380.5159344552403
 30
0.0
 11
2206.288142533584
 21
380.5159344552403
 31
0.0
  0
ARC
  5
39D
330
15
100
AcDbEntity
  8
4
100
AcDbCircle
 10
2160.680827081826
 20
388.7431757911927
 30
0.0
 40
3.875378875279264
100
AcDbArc
 50
134.9559267627452
 51
225.0440732372548
  0
LINE
  5
39E
330
15
100
AcDbEntity
  8
L-CENTER
 48
2.0
100
AcDbLine
 10
2556.206292086652
 20
380.5159344552403
 30
0.0
 11
2503.122757879511
 21
380.5159344552403
 31
0.0
  0
ARC
  5
39F
330
15
100
AcDbEntity
  8
4
100
AcDbCircle
 10
2548.730073331269
 20
388.7431757911927
 30
0.0
 40
3.875378875279264
100
AcDbArc
 50
314.9559267627452
 51
45.04407323725481
  0
LINE
  5
3A0
330
15
100
AcDbEntity
  8
4
100
AcDbLine
 10
2541.605452206548
 20
391.4855895698429
 30
0.0
 11
2551.468271295921
 21
391.4855895698429
 31
0.0
  0
LINE
  5
3A1
330
15
100
AcDbEntity
  8
4
100
AcDbLine
 10
2551.468271295921
 20
386.0007620125416
 30
0.0
 11
2544.605452206548
 21
386.0007620125416
 31
0.0
  0
ARC
  5
3A2
330
15
100
AcDbEntity
  8
4
100
AcDbCircle
 10
2548.730073331269
 20
372.2886931192879
 30
0.0
 40
3.875378875279244
100
AcDbArc
 50
314.9559267627452
 51
45.04407323725481
  0
LINE
  5
3A3
330
15
100
AcDbEntity
  8
4
100
AcDbLine
 10
2551.468271295921
 20
369.5462793406368
 30
0.0
 11
2541.605452206548
 21
369.5462793406368
 31
0.0
  0
LINE
  5
3A4
330
15
100
AcDbEntity
  8
4
100
AcDbLine
 10
2551.468271295921
 20
375.031106897939
 30
0.0
 11
2544.605452206548
 21
375.031106897939
 31
0.0
  0
LINE
  5
3A5
330
15
100
AcDbEntity
  8
4
100
AcDbLine
 10
2541.605452206548
 20
369.5462793406368
 30
0.0
 11
2541.605452206548
 21
391.4855895698429
 31
0.0
  0
LINE
  5
3A6
330
15
100
AcDbEntity
  8
4
100
AcDbLine
 10
2552.605452206548
 20
388.7431757911927
 30
0.0
 11
2552.605452206548
 21
372.2886931192879
 31
0.0
  0
ARC
  5
3A7
330
15
100
AcDbEntity
  8
4
100
AcDbCircle
 10
2538.809708071371
 20
380.5159344552403
 30
0.0
 40
13.7957441351769
100
AcDbArc
 50
336.5734024913691
 51
23.42659750863096
  0
LINE
  5
3A8
330
15
100
AcDbEntity
  8
4
100
AcDbLine
 10
2544.605452206548
 20
369.5462793406368
 30
0.0
 11
2544.605452206548
 21
391.4855895698429
 31
0.0
  0
LINE
  5
3A9
330
15
100
AcDbEntity
  8
L-CENTER
 48
2.0
100
AcDbLine
 10
2556.206292086651
 20
430.5159334552404
 30
0.0
 11
2503.122757879511
 21
430.5159334552404
 31
0.0
  0
LINE
  5
3AA
330
15
100
AcDbEntity
  8
L-CENTER
 48
2.0
100
AcDbLine
 10
2556.206292086651
 20
440.5162326767686
 30
0.0
 11
2503.122757879511
 21
440.5162326767686
 31
0.0
  0
LINE
  5
3AB
330
15
100
AcDbEntity
  8
L-CENTER
 48
2.0
100
AcDbLine
 10
2556.206292086651
 20
475.5157840257166
 30
0.0
 11
2503.122757879511
 21
475.5157840257166
 31
0.0
  0
ARC
  5
3AC
330
15
100
AcDbEntity
  8
4
100
AcDbCircle
 10
2538.80970807137
 20
440.5162326767686
 30
0.0
 40
13.7957441351769
100
AcDbArc
 50
355.1776269230342
 51
23.42659750862749
  0
ARC
  5
3AD
330
15
100
AcDbEntity
  8
4
100
AcDbCircle
 10
2548.730073331269
 20
438.7431747911928
 30
0.0
 40
3.875378875279264
100
AcDbArc
 50
314.9559267627452
 51
45.04407323725481
  0
LINE
  5
3AE
330
15
100
AcDbEntity
  8
4
100
AcDbLine
 10
2541.605452206547
 20
441.485588569843
 30
0.0
 11
2551.468271295921
 21
441.485588569843
 31
0.0
  0
LINE
  5
3AF
330
15
100
AcDbEntity
  8
4
100
AcDbLine
 10
2551.468271295921
 20
436.0007610125417
 30
0.0
 11
2544.605452206547
 21
436.0007610125417
 31
0.0
  0
ARC
  5
3B0
330
15
100
AcDbEntity
  8
4
100
AcDbCircle
 10
2548.730073331269
 20
422.288692119288
 30
0.0
 40
3.875378875279244
100
AcDbArc
 50
314.9559267627452
 51
45.04407323725481
  0
LINE
  5
3B1
330
15
100
AcDbEntity
  8
4
100
AcDbLine
 10
2551.468271295921
 20
419.5462783406369
 30
0.0
 11
2541.605452206547
 21
419.5462783406369
 31
0.0
  0
LINE
  5
3B2
330
15
100
AcDbEntity
  8
4
100
AcDbLine
 10
2551.468271295921
 20
425.0311058979391
 30
0.0
 11
2544.605452206547
 21
425.0311058979391
 31
0.0
  0
LINE
  5
3B3
330
15
100
AcDbEntity
  8
4
100
AcDbLine
 10
2541.605452206547
 20
419.5462783406369
 30
0.0
 11
2541.605452206547
 21
441.485588569843
 31
0.0
  0
LINE
  5
3B4
330
15
100
AcDbEntity
  8
4
100
AcDbLine
 10
2552.605452206547
 20
438.7431747911928
 30
0.0
 11
2552.605452206547
 21
422.288692119288
 31
0.0
  0
ARC
  5
3B5
330
15
100
AcDbEntity
  8
4
100
AcDbCircle
 10
2538.809708071371
 20
430.5159334552404
 30
0.0
 40
13.7957441351769
100
AcDbArc
 50
336.5734024913725
 51
23.42659750862749
  0
LINE
  5
3B6
330
15
100
AcDbEntity
  8
4
100
AcDbLine
 10
2544.605452206547
 20
419.5462783406369
 30
0.0
 11
2544.605452206547
 21
441.485588569843
 31
0.0
  0
ARC
  5
3B7
330
15
100
AcDbEntity
  8
4
100
AcDbCircle
 10
2548.730073331269
 20
448.743474012721
 30
0.0
 40
3.875378875279264
100
AcDbArc
 50
314.9559267627452
 51
45.04407323725481
  0
LINE
  5
3B8
330
15
100
AcDbEntity
  8
4
100
AcDbLine
 10
2541.605452206547
 20
451.4858877913712
 30
0.0
 11
2551.468271295921
 21
451.4858877913712
 31
0.0
  0
LINE
  5
3B9
330
15
100
AcDbEntity
  8
4
100
AcDbLine
 10
2551.468271295921
 20
446.0010602340699
 30
0.0
 11
2544.605452206547
 21
446.0010602340699
 31
0.0
  0
LINE
  5
3BA
330
15
100
AcDbEntity
  8
4
100
AcDbLine
 10
2541.605452206547
 20
429.5465775621651
 30
0.0
 11
2541.605452206547
 21
451.4858877913712
 31
0.0
  0
LINE
  5
3BB
330
15
100
AcDbEntity
  8
4
100
AcDbLine
 10
2552.605452206547
 20
448.743474012721
 30
0.0
 11
2552.605452206547
 21
432.2889913408162
 31
0.0
  0
LINE
  5
3BC
330
15
100
AcDbEntity
  8
4
100
AcDbLine
 10
2544.605452206547
 20
429.5465775621651
 30
0.0
 11
2544.605452206547
 21
451.4858877913712
 31
0.0
  0
LINE
  5
3BD
330
15
100
AcDbEntity
  8
4
100
AcDbLine
 10
2551.468271295921
 20
481.0006115830179
 30
0.0
 11
2544.605452206547
 21
481.0006115830179
 31
0.0
  0
ARC
  5
3BE
330
15
100
AcDbEntity
  8
4
100
AcDbCircle
 10
2548.730073331269
 20
467.2885426897642
 30
0.0
 40
3.875378875279244
100
AcDbArc
 50
314.9559267627452
 51
45.04407323725481
  0
LINE
  5
3BF
330
15
100
AcDbEntity
  8
4
100
AcDbLine
 10
2551.468271295921
 20
464.5461289111131
 30
0.0
 11
2541.605452206547
 21
464.5461289111131
 31
0.0
  0
LINE
  5
3C0
330
15
100
AcDbEntity
  8
4
100
AcDbLine
 10
2551.468271295921
 20
470.0309564684153
 30
0.0
 11
2544.605452206547
 21
470.0309564684153
 31
0.0
  0
LINE
  5
3C1
330
15
100
AcDbEntity
  8
4
100
AcDbLine
 10
2552.605452206547
 20
483.743025361669
 30
0.0
 11
2552.605452206547
 21
467.2885426897642
 31
0.0
  0
ARC
  5
3C2
330
15
100
AcDbEntity
  8
4
100
AcDbCircle
 10
2538.80970807137
 20
475.5157840257166
 30
0.0
 40
13.7957441351769
100
AcDbArc
 50
336.5734024913725
 51
23.42659750862749
  0
ARC
  5
3C3
330
15
100
AcDbEntity
  8
4
100
AcDbCircle
 10
2548.730073331269
 20
618.7431767911926
 30
0.0
 40
3.875378875279264
100
AcDbArc
 50
314.9559267627452
 51
45.04407323725481
  0
LINE
  5
3C4
330
15
100
AcDbEntity
  8
4
100
AcDbLine
 10
2541.605452206547
 20
599.5462803406367
 30
0.0
 11
2541.605452206547
 21
621.4855905698428
 31
0.0
  0
LINE
  5
3C5
330
15
100
AcDbEntity
  8
4
100
AcDbLine
 10
2544.605452206547
 20
599.5462803406367
 30
0.0
 11
2544.605452206547
 21
621.4855905698428
 31
0.0
  0
LINE
  5
3C6
330
15
100
AcDbEntity
  8
L-CENTER
 48
2.0
100
AcDbLine
 10
2556.206292086651
 20
565.5160854056267
 30
0.0
 11
2503.122757879511
 21
565.5160854056267
 31
0.0
  0
LINE
  5
3C7
330
15
100
AcDbEntity
  8
L-CENTER
 48
2.0
100
AcDbLine
 10
2556.206292086651
 20
560.5162356159335
 30
0.0
 11
2503.122757879511
 21
560.5162356159335
 31
0.0
  0
LINE
  5
3C8
330
15
100
AcDbEntity
  8
L-CENTER
 48
2.0
100
AcDbLine
 10
2556.206292086651
 20
610.5159354552402
 30
0.0
 11
2503.122757879511
 21
610.5159354552402
 31
0.0
  0
LINE
  5
3C9
330
15
100
AcDbEntity
  8
4
100
AcDbLine
 10
2541.605452206547
 20
549.54658050133
 30
0.0
 11
2541.605452206547
 21
571.4858907305361
 31
0.0
  0
LINE
  5
3CA
330
15
100
AcDbEntity
  8
4
100
AcDbLine
 10
2544.605452206547
 20
549.54658050133
 30
0.0
 11
2544.605452206547
 21
571.4858907305361
 31
0.0
  0
ARC
  5
3CB
330
15
100
AcDbEntity
  8
4
100
AcDbCircle
 10
2548.730073331269
 20
552.2889942799811
 30
0.0
 40
3.875378875279244
100
AcDbArc
 50
314.9559267627523
 51
40.17158659654934
  0
LINE
  5
3CC
330
15
100
AcDbEntity
  8
4
100
AcDbLine
 10
2551.468271295921
 20
549.54658050133
 30
0.0
 11
2541.605452206547
 21
549.54658050133
 31
0.0
  0
LINE
  5
3CD
330
15
100
AcDbEntity
  8
4
100
AcDbLine
 10
2552.605452206547
 20
557.2888440696743
 30
0.0
 11
2552.605452206547
 21
552.2889942799811
 31
0.0
  0
ARC
  5
3CE
330
15
100
AcDbEntity
  8
4
100
AcDbCircle
 10
2548.730073331269
 20
573.743326741579
 30
0.0
 40
3.875378875279264
100
AcDbArc
 50
314.9559267627452
 51
45.04407323725481
  0
LINE
  5
3CF
330
15
100
AcDbEntity
  8
4
100
AcDbLine
 10
2541.605452206547
 20
576.4857405202292
 30
0.0
 11
2551.468271295921
 21
576.4857405202292
 31
0.0
  0
LINE
  5
3D0
330
15
100
AcDbEntity
  8
4
100
AcDbLine
 10
2551.468271295921
 20
571.0009129629279
 30
0.0
 11
2544.605452206547
 21
571.0009129629279
 31
0.0
  0
ARC
  5
3D1
330
15
100
AcDbEntity
  8
4
100
AcDbCircle
 10
2548.730073331269
 20
557.2888440696743
 30
0.0
 40
3.875378875279244
100
AcDbArc
 50
314.9559267627452
 51
45.04407323725481
  0
LINE
  5
3D2
330
15
100
AcDbEntity
  8
4
100
AcDbLine
 10
2551.468271295921
 20
554.5464302910232
 30
0.0
 11
2541.605452206547
 21
554.5464302910232
 31
0.0
  0
LINE
  5
3D3
330
15
100
AcDbEntity
  8
4
100
AcDbLine
 10
2551.468271295921
 20
560.0312578483254
 30
0.0
 11
2544.605452206547
 21
560.0312578483254
 31
0.0
  0
LINE
  5
3D4
330
15
100
AcDbEntity
  8
4
100
AcDbLine
 10
2541.605452206547
 20
554.5464302910232
 30
0.0
 11
2541.605452206547
 21
576.4857405202292
 31
0.0
  0
LINE
  5
3D5
330
15
100
AcDbEntity
  8
4
100
AcDbLine
 10
2552.605452206547
 20
573.743326741579
 30
0.0
 11
2552.605452206547
 21
557.2888440696743
 31
0.0
  0
ARC
  5
3D6
330
15
100
AcDbEntity
  8
4
100
AcDbCircle
 10
2538.80970807137
 20
565.5160854056267
 30
0.0
 40
13.7957441351769
100
AcDbArc
 50
336.5734024913725
 51
23.42659750862749
  0
LINE
  5
3D7
330
15
100
AcDbEntity
  8
4
100
AcDbLine
 10
2544.605452206547
 20
554.5464302910232
 30
0.0
 11
2544.605452206547
 21
576.4857405202292
 31
0.0
  0
LINE
  5
3D8
330
15
100
AcDbEntity
  8
4
100
AcDbLine
 10
2551.468271295921
 20
616.0007630125415
 30
0.0
 11
2544.605452206547
 21
616.0007630125415
 31
0.0
  0
ARC
  5
3D9
330
15
100
AcDbEntity
  8
4
100
AcDbCircle
 10
2548.730073331269
 20
602.2886941192878
 30
0.0
 40
3.875378875279244
100
AcDbArc
 50
314.9559267627452
 51
45.04407323725481
  0
LINE
  5
3DA
330
15
100
AcDbEntity
  8
4
100
AcDbLine
 10
2551.468271295921
 20
599.5462803406367
 30
0.0
 11
2541.605452206547
 21
599.5462803406367
 31
0.0
  0
LINE
  5
3DB
330
15
100
AcDbEntity
  8
4
100
AcDbLine
 10
2551.468271295921
 20
605.0311078979389
 30
0.0
 11
2544.605452206547
 21
605.0311078979389
 31
0.0
  0
LINE
  5
3DC
330
15
100
AcDbEntity
  8
4
100
AcDbLine
 10
2552.605452206547
 20
618.7431767911926
 30
0.0
 11
2552.605452206547
 21
602.2886941192878
 31
0.0
  0
ARC
  5
3DD
330
15
100
AcDbEntity
  8
4
100
AcDbCircle
 10
2538.809708071371
 20
610.5159354552402
 30
0.0
 40
13.7957441351769
100
AcDbArc
 50
336.5734024913725
 51
23.42659750862749
  0
LINE
  5
3DE
330
15
100
AcDbEntity
  8
L-CENTER
 48
2.0
100
AcDbLine
 10
2556.206292086651
 20
620.5159324552405
 30
0.0
 11
2503.122757879511
 21
620.5159324552405
 31
0.0
  0
LINE
  5
3DF
330
15
100
AcDbEntity
  8
4
100
AcDbLine
 10
2541.605452206547
 20
621.4855905698428
 30
0.0
 11
2551.468271295921
 21
621.4855905698428
 31
0.0
  0
ARC
  5
3E0
330
15
100
AcDbEntity
  8
4
100
AcDbCircle
 10
2538.809708071371
 20
620.5159324552405
 30
0.0
 40
13.7957441351769
100
AcDbArc
 50
355.1784521586471
 51
23.42659750862749
  0
LINE
  5
3E1
330
15
100
AcDbEntity
  8
4
100
AcDbLine
 10
2541.605452206547
 20
609.5462773406371
 30
0.0
 11
2541.605452206547
 21
631.4855875698431
 31
0.0
  0
LINE
  5
3E2
330
15
100
AcDbEntity
  8
4
100
AcDbLine
 10
2552.605452206547
 20
628.7431737911929
 30
0.0
 11
2552.605452206547
 21
612.2886911192882
 31
0.0
  0
LINE
  5
3E3
330
15
100
AcDbEntity
  8
4
100
AcDbLine
 10
2544.605452206547
 20
609.5462773406371
 30
0.0
 11
2544.605452206547
 21
631.4855875698431
 31
0.0
  0
ARC
  5
3E4
330
15
100
AcDbEntity
  8
4
100
AcDbCircle
 10
2548.730073331269
 20
628.7431737911929
 30
0.0
 40
3.875378875279264
100
AcDbArc
 50
314.9559267627452
 51
45.04407323725481
  0
LINE
  5
3E5
330
15
100
AcDbEntity
  8
4
100
AcDbLine
 10
2541.605452206547
 20
631.4855875698431
 30
0.0
 11
2551.468271295921
 21
631.4855875698431
 31
0.0
  0
LINE
  5
3E6
330
15
100
AcDbEntity
  8
4
100
AcDbLine
 10
2551.468271295921
 20
626.0007600125418
 30
0.0
 11
2544.605452206547
 21
626.0007600125418
 31
0.0
  0
ARC
  5
3E7
330
15
100
AcDbEntity
  8
4
100
AcDbCircle
 10
2548.730073331269
 20
483.743025361669
 30
0.0
 40
3.875378875279264
100
AcDbArc
 50
314.9559267627452
 51
45.04407323725481
  0
LINE
  5
3E8
330
15
100
AcDbEntity
  8
4
100
AcDbLine
 10
2541.605452206547
 20
486.4854391403192
 30
0.0
 11
2551.468271295921
 21
486.4854391403192
 31
0.0
  0
LINE
  5
3E9
330
15
100
AcDbEntity
  8
4
100
AcDbLine
 10
2541.605452206547
 20
464.5461289111131
 30
0.0
 11
2541.605452206547
 21
486.4854391403192
 31
0.0
  0
LINE
  5
3EA
330
15
100
AcDbEntity
  8
4
100
AcDbLine
 10
2544.605452206547
 20
464.5461289111131
 30
0.0
 11
2544.605452206547
 21
486.4854391403192
 31
0.0
  0
LINE
  5
3EB
330
15
100
AcDbEntity
  8
4
100
AcDbLine
 10
862.0228696373911
 20
2009.710201807854
 30
0.0
 11
862.0228696373911
 21
2002.847382718482
 31
0.0
  0
LINE
  5
3EC
330
15
100
AcDbEntity
  8
4
100
AcDbLine
 10
867.5076971946914
 20
1999.847382718482
 30
0.0
 11
867.5076971946914
 21
2009.710201807854
 31
0.0
  0
LINE
  5
3ED
330
15
100
AcDbEntity
  8
4
100
AcDbLine
 10
851.0532145227885
 20
2009.710201807854
 30
0.0
 11
851.0532145227885
 21
2002.847382718482
 31
0.0
  0
LINE
  5
3EE
330
15
100
AcDbEntity
  8
4
100
AcDbLine
 10
845.5683869654863
 20
2009.710201807854
 30
0.0
 11
845.5683869654863
 21
1999.847382718482
 31
0.0
  0
LINE
  5
3EF
330
15
100
AcDbEntity
  8
4
100
AcDbLine
 10
845.5683869654863
 20
1999.847382718482
 30
0.0
 11
867.5076971946914
 21
1999.847382718482
 31
0.0
  0
LINE
  5
3F0
330
15
100
AcDbEntity
  8
4
100
AcDbLine
 10
845.5683869654863
 20
2002.847382718482
 30
0.0
 11
867.5076971946914
 21
2002.847382718482
 31
0.0
  0
ARC
  5
3F1
330
15
100
AcDbEntity
  8
4
100
AcDbCircle
 10
856.5380420800889
 20
1997.051638583305
 30
0.0
 40
13.7957441351769
100
AcDbArc
 50
66.57340249136743
 51
113.4265975086279
  0
LINE
  5
3F2
330
15
100
AcDbEntity
  8
4
100
AcDbLine
 10
864.7652834160422
 20
2010.847382718482
 30
0.0
 11
848.3108007441374
 21
2010.847382718482
 31
0.0
  0
ARC
  5
3F3
330
15
100
AcDbEntity
  8
4
100
AcDbCircle
 10
848.3108007441374
 20
2006.972003843202
 30
0.0
 40
3.875378875279244
100
AcDbArc
 50
44.95592676276183
 51
135.044073237256
  0
ARC
  5
3F4
330
15
100
AcDbEntity
  8
4
100
AcDbCircle
 10
864.7652834160422
 20
2006.972003843202
 30
0.0
 40
3.875378875279264
100
AcDbArc
 50
44.95592676276183
 51
135.0440732372572
  0
LINE
  5
3F5
330
15
100
AcDbEntity
  8
4
100
AcDbLine
 10
1115.568386965486
 20
2002.847382718482
 30
0.0
 11
1137.507697194691
 21
2002.847382718482
 31
0.0
  0
ARC
  5
3F6
330
15
100
AcDbEntity
  8
4
100
AcDbCircle
 10
1126.538042080089
 20
1997.051638583305
 30
0.0
 40
13.7957441351769
100
AcDbArc
 50
66.5734024913683
 51
113.4265975086275
  0
LINE
  5
3F7
330
15
100
AcDbEntity
  8
4
100
AcDbLine
 10
1134.765283416042
 20
2010.847382718482
 30
0.0
 11
1118.310800744137
 21
2010.847382718482
 31
0.0
  0
LINE
  5
3F8
330
15
100
AcDbEntity
  8
4
100
AcDbLine
 10
1115.568386965486
 20
1999.847382718482
 30
0.0
 11
1137.507697194691
 21
1999.847382718482
 31
0.0
  0
LINE
  5
3F9
330
15
100
AcDbEntity
  8
4
100
AcDbLine
 10
1121.053214522788
 20
2009.710201807855
 30
0.0
 11
1121.053214522788
 21
2002.847382718482
 31
0.0
  0
LINE
  5
3FA
330
15
100
AcDbEntity
  8
4
100
AcDbLine
 10
1115.568386965486
 20
2009.710201807855
 30
0.0
 11
1115.568386965486
 21
1999.847382718482
 31
0.0
  0
ARC
  5
3FB
330
15
100
AcDbEntity
  8
4
100
AcDbCircle
 10
1118.310800744137
 20
2006.972003843203
 30
0.0
 40
3.875378875279244
100
AcDbArc
 50
44.95592676276183
 51
135.0440732372572
  0
LINE
  5
3FC
330
15
100
AcDbEntity
  8
4
100
AcDbLine
 10
1132.022869637391
 20
2009.710201807855
 30
0.0
 11
1132.022869637391
 21
2002.847382718482
 31
0.0
  0
LINE
  5
3FD
330
15
100
AcDbEntity
  8
4
100
AcDbLine
 10
1137.507697194691
 20
1999.847382718482
 30
0.0
 11
1137.507697194691
 21
2009.710201807855
 31
0.0
  0
ARC
  5
3FE
330
15
100
AcDbEntity
  8
4
100
AcDbCircle
 10
1134.765283416042
 20
2006.972003843203
 30
0.0
 40
3.875378875279264
100
AcDbArc
 50
44.95592676276183
 51
135.0440732372572
  0
LINE
  5
3FF
330
15
100
AcDbEntity
  8
4
100
AcDbLine
 10
867.5076971946914
 20
1625.74738271848
 30
0.0
 11
867.5076971946914
 21
1615.884563629108
 31
0.0
  0
LINE
  5
400
330
15
100
AcDbEntity
  8
4
100
AcDbLine
 10
862.0228696373911
 20
1615.884563629108
 30
0.0
 11
862.0228696373911
 21
1622.74738271848
 31
0.0
  0
LINE
  5
401
330
15
100
AcDbEntity
  8
4
100
AcDbLine
 10
845.5683869654863
 20
1615.884563629108
 30
0.0
 11
845.5683869654863
 21
1625.74738271848
 31
0.0
  0
LINE
  5
402
330
15
100
AcDbEntity
  8
4
100
AcDbLine
 10
851.0532145227885
 20
1615.884563629108
 30
0.0
 11
851.0532145227885
 21
1622.74738271848
 31
0.0
  0
ARC
  5
403
330
15
100
AcDbEntity
  8
4
100
AcDbCircle
 10
856.5380420800889
 20
1628.543126853657
 30
0.0
 40
13.7957441351769
100
AcDbArc
 50
246.5734024913716
 51
293.4265975086321
  0
LINE
  5
404
330
15
100
AcDbEntity
  8
4
100
AcDbLine
 10
864.7652834160422
 20
1614.74738271848
 30
0.0
 11
848.3108007441374
 21
1614.74738271848
 31
0.0
  0
ARC
  5
405
330
15
100
AcDbEntity
  8
4
100
AcDbCircle
 10
848.3108007441374
 20
1618.62276159376
 30
0.0
 40
3.875378875279244
100
AcDbArc
 50
224.9559267627428
 51
315.0440732372381
  0
ARC
  5
406
330
15
100
AcDbEntity
  8
4
100
AcDbCircle
 10
864.7652834160422
 20
1618.62276159376
 30
0.0
 40
3.875378875279264
100
AcDbArc
 50
224.9559267627428
 51
315.0440732372381
  0
LINE
  5
407
330
15
100
AcDbEntity
  8
4
100
AcDbLine
 10
845.5683869654863
 20
1625.74738271848
 30
0.0
 11
867.5076971946914
 21
1625.74738271848
 31
0.0
  0
LINE
  5
408
330
15
100
AcDbEntity
  8
4
100
AcDbLine
 10
845.5683869654863
 20
1622.74738271848
 30
0.0
 11
867.5076971946914
 21
1622.74738271848
 31
0.0
  0
LINE
  5
409
330
15
100
AcDbEntity
  8
4
100
AcDbLine
 10
1115.568386965486
 20
1615.884563629107
 30
0.0
 11
1115.568386965486
 21
1625.74738271848
 31
0.0
  0
LINE
  5
40A
330
15
100
AcDbEntity
  8
4
100
AcDbLine
 10
1137.507697194691
 20
1625.74738271848
 30
0.0
 11
1137.507697194691
 21
1615.884563629107
 31
0.0
  0
LINE
  5
40B
330
15
100
AcDbEntity
  8
4
100
AcDbLine
 10
1121.053214522788
 20
1615.884563629107
 30
0.0
 11
1121.053214522788
 21
1622.74738271848
 31
0.0
  0
LINE
  5
40C
330
15
100
AcDbEntity
  8
4
100
AcDbLine
 10
1132.022869637391
 20
1615.884563629107
 30
0.0
 11
1132.022869637391
 21
1622.74738271848
 31
0.0
  0
ARC
  5
40D
330
15
100
AcDbEntity
  8
4
100
AcDbCircle
 10
1126.538042080089
 20
1628.543126853657
 30
0.0
 40
13.7957441351769
100
AcDbArc
 50
246.5734024913725
 51
293.4265975086317
  0
LINE
  5
40E
330
15
100
AcDbEntity
  8
4
100
AcDbLine
 10
1134.765283416042
 20
1614.74738271848
 30
0.0
 11
1118.310800744137
 21
1614.74738271848
 31
0.0
  0
ARC
  5
40F
330
15
100
AcDbEntity
  8
4
100
AcDbCircle
 10
1118.310800744137
 20
1618.622761593759
 30
0.0
 40
3.875378875279244
100
AcDbArc
 50
224.9559267627428
 51
315.0440732372381
  0
ARC
  5
410
330
15
100
AcDbEntity
  8
4
100
AcDbCircle
 10
1134.765283416042
 20
1618.622761593759
 30
0.0
 40
3.875378875279264
100
AcDbArc
 50
224.9559267627428
 51
315.0440732372381
  0
LINE
  5
411
330
15
100
AcDbEntity
  8
4
100
AcDbLine
 10
1115.568386965486
 20
1625.74738271848
 30
0.0
 11
1137.507697194691
 21
1625.74738271848
 31
0.0
  0
LINE
  5
412
330
15
100
AcDbEntity
  8
4
100
AcDbLine
 10
1115.568386965486
 20
1622.74738271848
 30
0.0
 11
1137.507697194691
 21
1622.74738271848
 31
0.0
  0
LINE
  5
413
330
15
100
AcDbEntity
  8
4
100
AcDbLine
 10
1423.538042080089
 20
1725.647382718483
 30
0.0
 11
1539.538042080089
 21
1725.647382718483
 31
0.0
  0
LINE
  5
414
330
15
100
AcDbEntity
  8
4
100
AcDbLine
 10
1439.038042080089
 20
1747.147382718483
 30
0.0
 11
1541.538042080089
 21
1747.147382718483
 31
0.0
  0
LINE
  5
415
330
15
100
AcDbEntity
  8
4
100
AcDbLine
 10
1439.038042080089
 20
1762.147382718483
 30
0.0
 11
1541.538042080089
 21
1762.147382718483
 31
0.0
  0
LINE
  5
416
330
15
100
AcDbEntity
  8
4
100
AcDbLine
 10
1423.538042080089
 20
1783.647382718483
 30
0.0
 11
1539.538042080089
 21
1783.647382718483
 31
0.0
  0
ARC
  5
417
330
15
100
AcDbEntity
  8
4
100
AcDbCircle
 10
1423.538042080089
 20
1785.647382718483
 30
0.0
 40
2.0
100
AcDbArc
 50
180.0
 51
270.0
  0
ARC
  5
418
330
15
100
AcDbEntity
  8
4
100
AcDbCircle
 10
1423.538042080089
 20
1723.647382718483
 30
0.0
 40
2.0
100
AcDbArc
 50
90.0
 51
180.0
  0
ARC
  5
419
330
15
100
AcDbEntity
  8
4
100
AcDbCircle
 10
1439.038042080089
 20
1754.647382718483
 30
0.0
 40
7.5
100
AcDbArc
 50
90.0
 51
270.0
  0
LINE
  5
41A
330
15
100
AcDbEntity
  8
4
100
AcDbLine
 10
1421.538042080089
 20
1787.147382718483
 30
0.0
 11
1421.538042080089
 21
1722.147382718483
 31
0.0
  0
LINE
  5
41B
330
15
100
AcDbEntity
  8
4
100
AcDbLine
 10
1539.538042080089
 20
1783.647382718483
 30
0.0
 11
1541.538042080089
 21
1781.647382718483
 31
0.0
  0
LINE
  5
41C
330
15
100
AcDbEntity
  8
4
100
AcDbLine
 10
1539.538042080089
 20
1783.647382718483
 30
0.0
 11
1539.538042080089
 21
1762.147382718483
 31
0.0
  0
LINE
  5
41D
330
15
100
AcDbEntity
  8
4
100
AcDbLine
 10
1539.538042080089
 20
1725.647382718483
 30
0.0
 11
1541.538042080089
 21
1727.647382718483
 31
0.0
  0
LINE
  5
41E
330
15
100
AcDbEntity
  8
4
100
AcDbLine
 10
1539.538042080089
 20
1747.147382718483
 30
0.0
 11
1539.538042080089
 21
1725.647382718483
 31
0.0
  0
LINE
  5
41F
330
15
100
AcDbEntity
  8
4
100
AcDbLine
 10
1541.538042080089
 20
1781.647382718483
 30
0.0
 11
1541.538042080089
 21
1727.647382718483
 31
0.0
  0
LINE
  5
420
330
15
100
AcDbEntity
  8
4
100
AcDbLine
 10
1407.428046080088
 20
1787.147382718483
 30
0.0
 11
1421.538042080089
 21
1787.147382718483
 31
0.0
  0
LINE
  5
421
330
15
100
AcDbEntity
  8
4
100
AcDbLine
 10
1407.428046080088
 20
1722.147382718483
 30
0.0
 11
1421.538042080089
 21
1722.147382718483
 31
0.0
  0
CIRCLE
  5
437
330
15
100
AcDbEntity
  8
4
100
AcDbCircle
 10
727.1280420800895
 20
1812.647382718481
 30
0.0
 40
23.0
  0
LWPOLYLINE
  5
438
330
15
100
AcDbEntity
  8
4
100
AcDbPolyline
 90
        6
 70
     1
 43
0.0
 10
750.128042080089
 20
1812.647382718481
 10
738.628042080089
 20
1832.565967005522
 10
715.6280420800895
 20
1832.565967005522
 10
704.1280420800895
 20
1812.647382718481
 10
715.6280420800895
 20
1792.728798431438
 10
738.628042080089
 20
1792.728798431438
  0
LINE
  5
439
330
15
100
AcDbEntity
  8
4
100
AcDbLine
 10
967.128042080089
 20
1777.647382718481
 30
0.0
 11
967.128042080089
 21
1847.647382718481
 31
0.0
  0
LINE
  5
43A
330
15
100
AcDbEntity
  8
4
100
AcDbLine
 10
987.128042080089
 20
1777.647382718481
 30
0.0
 11
987.128042080089
 21
1847.647382718481
 31
0.0
  0
ARC
  5
43B
330
15
100
AcDbEntity
  8
4
100
AcDbCircle
 10
977.1280420800899
 20
1812.647382718481
 30
0.0
 40
20.0
100
AcDbArc
 50
119.9999999999999
 51
240.0000000000001
  0
ARC
  5
43C
330
15
100
AcDbEntity
  8
4
100
AcDbCircle
 10
977.1280420800899
 20
1812.647382718481
 30
0.0
 40
22.5
100
AcDbArc
 50
116.3877999612435
 51
243.6122000387572
  0
ARC
  5
43D
330
15
100
AcDbEntity
  8
4
100
AcDbCircle
 10
977.1280420800899
 20
1812.647382718481
 30
0.0
 40
22.5
100
AcDbArc
 50
296.3877999612425
 51
63.61220003875647
  0
ARC
  5
43E
330
15
100
AcDbEntity
  8
4
100
AcDbCircle
 10
977.1280420800899
 20
1812.647382718481
 30
0.0
 40
20.0
100
AcDbArc
 50
299.9999999999998
 51
60.00000000000011
  0
ARC
  5
43F
330
15
100
AcDbEntity
  8
4
100
AcDbCircle
 10
977.1280420800899
 20
1777.647382718481
 30
0.0
 40
10.0
100
AcDbArc
 50
180.0
 51
0.0
  0
ARC
  5
440
330
15
100
AcDbEntity
  8
4
100
AcDbCircle
 10
977.1280420800899
 20
1847.647382718481
 30
0.0
 40
10.0
100
AcDbArc
 50
0.0
 51
180.0
  0
LINE
  5
441
330
15
100
AcDbEntity
  8
4
100
AcDbLine
 10
954.6280400800883
 20
793.0159324552396
 30
0.0
 11
967.6280400800883
 21
793.0159324552396
 31
0.0
  0
LINE
  5
442
330
15
100
AcDbEntity
  8
4
100
AcDbLine
 10
962.6280400800883
 20
785.0159324552396
 30
0.0
 11
967.6280400800883
 21
785.0159324552396
 31
0.0
  0
LINE
  5
443
330
15
100
AcDbEntity
  8
4
100
AcDbLine
 10
962.6280400800883
 20
753.0159324552401
 30
0.0
 11
967.6280400800883
 21
753.0159324552401
 31
0.0
  0
LINE
  5
444
330
15
100
AcDbEntity
  8
4
100
AcDbLine
 10
954.6280400800883
 20
745.0159324552401
 30
0.0
 11
967.6280400800883
 21
745.0159324552401
 31
0.0
  0
LINE
  5
445
330
15
100
AcDbEntity
  8
4
100
AcDbLine
 10
924.6280400800883
 20
739.0159324552401
 30
0.0
 11
1029.628040080088
 21
739.0159324552401
 31
0.0
  0
LINE
  5
446
330
15
100
AcDbEntity
  8
4
100
AcDbLine
 10
924.6280400800883
 20
799.0159324552401
 30
0.0
 11
1029.628040080088
 21
799.0159324552401
 31
0.0
  0
ARC
  5
447
330
15
100
AcDbEntity
  8
4
100
AcDbCircle
 10
924.6280400800883
 20
794.0159324552401
 30
0.0
 40
5.0
100
AcDbArc
 50
90.0
 51
180.0
  0
LINE
  5
448
330
15
100
AcDbEntity
  8
4
100
AcDbLine
 10
924.6280400800883
 20
793.0159324552396
 30
0.0
 11
932.6280400800883
 21
793.0159324552396
 31
0.0
  0
LINE
  5
449
330
15
100
AcDbEntity
  8
4
100
AcDbLine
 10
949.6280400800883
 20
745.0159324552401
 30
0.0
 11
949.6280400800883
 21
753.0159324552401
 31
0.0
  0
LINE
  5
44A
330
15
100
AcDbEntity
  8
4
100
AcDbLine
 10
932.6280400800883
 20
753.0159324552401
 30
0.0
 11
949.6280400800883
 21
753.0159324552401
 31
0.0
  0
LINE
  5
44B
330
15
100
AcDbEntity
  8
4
100
AcDbLine
 10
924.6280400800883
 20
745.0159324552401
 30
0.0
 11
949.6280400800883
 21
745.0159324552401
 31
0.0
  0
ARC
  5
44C
330
15
100
AcDbEntity
  8
4
100
AcDbCircle
 10
924.6280400800883
 20
744.0159324552401
 30
0.0
 40
5.0
100
AcDbArc
 50
180.0
 51
270.0
  0
LINE
  5
44D
330
15
100
AcDbEntity
  8
4
100
AcDbLine
 10
962.6280400800883
 20
753.0159324552401
 30
0.0
 11
962.6280400800883
 21
785.0159324552396
 31
0.0
  0
LINE
  5
44E
330
15
100
AcDbEntity
  8
4
100
AcDbLine
 10
919.6280400800883
 20
744.0159324552401
 30
0.0
 11
919.6280400800883
 21
794.0159324552401
 31
0.0
  0
LINE
  5
44F
330
15
100
AcDbEntity
  8
4
100
AcDbLine
 10
924.6280400800883
 20
745.0159324552401
 30
0.0
 11
924.6280400800883
 21
793.0159324552396
 31
0.0
  0
LINE
  5
450
330
15
100
AcDbEntity
  8
4
100
AcDbLine
 10
932.6280400800883
 20
753.0159324552401
 30
0.0
 11
932.6280400800883
 21
793.0159324552396
 31
0.0
  0
LINE
  5
451
330
15
100
AcDbEntity
  8
4
100
AcDbLine
 10
954.6280400800883
 20
745.0159324552401
 30
0.0
 11
954.6280400800883
 21
793.0159324552396
 31
0.0
  0
ARC
  5
452
330
15
100
AcDbEntity
  8
4
100
AcDbCircle
 10
1029.628040080088
 20
794.0159324552401
 30
0.0
 40
5.0
100
AcDbArc
 50
0.0
 51
90.0
  0
LINE
  5
453
330
15
100
AcDbEntity
  8
4
100
AcDbLine
 10
1014.628040080088
 20
793.0159324552401
 30
0.0
 11
1019.628040080088
 21
793.0159324552401
 31
0.0
  0
LINE
  5
454
330
15
100
AcDbEntity
  8
4
100
AcDbLine
 10
1029.628040080088
 20
755.0159324552401
 30
0.0
 11
1029.628040080088
 21
783.0159324552401
 31
0.0
  0
LINE
  5
455
330
15
100
AcDbEntity
  8
4
100
AcDbLine
 10
1014.628040080088
 20
765.0159324552401
 30
0.0
 11
1017.128040080088
 21
765.0159324552401
 31
0.0
  0
LINE
  5
456
330
15
100
AcDbEntity
  8
4
100
AcDbLine
 10
1014.628040080088
 20
745.0159324552401
 30
0.0
 11
1019.628040080088
 21
745.0159324552401
 31
0.0
  0
LINE
  5
457
330
15
100
AcDbEntity
  8
4
100
AcDbLine
 10
1012.628040080088
 20
755.0159324552401
 30
0.0
 11
1012.628040080088
 21
757.0159324552401
 31
0.0
  0
LINE
  5
458
330
15
100
AcDbEntity
  8
4
100
AcDbLine
 10
1021.628040080088
 20
755.0159324552401
 30
0.0
 11
1021.628040080088
 21
765.8540286655498
 31
0.0
  0
ARC
  5
459
330
15
100
AcDbEntity
  8
4
100
AcDbCircle
 10
1014.628040080088
 20
755.0159324552401
 30
0.0
 40
2.0
100
AcDbArc
 50
180.0
 51
270.0
  0
ARC
  5
45A
330
15
100
AcDbEntity
  8
4
100
AcDbCircle
 10
1019.628040080088
 20
755.0159324552401
 30
0.0
 40
2.0
100
AcDbArc
 50
270.0
 51
0.0
  0
LINE
  5
45B
330
15
100
AcDbEntity
  8
4
100
AcDbLine
 10
1014.628040080088
 20
753.0159324552401
 30
0.0
 11
1019.628040080088
 21
753.0159324552401
 31
0.0
  0
LINE
  5
45C
330
15
100
AcDbEntity
  8
4
100
AcDbLine
 10
1012.628040080088
 20
777.5159324552401
 30
0.0
 11
1012.628040080088
 21
780.5159324552401
 31
0.0
  0
LINE
  5
45D
330
15
100
AcDbEntity
  8
4
100
AcDbLine
 10
1021.628040080088
 20
777.5159324552401
 30
0.0
 11
1021.628040080088
 21
780.5159324552401
 31
0.0
  0
ARC
  5
45E
330
15
100
AcDbEntity
  8
4
100
AcDbCircle
 10
1017.128040080088
 20
777.5159324552401
 30
0.0
 40
4.5
100
AcDbArc
 50
180.0
 51
0.0
  0
ARC
  5
45F
330
15
100
AcDbEntity
  8
4
100
AcDbCircle
 10
1017.128040080088
 20
777.5159324552401
 30
0.0
 40
12.5
100
AcDbArc
 50
270.0
 51
291.1001960240931
  0
LINE
  5
460
330
15
100
AcDbEntity
  8
4
100
AcDbLine
 10
999.6280400800883
 20
766.5159324552396
 30
0.0
 11
999.6280400800883
 21
771.5159324552396
 31
0.0
  0
LINE
  5
461
330
15
100
AcDbEntity
  8
4
100
AcDbLine
 10
984.6280400800883
 20
766.5159324552396
 30
0.0
 11
984.6280400800883
 21
771.5159324552396
 31
0.0
  0
LINE
  5
462
330
15
100
AcDbEntity
  8
4
100
AcDbLine
 10
984.6280400800883
 20
771.5159324552396
 30
0.0
 11
999.6280400800883
 21
771.5159324552396
 31
0.0
  0
LINE
  5
463
330
15
100
AcDbEntity
  8
4
100
AcDbLine
 10
984.6280400800883
 20
766.5159324552396
 30
0.0
 11
999.6280400800883
 21
766.5159324552396
 31
0.0
  0
LINE
  5
464
330
15
100
AcDbEntity
  8
4
100
AcDbLine
 10
1004.628040080088
 20
755.0159324552401
 30
0.0
 11
1004.628040080088
 21
757.0159324552401
 31
0.0
  0
LINE
  5
465
330
15
100
AcDbEntity
  8
4
100
AcDbLine
 10
1004.628040080088
 20
775.0159324552401
 30
0.0
 11
1004.628040080088
 21
783.0159324552401
 31
0.0
  0
LINE
  5
466
330
15
100
AcDbEntity
  8
4
100
AcDbLine
 10
1004.628040080088
 20
757.0159324552401
 30
0.0
 11
1012.628040080088
 21
757.0159324552401
 31
0.0
  0
ARC
  5
467
330
15
100
AcDbEntity
  8
4
100
AcDbCircle
 10
1014.628040080088
 20
775.0159324552401
 30
0.0
 40
10.0
100
AcDbArc
 50
180.0
 51
270.0
  0
ARC
  5
468
330
15
100
AcDbEntity
  8
4
100
AcDbCircle
 10
1029.628040080088
 20
744.0159324552401
 30
0.0
 40
5.0
100
AcDbArc
 50
270.0
 51
0.0
  0
ARC
  5
469
330
15
100
AcDbEntity
  8
4
100
AcDbCircle
 10
1014.628040080088
 20
755.0159324552401
 30
0.0
 40
10.0
100
AcDbArc
 50
180.0
 51
270.0
  0
ARC
  5
46A
330
15
100
AcDbEntity
  8
4
100
AcDbCircle
 10
1019.628040080088
 20
755.0159324552401
 30
0.0
 40
10.0
100
AcDbArc
 50
270.0
 51
0.0
  0
LINE
  5
46B
330
15
100
AcDbEntity
  8
4
100
AcDbLine
 10
1034.628040080088
 20
744.0159324552401
 30
0.0
 11
1034.628040080088
 21
794.0159324552401
 31
0.0
  0
ARC
  5
46C
330
15
100
AcDbEntity
  8
4
100
AcDbCircle
 10
1017.128040080088
 20
780.5159324552401
 30
0.0
 40
4.5
100
AcDbArc
 50
0.0
 51
180.0
  0
ARC
  5
46D
330
15
100
AcDbEntity
  8
4
100
AcDbCircle
 10
1014.628040080088
 20
783.0159324552401
 30
0.0
 40
10.0
100
AcDbArc
 50
90.0
 51
180.0
  0
ARC
  5
46E
330
15
100
AcDbEntity
  8
4
100
AcDbCircle
 10
1019.628040080088
 20
783.0159324552401
 30
0.0
 40
10.0
100
AcDbArc
 50
0.0
 51
90.0
  0
LINE
  5
46F
330
15
100
AcDbEntity
  8
4
100
AcDbLine
 10
979.6280400800883
 20
757.0159324552401
 30
0.0
 11
979.6280400800883
 21
781.0159324552396
 31
0.0
  0
LINE
  5
470
330
15
100
AcDbEntity
  8
4
100
AcDbLine
 10
971.6280400800883
 20
757.0159324552401
 30
0.0
 11
971.6280400800883
 21
781.0159324552396
 31
0.0
  0
ARC
  5
471
330
15
100
AcDbEntity
  8
4
100
AcDbCircle
 10
967.6280400800883
 20
757.0159324552401
 30
0.0
 40
4.0
100
AcDbArc
 50
270.0
 51
0.0
  0
ARC
  5
472
330
15
100
AcDbEntity
  8
4
100
AcDbCircle
 10
967.6280400800883
 20
781.0159324552396
 30
0.0
 40
4.0
100
AcDbArc
 50
0.0
 51
90.0
  0
ARC
  5
473
330
15
100
AcDbEntity
  8
4
100
AcDbCircle
 10
967.6280400800883
 20
757.0159324552401
 30
0.0
 40
12.0
100
AcDbArc
 50
270.0
 51
0.0
  0
ARC
  5
474
330
15
100
AcDbEntity
  8
4
100
AcDbCircle
 10
967.6280400800883
 20
781.0159324552396
 30
0.0
 40
12.0
100
AcDbArc
 50
0.0
 51
90.0
  0
ARC
  5
5D3
330
15
100
AcDbEntity
  8
4
100
AcDbCircle
 10
717.5380420800893
 20
1626.747382718482
 30
0.0
 40
1.0
100
AcDbArc
 50
180.0
 51
270.0
  0
ARC
  5
5D4
330
15
100
AcDbEntity
  8
4
100
AcDbCircle
 10
995.5380420800889
 20
1626.747382718482
 30
0.0
 40
1.0
100
AcDbArc
 50
270.0
 51
0.0
  0
ARC
  5
5D5
330
15
100
AcDbEntity
  8
4
100
AcDbCircle
 10
1017.538042080089
 20
1626.747382718481
 30
0.0
 40
1.0
100
AcDbArc
 50
180.0
 51
270.0
  0
ARC
  5
5D6
330
15
100
AcDbEntity
  8
4
100
AcDbCircle
 10
1235.538042080089
 20
1626.747382718481
 30
0.0
 40
1.0
100
AcDbArc
 50
270.0
 51
0.0
  0
ARC
  5
5D7
330
15
100
AcDbEntity
  8
4
100
AcDbCircle
 10
2168.805448206547
 20
629.5159294552404
 30
0.0
 40
1.0
100
AcDbArc
 50
90.0
 51
180.0
  0
ARC
  5
5D8
330
15
100
AcDbEntity
  8
4
100
AcDbCircle
 10
2168.805448206547
 20
639.5159334552404
 30
0.0
 40
1.0
100
AcDbArc
 50
90.0
 51
180.0
  0
ARC
  5
5D9
330
15
100
AcDbEntity
  8
4
100
AcDbCircle
 10
2168.805448206547
 20
411.5159324552405
 30
0.0
 40
1.0
100
AcDbArc
 50
180.0
 51
270.0
  0
ARC
  5
5DA
330
15
100
AcDbEntity
  8
4
100
AcDbCircle
 10
2168.805448206547
 20
361.5159334552404
 30
0.0
 40
1.0
100
AcDbArc
 50
180.0
 51
270.0
  0
ARC
  5
5DB
330
15
100
AcDbEntity
  8
4
100
AcDbCircle
 10
2540.605452206548
 20
629.5159294552404
 30
0.0
 40
1.0
100
AcDbArc
 50
0.0
 51
90.0
  0
ARC
  5
5DC
330
15
100
AcDbEntity
  8
4
100
AcDbCircle
 10
2540.605452206548
 20
639.5159334552404
 30
0.0
 40
1.0
100
AcDbArc
 50
0.0
 51
90.0
  0
ARC
  5
5DD
330
15
100
AcDbEntity
  8
4
100
AcDbCircle
 10
2540.605452206548
 20
411.5159324552405
 30
0.0
 40
1.0
100
AcDbArc
 50
270.0
 51
0.0
  0
ARC
  5
5DE
330
15
100
AcDbEntity
  8
4
100
AcDbCircle
 10
2540.605452206548
 20
361.5159334552404
 30
0.0
 40
1.0
100
AcDbArc
 50
270.0
 51
0.0
  0
ARC
  5
5DF
330
15
100
AcDbEntity
  8
4
100
AcDbCircle
 10
1365.128042080089
 20
1969.947382718482
 30
0.0
 40
2.0
100
AcDbArc
 50
0.0
 51
90.0
  0
ARC
  5
5E0
330
15
100
AcDbEntity
  8
4
100
AcDbCircle
 10
589.128042080089
 20
1969.947382718482
 30
0.0
 40
2.0
100
AcDbArc
 50
90.0
 51
180.0
  0
ARC
  5
5E1
330
15
100
AcDbEntity
  8
4
100
AcDbCircle
 10
1235.538042080089
 20
1998.847382718482
 30
0.0
 40
1.0
100
AcDbArc
 50
0.0
 51
90.0
  0
ARC
  5
5E2
330
15
100
AcDbEntity
  8
4
100
AcDbCircle
 10
1017.538042080089
 20
1998.847382718482
 30
0.0
 40
1.0
100
AcDbArc
 50
90.0
 51
180.0
  0
ARC
  5
5E3
330
15
100
AcDbEntity
  8
4
100
AcDbCircle
 10
995.5380420800889
 20
1998.847382718482
 30
0.0
 40
1.0
100
AcDbArc
 50
0.0
 51
90.0
  0
ARC
  5
5E4
330
15
100
AcDbEntity
  8
4
100
AcDbCircle
 10
717.5380420800893
 20
1998.847382718482
 30
0.0
 40
1.0
100
AcDbArc
 50
90.0
 51
180.0
  0
ARC
  5
5E5
330
15
100
AcDbEntity
  8
4
100
AcDbCircle
 10
1991.705456206546
 20
270.5159324552405
 30
0.0
 40
400.000069
100
AcDbArc
 50
348.0924590000001
 51
11.90700599999996
  0
ARC
  5
5E6
330
15
100
AcDbEntity
  8
4
100
AcDbCircle
 10
2378.205941206547
 20
189.0152054552404
 30
0.0
 40
4.999939
100
AcDbArc
 50
281.908538999995
 51
348.0914609999994
  0
ARC
  5
5E7
330
15
100
AcDbEntity
  8
4
100
AcDbCircle
 10
2378.205941206547
 20
352.0166664552407
 30
0.0
 40
4.999939
100
AcDbArc
 50
11.9085389999945
 51
78.09146100000497
  0
LINE
  5
5E8
330
15
100
AcDbEntity
  8
4
100
AcDbLine
 10
1388.128035080089
 20
180.5159324552405
 30
0.0
 11
1383.128035080089
 21
175.5159324552405
 31
0.0
  0
LINE
  5
5E9
330
15
100
AcDbEntity
  8
4
100
AcDbLine
 10
1388.128035080089
 20
360.5159324552405
 30
0.0
 11
1383.128035080089
 21
365.5159324552405
 31
0.0
  0
LINE
  5
5EA
330
15
100
AcDbEntity
  8
4
100
AcDbLine
 10
566.1280490800887
 20
180.5159324552405
 30
0.0
 11
571.1280490800887
 21
175.5159324552405
 31
0.0
  0
LINE
  5
5EB
330
15
100
AcDbEntity
  8
4
100
AcDbLine
 10
566.1280490800887
 20
360.5159324552405
 30
0.0
 11
571.1280490800887
 21
365.5159324552405
 31
0.0
  0
LINE
  5
610
330
15
100
AcDbEntity
  8
L-CENTER
 48
2.0
100
AcDbLine
 10
1424.774524515909
 20
208.6440891014176
 30
0.0
 11
1365.486372367599
 21
208.6440891014176
 31
0.0
  0
LINE
  5
611
330
15
100
AcDbEntity
  8
L-CENTER
 48
2.0
100
AcDbLine
 10
529.4815596442688
 20
332.3877758090634
 30
0.0
 11
588.7697117925791
 21
332.3877758090634
 31
0.0
  0
LINE
  5
612
330
15
100
AcDbEntity
  8
L-CENTER
 48
2.0
100
AcDbLine
 10
529.4815596442688
 20
208.6440891014176
 30
0.0
 11
588.7697117925791
 21
208.6440891014176
 31
0.0
  0
LINE
  5
613
330
15
100
AcDbEntity
  8
L-CENTER
 48
2.0
100
AcDbLine
 10
1424.774524515909
 20
1816.519226072304
 30
0.0
 11
1365.486372367599
 21
1816.519226072304
 31
0.0
  0
LINE
  5
614
330
15
100
AcDbEntity
  8
L-CENTER
 48
2.0
100
AcDbLine
 10
1424.774524515909
 20
1692.775539364658
 30
0.0
 11
1365.486372367599
 21
1692.775539364658
 31
0.0
  0
LINE
  5
615
330
15
100
AcDbEntity
  8
L-CENTER
 48
2.0
100
AcDbLine
 10
529.4815596442688
 20
1816.519226072304
 30
0.0
 11
588.7697117925791
 21
1816.519226072304
 31
0.0
  0
LINE
  5
616
330
15
100
AcDbEntity
  8
L-CENTER
 48
2.0
100
AcDbLine
 10
529.4815596442688
 20
1692.775539364658
 30
0.0
 11
588.7697117925791
 21
1692.775539364658
 31
0.0
  0
LINE
  5
6E7
330
15
100
AcDbEntity
  8
4
100
AcDbLine
 10
842.8699880800891
 20
562.0159314552402
 30
0.0
 11
842.8699880800891
 21
544.0159354552407
 31
0.0
  0
LINE
  5
6E8
330
15
100
AcDbEntity
  8
4
100
AcDbLine
 10
870.8699880800891
 20
562.0159314552402
 30
0.0
 11
870.8699880800891
 21
544.0159354552407
 31
0.0
  0
ARC
  5
6E9
330
15
100
AcDbEntity
  8
4
100
AcDbCircle
 10
856.8699880800891
 20
500.5159334552404
 30
0.0
 40
52.500014
100
AcDbArc
 50
105.4660057259743
 51
74.53399500000012
  0
LINE
  5
6EA
330
15
100
AcDbEntity
  8
4
100
AcDbLine
 10
870.8699880800891
 20
544.0159354552407
 30
0.0
 11
842.8699880800891
 21
544.0159354552407
 31
0.0
  0
LINE
  5
6EB
330
15
100
AcDbEntity
  8
4
100
AcDbLine
 10
842.8699880800891
 20
562.0159314552402
 30
0.0
 11
870.8699880800891
 21
562.0159314552402
 31
0.0
  0
CIRCLE
  5
6EC
330
15
100
AcDbEntity
  8
4
100
AcDbCircle
 10
856.8699880800891
 20
500.5159334552404
 30
0.0
 40
70.0
  0
LINE
  5
6ED
330
15
100
AcDbEntity
  8
4
100
AcDbLine
 10
2166.805449206548
 20
451.4858877913712
 30
0.0
 11
2166.805449206548
 21
464.5461289111131
 31
0.0
  0
LINE
  5
6EE
330
15
100
AcDbEntity
  8
4
100
AcDbLine
 10
2152.705449206549
 20
445.5159324552405
 30
0.0
 11
2152.705449206549
 21
555.5159344552403
 31
0.0
  0
LINE
  5
6EF
330
15
100
AcDbEntity
  8
4
100
AcDbLine
 10
1974.705452206549
 20
553.0159334552404
 30
0.0
 11
1974.705452206549
 21
448.0159334552404
 31
0.0
  0
LINE
  5
6F0
330
15
100
AcDbEntity
  8
4
100
AcDbLine
 10
1972.705454206548
 20
450.0159314552402
 30
0.0
 11
1972.705454206548
 21
562.0159314552402
 31
0.0
  0
LINE
  5
6F1
330
15
100
AcDbEntity
  8
4
100
AcDbLine
 10
2152.705449206549
 20
448.0159334552404
 30
0.0
 11
1974.705452206549
 21
448.0159334552404
 31
0.0
  0
LINE
  5
6F2
330
15
100
AcDbEntity
  8
4
100
AcDbLine
 10
2156.805448206549
 20
445.5159324552405
 30
0.0
 11
2152.705449206549
 21
445.5159324552405
 31
0.0
  0
LINE
  5
6F3
330
15
100
AcDbEntity
  8
4
100
AcDbLine
 10
1972.705454206548
 20
450.0159314552402
 30
0.0
 11
1974.705452206549
 21
448.0159334552404
 31
0.0
  0
LINE
  5
6F4
330
15
100
AcDbEntity
  8
4
100
AcDbLine
 10
1972.705454206548
 20
562.0159314552402
 30
0.0
 11
2142.705452206549
 21
562.0159314552402
 31
0.0
  0
LINE
  5
6F5
330
15
100
AcDbEntity
  8
4
100
AcDbLine
 10
2156.805448206549
 20
555.5159344552403
 30
0.0
 11
2152.705449206549
 21
555.5159344552403
 31
0.0
  0
LINE
  5
6F6
330
15
100
AcDbEntity
  8
4
100
AcDbLine
 10
2142.705452206549
 20
553.0159334552404
 30
0.0
 11
2142.705452206549
 21
562.0159314552402
 31
0.0
  0
LINE
  5
6F7
330
15
100
AcDbEntity
  8
4
100
AcDbLine
 10
1974.705452206549
 20
553.0159334552404
 30
0.0
 11
1972.705454206548
 21
551.0159354552407
 31
0.0
  0
LINE
  5
6F9
330
15
100
AcDbEntity
  8
4
100
AcDbLine
 10
2152.705449206549
 20
553.0159334552404
 30
0.0
 11
1974.705452206549
 21
553.0159334552404
 31
0.0
  0
LINE
  5
711
330
15
100
AcDbEntity
  8
4
100
AcDbLine
 10
2166.805449206548
 20
486.4854391403192
 30
0.0
 11
2166.805449206548
 21
549.54658050133
 31
0.0
  0
LINE
  5
712
330
15
100
AcDbEntity
  8
4
100
AcDbLine
 10
804.0380420800889
 20
1432.647382718481
 30
0.0
 11
842.5380420800889
 21
1432.647382718481
 31
0.0
  0
LINE
  5
713
330
15
100
AcDbEntity
  8
4
100
AcDbLine
 10
806.0380420800889
 20
1430.647382718481
 30
0.0
 11
907.0380420800889
 21
1430.647382718481
 31
0.0
  0
LINE
  5
714
330
15
100
AcDbEntity
  8
4
100
AcDbLine
 10
801.5380420800889
 20
1610.647382718481
 30
0.0
 11
911.5380420800889
 21
1610.647382718481
 31
0.0
  0
ARC
  5
715
330
15
100
AcDbEntity
  8
4
100
AcDbCircle
 10
911.5380420800898
 20
1608.147382718481
 30
0.0
 40
2.5
100
AcDbArc
 50
90.0
 51
180.0
  0
LINE
  5
716
330
15
100
AcDbEntity
  8
4
100
AcDbLine
 10
842.5380420800889
 20
1430.647382718481
 30
0.0
 11
842.5380420800889
 21
1586.647382718481
 31
0.0
  0
LINE
  5
717
330
15
100
AcDbEntity
  8
4
100
AcDbLine
 10
909.0380420800889
 20
1432.647382718481
 30
0.0
 11
909.0380420800889
 21
1608.147382718481
 31
0.0
  0
LINE
  5
718
330
15
100
AcDbEntity
  8
4
100
AcDbLine
 10
870.5380420800889
 20
1430.647382718481
 30
0.0
 11
870.5380420800889
 21
1586.647382718481
 31
0.0
  0
LINE
  5
719
330
15
100
AcDbEntity
  8
4
100
AcDbLine
 10
856.5380420800889
 20
1600.647382718481
 30
0.0
 11
856.5380420800889
 21
1600.647382718481
 31
0.0
  0
ARC
  5
71A
330
15
100
AcDbEntity
  8
4
100
AcDbCircle
 10
856.5380420800898
 20
1586.647382718481
 30
0.0
 40
14.0
100
AcDbArc
 50
90.0
 51
180.0
  0
ARC
  5
71B
330
15
100
AcDbEntity
  8
4
100
AcDbCircle
 10
856.5380420800898
 20
1586.647382718481
 30
0.0
 40
14.0
100
AcDbArc
 50
0.0
 51
90.0
  0
LINE
  5
71C
330
15
100
AcDbEntity
  8
4
100
AcDbLine
 10
907.0380420800889
 20
1430.647382718481
 30
0.0
 11
909.0380420800889
 21
1432.647382718481
 31
0.0
  0
LINE
  5
71D
330
15
100
AcDbEntity
  8
4
100
AcDbLine
 10
870.5380420800889
 20
1432.647382718481
 30
0.0
 11
909.0380420800889
 21
1432.647382718481
 31
0.0
  0
ARC
  5
71E
330
15
100
AcDbEntity
  8
4
100
AcDbCircle
 10
801.5380420800898
 20
1608.147382718481
 30
0.0
 40
2.5
100
AcDbArc
 50
0.0
 51
90.0
  0
LINE
  5
71F
330
15
100
AcDbEntity
  8
4
100
AcDbLine
 10
804.0380420800889
 20
1432.647382718481
 30
0.0
 11
804.0380420800889
 21
1608.147382718481
 31
0.0
  0
LINE
  5
720
330
15
100
AcDbEntity
  8
4
100
AcDbLine
 10
804.0380420800889
 20
1432.647382718481
 30
0.0
 11
806.0380420800889
 21
1430.647382718481
 31
0.0
  0
LINE
  5
721
330
15
100
AcDbEntity
  8
4
100
AcDbLine
 10
801.5380420800889
 20
1610.647382718481
 30
0.0
 11
801.5380420800889
 21
1624.74738271848
 31
0.0
  0
LINE
  5
722
330
15
100
AcDbEntity
  8
4
100
AcDbLine
 10
911.5380420800889
 20
1610.647382718481
 30
0.0
 11
911.5380420800898
 21
1624.74738271848
 31
0.0
  0
LINE
  5
723
330
15
100
AcDbEntity
  8
4
100
AcDbLine
 10
786.5380420800898
 20
1625.74738271848
 30
0.0
 11
786.5380420800898
 21
1624.74738271848
 31
0.0
  0
LINE
  5
724
330
15
100
AcDbEntity
  8
4
100
AcDbLine
 10
926.5380420800898
 20
1625.74738271848
 30
0.0
 11
926.5380420800898
 21
1624.74738271848
 31
0.0
  0
LINE
  5
725
330
15
100
AcDbEntity
  8
4
100
AcDbLine
 10
786.5380420800898
 20
1624.74738271848
 30
0.0
 11
845.5683869654863
 21
1624.74738271848
 31
0.0
  0
LINE
  5
726
330
15
100
AcDbEntity
  8
4
100
AcDbLine
 10
867.5076971946914
 20
1624.74738271848
 30
0.0
 11
926.5380420800889
 21
1624.74738271848
 31
0.0
  0
LINE
  5
72B
330
15
100
AcDbEntity
  8
4
100
AcDbLine
 10
523.1280480800892
 20
304.5159334552404
 30
0.0
 11
413.1280460800886
 21
304.5159334552404
 31
0.0
  0
LINE
  5
72C
330
15
100
AcDbEntity
  8
4
100
AcDbLine
 10
533.1280450800882
 20
299.5159314552402
 30
0.0
 11
415.1280440800888
 21
299.5159314552402
 31
0.0
  0
LINE
  5
72D
330
15
100
AcDbEntity
  8
4
100
AcDbLine
 10
533.1280450800882
 20
241.5159334552404
 30
0.0
 11
415.1280440800888
 21
241.5159334552404
 31
0.0
  0
LINE
  5
72E
330
15
100
AcDbEntity
  8
4
100
AcDbLine
 10
533.1280450800882
 20
238.0159334552404
 30
0.0
 11
533.1280450800882
 21
303.0159314552402
 31
0.0
  0
LINE
  5
72F
330
15
100
AcDbEntity
  8
4
100
AcDbLine
 10
546.8280440800881
 20
315.5159364552405
 30
0.0
 11
546.8280440800881
 21
225.5159354552407
 31
0.0
  0
LINE
  5
730
330
15
100
AcDbEntity
  8
4
100
AcDbLine
 10
546.8280440800881
 20
238.0159334552404
 30
0.0
 11
533.1280450800882
 21
238.0159334552404
 31
0.0
  0
LINE
  5
731
330
15
100
AcDbEntity
  8
4
100
AcDbLine
 10
523.1280480800892
 20
304.5159334552404
 30
0.0
 11
523.1280480800892
 21
299.5159314552402
 31
0.0
  0
LINE
  5
732
330
15
100
AcDbEntity
  8
4
100
AcDbLine
 10
546.8280440800881
 20
315.5159364552405
 30
0.0
 11
547.8280430800887
 21
315.5159364552405
 31
0.0
  0
LINE
  5
733
330
15
100
AcDbEntity
  8
4
100
AcDbLine
 10
546.8280440800881
 20
303.0159314552402
 30
0.0
 11
533.1280450800882
 21
303.0159314552402
 31
0.0
  0
LINE
  5
734
330
15
100
AcDbEntity
  8
4
100
AcDbLine
 10
413.1280460800886
 20
243.5159384552403
 30
0.0
 11
413.1280460800886
 21
304.5159334552404
 31
0.0
  0
LINE
  5
735
330
15
100
AcDbEntity
  8
4
100
AcDbLine
 10
415.1280440800888
 20
299.5159314552402
 30
0.0
 11
415.1280440800888
 21
241.5159334552404
 31
0.0
  0
LINE
  5
736
330
15
100
AcDbEntity
  8
4
100
AcDbLine
 10
413.1280460800886
 20
243.5159384552403
 30
0.0
 11
415.1280440800888
 21
241.5159334552404
 31
0.0
  0
LINE
  5
737
330
15
100
AcDbEntity
  8
4
100
AcDbLine
 10
415.1280440800888
 20
299.5159314552402
 30
0.0
 11
413.1280460800886
 21
297.5159334552404
 31
0.0
  0
LINE
  5
738
330
15
100
AcDbEntity
  8
4
100
AcDbLine
 10
546.8280440800881
 20
225.5159284552406
 30
0.0
 11
547.8280430800887
 21
225.5159284552406
 31
0.0
  0
LINE
  5
74F
330
15
100
AcDbEntity
  8
4
100
AcDbLine
 10
547.8280380800898
 20
1799.647382718481
 30
0.0
 11
546.8280380800898
 21
1799.647382718481
 31
0.0
  0
LINE
  5
750
330
15
100
AcDbEntity
  8
4
100
AcDbLine
 10
547.8280380800898
 20
1709.647382718481
 30
0.0
 11
546.8280380800898
 21
1709.647382718481
 31
0.0
  0
LINE
  5
751
330
15
100
AcDbEntity
  8
4
100
AcDbLine
 10
546.8280380800898
 20
1709.647382718481
 30
0.0
 11
546.8280380800898
 21
1799.647382718481
 31
0.0
  0
LINE
  5
752
330
15
100
AcDbEntity
  8
4
100
AcDbLine
 10
530.7180420800892
 20
1725.647382718483
 30
0.0
 11
414.7180420800892
 21
1725.647382718483
 31
0.0
  0
LINE
  5
753
330
15
100
AcDbEntity
  8
4
100
AcDbLine
 10
515.2180420800892
 20
1747.147382718483
 30
0.0
 11
412.7180420800892
 21
1747.147382718483
 31
0.0
  0
LINE
  5
754
330
15
100
AcDbEntity
  8
4
100
AcDbLine
 10
515.2180420800892
 20
1762.147382718483
 30
0.0
 11
412.7180420800892
 21
1762.147382718483
 31
0.0
  0
LINE
  5
755
330
15
100
AcDbEntity
  8
4
100
AcDbLine
 10
530.7180420800892
 20
1783.647382718483
 30
0.0
 11
414.7180420800892
 21
1783.647382718483
 31
0.0
  0
ARC
  5
756
330
15
100
AcDbEntity
  8
4
100
AcDbCircle
 10
530.7180420800892
 20
1785.647382718483
 30
0.0
 40
2.0
100
AcDbArc
 50
270.0
 51
0.0
  0
ARC
  5
757
330
15
100
AcDbEntity
  8
4
100
AcDbCircle
 10
530.7180420800892
 20
1723.647382718483
 30
0.0
 40
2.0
100
AcDbArc
 50
0.0
 51
90.0
  0
ARC
  5
758
330
15
100
AcDbEntity
  8
4
100
AcDbCircle
 10
515.2180420800892
 20
1754.647382718483
 30
0.0
 40
7.5
100
AcDbArc
 50
270.0
 51
90.0
  0
LINE
  5
759
330
15
100
AcDbEntity
  8
4
100
AcDbLine
 10
532.7180420800892
 20
1787.147382718483
 30
0.0
 11
532.7180420800892
 21
1722.147382718483
 31
0.0
  0
LINE
  5
75A
330
15
100
AcDbEntity
  8
4
100
AcDbLine
 10
414.7180420800892
 20
1783.647382718483
 30
0.0
 11
412.7180420800892
 21
1781.647382718483
 31
0.0
  0
LINE
  5
75B
330
15
100
AcDbEntity
  8
4
100
AcDbLine
 10
414.7180420800892
 20
1783.647382718483
 30
0.0
 11
414.7180420800892
 21
1762.147382718483
 31
0.0
  0
LINE
  5
75C
330
15
100
AcDbEntity
  8
4
100
AcDbLine
 10
414.7180420800892
 20
1725.647382718483
 30
0.0
 11
412.7180420800892
 21
1727.647382718483
 31
0.0
  0
LINE
  5
75D
330
15
100
AcDbEntity
  8
4
100
AcDbLine
 10
414.7180420800892
 20
1747.147382718483
 30
0.0
 11
414.7180420800892
 21
1725.647382718483
 31
0.0
  0
LINE
  5
75E
330
15
100
AcDbEntity
  8
4
100
AcDbLine
 10
412.7180420800892
 20
1781.647382718483
 30
0.0
 11
412.7180420800892
 21
1727.647382718483
 31
0.0
  0
LINE
  5
75F
330
15
100
AcDbEntity
  8
4
100
AcDbLine
 10
546.8280380800898
 20
1787.147382718483
 30
0.0
 11
532.7180420800892
 21
1787.147382718483
 31
0.0
  0
LINE
  5
760
330
15
100
AcDbEntity
  8
4
100
AcDbLine
 10
546.8280380800898
 20
1722.147382718483
 30
0.0
 11
532.7180420800892
 21
1722.147382718483
 31
0.0
  0
ENDSEC
  0
SECTION
  2
OBJECTS
  0
DICTIONARY
  5
5
330
0
100
AcDbDictionary
281
     1
  3
ACAD_COLOR
350
28
  3
ACAD_GROUP
350
26
  3
ACAD_LAYOUT
350
1C
  3
ACAD_MATERIAL
350
7
  3
ACAD_MLEADERSTYLE
350
6C0
  3
ACAD_MLINESTYLE
350
13
  3
ACAD_PLOTSETTINGS
350
27
  3
ACAD_PLOTSTYLENAME
350
4
  3
ACAD_SCALELIST
350
2D
  3
ACAD_VISUALSTYLE
350
29
  3
ACDBHEADERROUNDTRIPXREC
350
78A
  3
AcDbVariableDictionary
350
6BD
  3
DWGPROPS
350
78D
  0
DICTIONARY
  5
78E
330
25
100
AcDbDictionary
280
     1
281
     1
  3
ACAD_XREC_ROUNDTRIP
360
78F
  0
DICTIONARY
  5
16
330
15
100
AcDbDictionary
280
     1
281
     1
  3
ACAD_SORTENTS
360
17
  0
DICTIONARY
  5
28
102
{ACAD_REACTORS
330
5
102
}
330
5
100
AcDbDictionary
281
     1
  0
DICTIONARY
  5
26
102
{ACAD_REACTORS
330
5
102
}
330
5
100
AcDbDictionary
281
     1
  0
DICTIONARY
  5
1C
102
{ACAD_REACTORS
330
5
102
}
330
5
100
AcDbDictionary
281
     1
  3
Model
350
1B
  3
ﾚｲｱｳﾄ1
350
22
  0
DICTIONARY
  5
7
102
{ACAD_REACTORS
330
5
102
}
330
5
100
AcDbDictionary
281
     1
  3
ByBlock
350
70
  3
ByLayer
350
E
  3
Global
350
6
  0
DICTIONARY
  5
6C0
102
{ACAD_REACTORS
330
5
102
}
330
5
100
AcDbDictionary
281
     1
  3
Standard
350
6DB
  0
DICTIONARY
  5
13
102
{ACAD_REACTORS
330
5
102
}
330
5
100
AcDbDictionary
281
     1
  3
STANDARD
350
12
  0
DICTIONARY
  5
27
102
{ACAD_REACTORS
330
5
102
}
330
5
100
AcDbDictionary
281
     1
  0
ACDBDICTIONARYWDFLT
  5
4
102
{ACAD_REACTORS
330
5
102
}
330
5
100
AcDbDictionary
281
     1
  3
Normal
350
3
100
AcDbDictionaryWithDefault
340
3
  0
DICTIONARY
  5
2D
102
{ACAD_REACTORS
330
5
102
}
330
5
100
AcDbDictionary
281
     1
  3
*A1
350
4F
  3
*A10
350
58
  3
*A11
350
59
  3
*A12
350
5A
  3
*A13
350
5B
  3
*A14
350
5C
  3
*A15
350
5D
  3
*A16
350
5E
  3
*A17
350
5F
  3
*A18
350
60
  3
*A19
350
61
  3
*A2
350
50
  3
*A20
350
62
  3
*A21
350
63
  3
*A22
350
64
  3
*A23
350
65
  3
*A24
350
66
  3
*A25
350
67
  3
*A26
350
68
  3
*A27
350
69
  3
*A28
350
6A
  3
*A29
350
6B
  3
*A3
350
51
  3
*A30
350
6C
  3
*A31
350
6D
  3
*A32
350
6E
  3
*A33
350
6F
  3
*A4
350
52
  3
*A5
350
53
  3
*A6
350
54
  3
*A7
350
55
  3
*A8
350
56
  3
*A9
350
57
  0
DICTIONARY
  5
29
102
{ACAD_REACTORS
330
5
102
}
330
5
100
AcDbDictionary
281
     1
  3
2dWireframe
350
6C7
  3
Basic
350
6CA
  3
Brighten
350
6CE
  3
ColorChange
350
6D2
  3
Conceptual
350
6CC
  3
Dim
350
6CD
  3
EdgeColorOff
350
6D5
  3
Facepattern
350
6D1
  3
Flat
350
6C3
  3
FlatWithEdges
350
6C4
  3
Gouraud
350
6C5
  3
GouraudWithEdges
350
6C6
  3
Hidden
350
6C9
  3
JitterOff
350
6D3
  3
Linepattern
350
6D0
  3
OverhangOff
350
6D4
  3
Realistic
350
6CB
  3
Shaded
350
6DA
  3
Shaded with edges
350
6D9
  3
Shades of Gray
350
6D6
  3
Sketchy
350
6D7
  3
Thicken
350
6CF
  3
Wireframe
350
6C8
  3
X-Ray
350
6D8
  0
DICTIONARY
  5
78A
102
{ACAD_REACTORS
330
5
102
}
330
5
100
AcDbDictionary
281
     1
  3
COLORDICT
350
78B
  3
MATERIALDICT
350
78C
  0
DICTIONARY
  5
6BD
102
{ACAD_REACTORS
330
5
102
}
330
5
100
AcDbDictionary
281
     1
  3
CANNOSCALE
350
6BE
  3
CMLEADERSTYLE
350
6E4
  3
DIMASSOC
350
788
  3
HIDETEXT
350
789
  3
MSLTSCALE
350
790
  0
XRECORD
  5
78D
102
{ACAD_REACTORS
330
5
102
}
330
5
100
AcDbXrecord
280
     1
  1
DWGPROPS COOKIE
  2

  3

  4

  6

  7

  8
sg-d03
  9

300
=
301
=
302
=
303
=
304
=
305
=
306
=
307
=
308
=
309
=
 40
0.0
 41
2449812.756805555
 42
2458114.387313507
  1

 90
        0
  0
XRECORD
  5
78F
102
{ACAD_REACTORS
330
78E
102
}
330
78E
100
AcDbXrecord
280
     1
102
VTR_0.000_0.000_1.000_1.000_GRIDDISPLAY
 70
     3
102
VTR_0.000_0.000_1.000_1.000_GRIDMAJOR
 70
     5
102
VTR_0.000_0.000_1.000_1.000_DEFAULTLIGHTING
280
     1
102
VTR_0.000_0.000_1.000_1.000_DEFAULTLIGHTINGTYPE
 70
     1
102
VTR_0.000_0.000_1.000_1.000_BRIGHTNESS
141
0.0
102
VTR_0.000_0.000_1.000_1.000_CONTRAST
142
0.0
  0
SORTENTSTABLE
  5
17
102
{ACAD_REACTORS
330
16
102
}
330
16
100
AcDbSortentsTable
330
15
331
0
  5
6F9
331
6EE
  5
6EF
331
6EF
  5
6F0
331
6F0
  5
6F1
331
6F1
  5
6F2
331
6F2
  5
6F3
331
6F3
  5
6F4
331
6F4
  5
6F5
331
6F5
  5
6F6
331
6F6
  5
6F7
331
6F7
  5
6F8
331
6F9
  5
6FA
331
0
  5
6FB
331
0
  5
6FC
331
0
  5
6FD
331
0
  5
6FE
331
0
  5
6FF
331
0
  5
700
331
0
  5
701
331
0
  5
702
331
0
  5
703
331
0
  5
704
331
0
  5
705
331
0
  5
706
331
0
  5
70D
331
0
  5
70E
331
0
  5
70F
331
0
  5
710
331
0
  5
711
331
711
  5
6EE
  0
LAYOUT
  5
1B
102
{ACAD_REACTORS
330
1C
102
}
330
1C
100
AcDbPlotSettings
  1

  2
Bullzip PDF Printer.pc3
  4
A3
  6

 40
0.2
 41
0.0
 42
0.0
 43
0.0
 44
420.2
 45
297.1
 46
25.0
 47
12.0
 48
139.9999997783334
 49
0.0
140
3195.999993887111
141
2179.999995704281
142
1.0
143
8.0
 70
 11936
 72
     1
 73
     0
 74
     4
  7
monochrome.ctb
 75
     0
147
1.0
148
-139.9999997783334
149
0.0
100
AcDbLayout
  1
Model
 70
     0
 71
     0
 10
0.0
 20
0.0
 11
12.0
 21
9.0
 12
0.0
 22
0.0
 32
0.0
 14
403.2965040800884
 24
70.51593245524055
 34
0.0
 15
2594.705448206547
 25
2052.647382718481
 35
0.0
146
0.0
 13
0.0
 23
0.0
 33
0.0
 16
1.0
 26
0.0
 36
0.0
 17
0.0
 27
1.0
 37
0.0
 76
     0
330
15
331
2B
1001
ACAD_PSEXT
1000
Bullzip PDF Printer.pc3
1000
Bullzip PDF Printer
1000
BULLZIP
1000
Bullzip PDF Printer 10.1.0.1871
1070
     0
  0
LAYOUT
  5
22
102
{ACAD_REACTORS
330
1C
102
}
330
1C
100
AcDbPlotSettings
  1

  2
SR-LP8300F
  4

  6

 40
0.0
 41
0.0
 42
0.0
 43
0.0
 44
0.0
 45
0.0
 46
0.0
 47
0.0
 48
0.0
 49
0.0
140
0.0
141
0.0
142
1.0
143
1.0
 70
   688
 72
     0
 73
     0
 74
     5
  7
monochrome.ctb
 75
    16
147
1.0
148
0.0
149
0.0
100
AcDbLayout
  1
ﾚｲｱｳﾄ1
 70
     0
 71
     1
 10
0.0
 20
0.0
 11
12.0
 21
9.0
 12
0.0
 22
0.0
 32
0.0
 14
1000000000000000E+20
 24
1000000000000000E+20
 34
1000000000000000E+20
 15
-1000000000000000E+20
 25
-1000000000000000E+20
 35
-1000000000000000E+20
146
0.0
 13
0.0
 23
0.0
 33
0.0
 16
1.0
 26
0.0
 36
0.0
 17
0.0
 27
1.0
 37
0.0
 76
     0
330
1F
  0
MATERIAL
  5
70
102
{ACAD_REACTORS
330
7
102
}
102
{ACAD_XDICTIONARY
360
795
102
}
330
7
100
AcDbMaterial
  1
ByBlock
  0
MATERIAL
  5
E
102
{ACAD_REACTORS
330
7
102
}
102
{ACAD_XDICTIONARY
360
791
102
}
330
7
100
AcDbMaterial
  1
ByLayer
  0
MATERIAL
  5
6
102
{ACAD_REACTORS
330
7
102
}
102
{ACAD_XDICTIONARY
360
793
102
}
330
7
100
AcDbMaterial
  1
Global
  0
MLEADERSTYLE
  5
6DB
102
{ACAD_REACTORS
330
6C0
102
}
102
{ACAD_XDICTIONARY
360
7C7
102
}
330
6C0
100
AcDbMLeaderStyle
170
     2
171
     1
172
     0
 90
        2
 40
0.0
 41
0.0
173
     1
 91
-1056964608
340
B
 92
       -2
290
     1
 42
0.09
291
     1
 43
0.36
  3
Standard
341
0
 44
0.18
300

342
C
174
     1
178
     6
175
     1
176
     0
 93
-1056964608
 45
0.18
292
     0
297
     0
 46
0.18
343
0
 94
-1056964608
 47
1.0
 49
1.0
140
1.0
293
     1
141
0.0
294
     1
177
     0
142
1.0
295
     0
296
     0
143
0.125
1001
ACAD_MLEADERVER
1070
     2
  0
MLINESTYLE
  5
12
102
{ACAD_REACTORS
330
13
102
}
330
13
100
AcDbMlineStyle
  2
STANDARD
 70
     0
  3

 62
     0
 51
90.0
 52
90.0
 71
     2
 49
0.5
 62
   256
  6
BYLAYER
 49
-0.5
 62
   256
  6
BYLAYER
  0
ACDBPLACEHOLDER
  5
3
102
{ACAD_REACTORS
330
4
102
}
330
4
  0
SCALE
  5
4F
102
{ACAD_REACTORS
330
2D
102
}
330
2D
100
AcDbScale
 70
     0
300
1:1
140
1.0
141
1.0
290
     1
  0
SCALE
  5
58
102
{ACAD_REACTORS
330
2D
102
}
330
2D
100
AcDbScale
 70
     0
300
1:40
140
1.0
141
40.0
290
     0
  0
SCALE
  5
59
102
{ACAD_REACTORS
330
2D
102
}
330
2D
100
AcDbScale
 70
     0
300
1:50
140
1.0
141
50.0
290
     0
  0
SCALE
  5
5A
102
{ACAD_REACTORS
330
2D
102
}
330
2D
100
AcDbScale
 70
     0
300
1:100
140
1.0
141
100.0
290
     0
  0
SCALE
  5
5B
102
{ACAD_REACTORS
330
2D
102
}
330
2D
100
AcDbScale
 70
     0
300
2:1
140
2.0
141
1.0
290
     0
  0
SCALE
  5
5C
102
{ACAD_REACTORS
330
2D
102
}
330
2D
100
AcDbScale
 70
     0
300
4:1
140
4.0
141
1.0
290
     0
  0
SCALE
  5
5D
102
{ACAD_REACTORS
330
2D
102
}
330
2D
100
AcDbScale
 70
     0
300
8:1
140
8.0
141
1.0
290
     0
  0
SCALE
  5
5E
102
{ACAD_REACTORS
330
2D
102
}
330
2D
100
AcDbScale
 70
     0
300
10:1
140
10.0
141
1.0
290
     0
  0
SCALE
  5
5F
102
{ACAD_REACTORS
330
2D
102
}
330
2D
100
AcDbScale
 70
     0
300
100:1
140
100.0
141
1.0
290
     0
  0
SCALE
  5
60
102
{ACAD_REACTORS
330
2D
102
}
330
2D
100
AcDbScale
 70
     0
300
1/128" = 1'-0"
140
0.0078125
141
12.0
290
     0
  0
SCALE
  5
61
102
{ACAD_REACTORS
330
2D
102
}
330
2D
100
AcDbScale
 70
     0
300
1/64" = 1'-0"
140
0.015625
141
12.0
290
     0
  0
SCALE
  5
50
102
{ACAD_REACTORS
330
2D
102
}
330
2D
100
AcDbScale
 70
     0
300
1:2
140
1.0
141
2.0
290
     0
  0
SCALE
  5
62
102
{ACAD_REACTORS
330
2D
102
}
330
2D
100
AcDbScale
 70
     0
300
1/32" = 1'-0"
140
0.03125
141
12.0
290
     0
  0
SCALE
  5
63
102
{ACAD_REACTORS
330
2D
102
}
330
2D
100
AcDbScale
 70
     0
300
1/16" = 1'-0"
140
0.0625
141
12.0
290
     0
  0
SCALE
  5
64
102
{ACAD_REACTORS
330
2D
102
}
330
2D
100
AcDbScale
 70
     0
300
3/32" = 1'-0"
140
0.09375
141
12.0
290
     0
  0
SCALE
  5
65
102
{ACAD_REACTORS
330
2D
102
}
330
2D
100
AcDbScale
 70
     0
300
1/8" = 1'-0"
140
0.125
141
12.0
290
     0
  0
SCALE
  5
66
102
{ACAD_REACTORS
330
2D
102
}
330
2D
100
AcDbScale
 70
     0
300
3/16" = 1'-0"
140
0.1875
141
12.0
290
     0
  0
SCALE
  5
67
102
{ACAD_REACTORS
330
2D
102
}
330
2D
100
AcDbScale
 70
     0
300
1/4" = 1'-0"
140
0.25
141
12.0
290
     0
  0
SCALE
  5
68
102
{ACAD_REACTORS
330
2D
102
}
330
2D
100
AcDbScale
 70
     0
300
3/8" = 1'-0"
140
0.375
141
12.0
290
     0
  0
SCALE
  5
69
102
{ACAD_REACTORS
330
2D
102
}
330
2D
100
AcDbScale
 70
     0
300
1/2" = 1'-0"
140
0.5
141
12.0
290
     0
  0
SCALE
  5
6A
102
{ACAD_REACTORS
330
2D
102
}
330
2D
100
AcDbScale
 70
     0
300
3/4" = 1'-0"
140
0.75
141
12.0
290
     0
  0
SCALE
  5
6B
102
{ACAD_REACTORS
330
2D
102
}
330
2D
100
AcDbScale
 70
     0
300
1" = 1'-0"
140
1.0
141
12.0
290
     0
  0
SCALE
  5
51
102
{ACAD_REACTORS
330
2D
102
}
330
2D
100
AcDbScale
 70
     0
300
1:4
140
1.0
141
4.0
290
     0
  0
SCALE
  5
6C
102
{ACAD_REACTORS
330
2D
102
}
330
2D
100
AcDbScale
 70
     0
300
1-1/2" = 1'-0"
140
1.5
141
12.0
290
     0
  0
SCALE
  5
6D
102
{ACAD_REACTORS
330
2D
102
}
330
2D
100
AcDbScale
 70
     0
300
3" = 1'-0"
140
3.0
141
12.0
290
     0
  0
SCALE
  5
6E
102
{ACAD_REACTORS
330
2D
102
}
330
2D
100
AcDbScale
 70
     0
300
6" = 1'-0"
140
6.0
141
12.0
290
     0
  0
SCALE
  5
6F
102
{ACAD_REACTORS
330
2D
102
}
330
2D
100
AcDbScale
 70
     0
300
1'-0" = 1'-0"
140
12.0
141
12.0
290
     0
  0
SCALE
  5
52
102
{ACAD_REACTORS
330
2D
102
}
330
2D
100
AcDbScale
 70
     0
300
1:5
140
1.0
141
5.0
290
     0
  0
SCALE
  5
53
102
{ACAD_REACTORS
330
2D
102
}
330
2D
100
AcDbScale
 70
     0
300
1:8
140
1.0
141
8.0
290
     0
  0
SCALE
  5
54
102
{ACAD_REACTORS
330
2D
102
}
330
2D
100
AcDbScale
 70
     0
300
1:10
140
1.0
141
10.0
290
     0
  0
SCALE
  5
55
102
{ACAD_REACTORS
330
2D
102
}
330
2D
100
AcDbScale
 70
     0
300
1:16
140
1.0
141
16.0
290
     0
  0
SCALE
  5
56
102
{ACAD_REACTORS
330
2D
102
}
330
2D
100
AcDbScale
 70
     0
300
1:20
140
1.0
141
20.0
290
     0
  0
SCALE
  5
57
102
{ACAD_REACTORS
330
2D
102
}
330
2D
100
AcDbScale
 70
     0
300
1:30
140
1.0
141
30.0
290
     0
  0
VISUALSTYLE
  5
6C7
102
{ACAD_REACTORS
330
29
102
}
102
{ACAD_XDICTIONARY
360
79F
102
}
330
29
100
AcDbVisualStyle
  2
2dWireframe
 70
     4
 71
     0
 72
     2
 73
     0
 90
        0
 40
0.6
 41
30.0
 62
     5
 63
     7
 74
     1
 91
        4
 64
     7
 65
   257
 75
     1
175
     1
 42
1.0
 92
        0
 66
   257
 43
1.0
 76
     1
 77
     6
 78
     2
 67
     7
 79
     5
170
     0
171
     0
290
     0
174
     0
 93
        1
 44
0.0
173
     0
291
     0
 45
0.0
1001
ACAD
1000
AcDbSavedByObjectVersion
1070
     0
  0
VISUALSTYLE
  5
6CA
102
{ACAD_REACTORS
330
29
102
}
102
{ACAD_XDICTIONARY
360
7A5
102
}
330
29
100
AcDbVisualStyle
  2
Basic
 70
     7
 71
     1
 72
     0
 73
     1
 90
        0
 40
0.6
 41
30.0
 62
     5
 63
     7
 74
     0
 91
        4
 64
     7
 65
   257
 75
     1
175
     1
 42
1.0
 92
        8
 66
     7
 43
1.0
 76
     1
 77
     6
 78
     2
 67
     7
 79
     5
170
     0
171
     0
290
     0
174
     0
 93
        1
 44
0.0
173
     0
291
     1
 45
0.0
1001
ACAD
1000
AcDbSavedByObjectVersion
1070
     0
  0
VISUALSTYLE
  5
6CE
102
{ACAD_REACTORS
330
29
102
}
102
{ACAD_XDICTIONARY
360
7AD
102
}
330
29
100
AcDbVisualStyle
  2
Brighten
 70
    12
 71
     2
 72
     2
 73
     0
 90
        0
 40
0.6
 41
30.0
 62
     5
 63
     7
 74
     1
 91
        4
 64
     7
 65
   257
 75
     1
175
     1
 42
1.0
 92
        8
 66
     7
 43
1.0
 76
     1
 77
     6
 78
     2
 67
     7
 79
     5
170
     0
171
     0
290
     0
174
     0
 93
        1
 44
50.0
173
     0
291
     1
 45
0.0
1001
ACAD
1000
AcDbSavedByObjectVersion
1070
     0
  0
VISUALSTYLE
  5
6D2
102
{ACAD_REACTORS
330
29
102
}
102
{ACAD_XDICTIONARY
360
7B5
102
}
330
29
100
AcDbVisualStyle
  2
ColorChange
 70
    16
 71
     2
 72
     2
 73
     3
 90
        0
 40
0.6
 41
30.0
 62
     5
 63
     8
 74
     1
 91
        4
 64
     7
 65
   257
 75
     1
175
     1
 42
1.0
 92
        8
 66
     8
 43
1.0
 76
     1
 77
     6
 78
     2
 67
     7
 79
     5
170
     0
171
     0
290
     0
174
     0
 93
        1
 44
0.0
173
     0
291
     1
 45
0.0
1001
ACAD
1000
AcDbSavedByObjectVersion
1070
     0
  0
VISUALSTYLE
  5
6CC
102
{ACAD_REACTORS
330
29
102
}
102
{ACAD_XDICTIONARY
360
7A9
102
}
330
29
100
AcDbVisualStyle
  2
Conceptual
 70
     9
 71
     3
 72
     2
 73
     0
 90
        0
 40
0.6
 41
30.0
 62
     5
 63
     7
 74
     2
 91
        2
 64
     7
 65
   257
 75
     1
175
     1
 42
40.0
 92
        8
 66
     7
 43
1.0
 76
     1
 77
     6
 78
     2
 67
     7
 79
     3
170
     0
171
     0
290
     0
174
     0
 93
        1
 44
0.0
173
     0
291
     0
 45
0.0
1001
ACAD
1000
AcDbSavedByObjectVersion
1070
     0
  0
VISUALSTYLE
  5
6CD
102
{ACAD_REACTORS
330
29
102
}
102
{ACAD_XDICTIONARY
360
7AB
102
}
330
29
100
AcDbVisualStyle
  2
Dim
 70
    11
 71
     2
 72
     2
 73
     0
 90
        0
 40
0.6
 41
30.0
 62
     5
 63
     7
 74
     1
 91
        4
 64
     7
 65
   257
 75
     1
175
     1
 42
1.0
 92
        8
 66
     7
 43
1.0
 76
     1
 77
     6
 78
     2
 67
     7
 79
     5
170
     0
171
     0
290
     0
174
     0
 93
        1
 44
-50.0
173
     0
291
     1
 45
0.0
1001
ACAD
1000
AcDbSavedByObjectVersion
1070
     0
  0
VISUALSTYLE
  5
6D5
102
{ACAD_REACTORS
330
29
102
}
102
{ACAD_XDICTIONARY
360
7BB
102
}
330
29
100
AcDbVisualStyle
  2
EdgeColorOff
 70
    22
 71
     2
 72
     2
 73
     0
 90
        0
 40
0.6
 41
30.0
 62
     5
 63
     7
 74
     1
 91
        4
 64
     7
 65
   257
 75
     1
175
     1
 42
1.0
 92
        8
 66
     7
 43
1.0
 76
     1
 77
     6
 78
     2
 67
     7
 79
     5
170
     0
171
     0
290
     0
174
     0
 93
        1
 44
0.0
173
     0
291
     1
 45
0.0
1001
ACAD
1000
AcDbSavedByObjectVersion
1070
     0
  0
VISUALSTYLE
  5
6D1
102
{ACAD_REACTORS
330
29
102
}
102
{ACAD_XDICTIONARY
360
7B3
102
}
330
29
100
AcDbVisualStyle
  2
Facepattern
 70
    15
 71
     2
 72
     2
 73
     0
 90
        0
 40
0.6
 41
30.0
 62
     5
 63
     7
 74
     1
 91
        4
 64
     7
 65
   257
 75
     1
175
     1
 42
1.0
 92
        8
 66
     7
 43
1.0
 76
     1
 77
     6
 78
     2
 67
     7
 79
     5
170
     0
171
     0
290
     0
174
     0
 93
        1
 44
0.0
173
     0
291
     1
 45
0.0
1001
ACAD
1000
AcDbSavedByObjectVersion
1070
     0
  0
VISUALSTYLE
  5
6C3
102
{ACAD_REACTORS
330
29
102
}
102
{ACAD_XDICTIONARY
360
797
102
}
330
29
100
AcDbVisualStyle
  2
Flat
 70
     0
 71
     2
 72
     1
 73
     1
 90
        2
 40
0.6
 41
30.0
 62
     5
 63
     7
 74
     0
 91
        4
 64
     7
 65
   257
 75
     1
175
     1
 42
1.0
 92
        8
 66
     7
 43
1.0
 76
     1
 77
     6
 78
     2
 67
     7
 79
     5
170
     0
171
     0
290
     0
174
     0
 93
       13
 44
0.0
173
     0
291
     1
 45
0.0
1001
ACAD
1000
AcDbSavedByObjectVersion
1070
     0
  0
VISUALSTYLE
  5
6C4
102
{ACAD_REACTORS
330
29
102
}
102
{ACAD_XDICTIONARY
360
799
102
}
330
29
100
AcDbVisualStyle
  2
FlatWithEdges
 70
     1
 71
     2
 72
     1
 73
     1
 90
        2
 40
0.6
 41
30.0
 62
     5
 63
     7
 74
     1
 91
        4
 64
     7
 65
   257
 75
     1
175
     1
 42
1.0
 92
        0
 66
   257
 43
1.0
 76
     1
 77
     6
 78
     2
 67
     7
 79
     5
170
     0
171
     0
290
     0
174
     0
 93
       13
 44
0.0
173
     0
291
     1
 45
0.0
1001
ACAD
1000
AcDbSavedByObjectVersion
1070
     0
  0
VISUALSTYLE
  5
6C5
102
{ACAD_REACTORS
330
29
102
}
102
{ACAD_XDICTIONARY
360
79B
102
}
330
29
100
AcDbVisualStyle
  2
Gouraud
 70
     2
 71
     2
 72
     2
 73
     1
 90
        2
 40
0.6
 41
30.0
 62
     5
 63
     7
 74
     0
 91
        4
 64
     7
 65
   257
 75
     1
175
     1
 42
1.0
 92
        0
 66
     7
 43
1.0
 76
     1
 77
     6
 78
     2
 67
     7
 79
     5
170
     0
171
     0
290
     0
174
     0
 93
       13
 44
0.0
173
     0
291
     1
 45
0.0
1001
ACAD
1000
AcDbSavedByObjectVersion
1070
     0
  0
VISUALSTYLE
  5
6C6
102
{ACAD_REACTORS
330
29
102
}
102
{ACAD_XDICTIONARY
360
79D
102
}
330
29
100
AcDbVisualStyle
  2
GouraudWithEdges
 70
     3
 71
     2
 72
     2
 73
     1
 90
        2
 40
0.6
 41
30.0
 62
     5
 63
     7
 74
     1
 91
        4
 64
     7
 65
   257
 75
     1
175
     1
 42
1.0
 92
        0
 66
   257
 43
1.0
 76
     1
 77
     6
 78
     2
 67
     7
 79
     5
170
     0
171
     0
290
     0
174
     0
 93
       13
 44
0.0
173
     0
291
     1
 45
0.0
1001
ACAD
1000
AcDbSavedByObjectVersion
1070
     0
  0
VISUALSTYLE
  5
6C9
102
{ACAD_REACTORS
330
29
102
}
102
{ACAD_XDICTIONARY
360
7A3
102
}
330
29
100
AcDbVisualStyle
  2
Hidden
 70
     6
 71
     1
 72
     2
 73
     2
 90
        0
 40
0.6
 41
30.0
 62
     5
 63
     7
 74
     2
 91
        2
 64
     7
 65
   257
 75
     2
175
     1
 42
40.0
 92
        0
 66
   257
 43
1.0
 76
     1
 77
     6
 78
     2
 67
     7
 79
     3
170
     0
171
     0
290
     0
174
     0
 93
        1
 44
0.0
173
     0
291
     0
 45
0.0
1001
ACAD
1000
AcDbSavedByObjectVersion
1070
     0
  0
VISUALSTYLE
  5
6D3
102
{ACAD_REACTORS
330
29
102
}
102
{ACAD_XDICTIONARY
360
7B7
102
}
330
29
100
AcDbVisualStyle
  2
JitterOff
 70
    20
 71
     2
 72
     2
 73
     0
 90
        0
 40
0.6
 41
30.0
 62
     5
 63
     7
 74
     1
 91
        4
 64
     7
 65
   257
 75
     1
175
     1
 42
1.0
 92
       10
 66
     7
 43
1.0
 76
     1
 77
     6
 78
     2
 67
     7
 79
     5
170
     0
171
     0
290
     0
174
     0
 93
        1
 44
0.0
173
     0
291
     1
 45
0.0
1001
ACAD
1000
AcDbSavedByObjectVersion
1070
     0
  0
VISUALSTYLE
  5
6D0
102
{ACAD_REACTORS
330
29
102
}
102
{ACAD_XDICTIONARY
360
7B1
102
}
330
29
100
AcDbVisualStyle
  2
Linepattern
 70
    14
 71
     2
 72
     2
 73
     0
 90
        0
 40
0.6
 41
30.0
 62
     5
 63
     7
 74
     1
 91
        4
 64
     7
 65
   257
 75
     7
175
     7
 42
1.0
 92
        8
 66
     7
 43
1.0
 76
     1
 77
     6
 78
     2
 67
     7
 79
     5
170
     0
171
     0
290
     0
174
     0
 93
        1
 44
0.0
173
     0
291
     1
 45
0.0
1001
ACAD
1000
AcDbSavedByObjectVersion
1070
     0
  0
VISUALSTYLE
  5
6D4
102
{ACAD_REACTORS
330
29
102
}
102
{ACAD_XDICTIONARY
360
7B9
102
}
330
29
100
AcDbVisualStyle
  2
OverhangOff
 70
    21
 71
     2
 72
     2
 73
     0
 90
        0
 40
0.6
 41
30.0
 62
     5
 63
     7
 74
     1
 91
        4
 64
     7
 65
   257
 75
     1
175
     1
 42
1.0
 92
        9
 66
     7
 43
1.0
 76
     1
 77
     6
 78
     2
 67
     7
 79
     5
170
     0
171
     0
290
     0
174
     0
 93
        1
 44
0.0
173
     0
291
     1
 45
0.0
1001
ACAD
1000
AcDbSavedByObjectVersion
1070
     0
  0
VISUALSTYLE
  5
6CB
102
{ACAD_REACTORS
330
29
102
}
102
{ACAD_XDICTIONARY
360
7A7
102
}
330
29
100
AcDbVisualStyle
  2
Realistic
 70
     8
 71
     2
 72
     3
 73
     0
 90
        2
 40
0.6
 41
30.0
 62
     5
 63
     7
 74
     0
 91
        0
 64
     7
 65
   257
 75
     1
175
     1
 42
1.0
 92
        8
 66
   257
 43
1.0
 76
     1
 77
     6
 78
     2
 67
     7
 79
     3
170
     0
171
     0
290
     0
174
     0
 93
       13
 44
0.0
173
     0
291
     0
 45
0.0
1001
ACAD
1000
AcDbSavedByObjectVersion
1070
     0
  0
VISUALSTYLE
  5
6DA
102
{ACAD_REACTORS
330
29
102
}
102
{ACAD_XDICTIONARY
360
7C5
102
}
330
29
100
AcDbVisualStyle
  2
Shaded
 70
    27
 71
     2
 72
     2
 73
     1
 90
        2
 40
0.6
 41
30.0
 62
     5
 63
     7
 74
     0
 91
        4
 64
     7
 65
   257
 75
     1
175
     1
 42
1.0
 92
        8
 66
   257
 43
1.0
 76
     1
 77
     6
 78
     2
 67
   251
 79
     3
170
     0
171
     0
290
     0
174
     0
 93
        5
 44
0.0
173
     0
291
     0
 45
0.0
1001
ACAD
1000
AcDbSavedByObjectVersion
1070
     0
  0
VISUALSTYLE
  5
6D9
102
{ACAD_REACTORS
330
29
102
}
102
{ACAD_XDICTIONARY
360
7C3
102
}
330
29
100
AcDbVisualStyle
  2
Shaded with edges
 70
    26
 71
     2
 72
     2
 73
     1
 90
        2
 40
0.6
 41
30.0
 62
     5
 63
     7
 74
     1
 91
       10
 64
     7
 65
   257
 75
     2
175
     1
 42
1.0
 92
        8
 66
   257
 43
1.0
 76
     1
 77
     6
 78
     2
 67
     7
 79
     3
170
     0
171
     0
290
     0
174
     0
 93
        5
 44
0.0
173
     0
291
     0
 45
0.0
1001
ACAD
1000
AcDbSavedByObjectVersion
1070
     0
  0
VISUALSTYLE
  5
6D6
102
{ACAD_REACTORS
330
29
102
}
102
{ACAD_XDICTIONARY
360
7BD
102
}
330
29
100
AcDbVisualStyle
  2
Shades of Gray
 70
    23
 71
     2
 72
     2
 73
     3
 90
        0
 40
0.6
 41
30.0
 62
     5
 63
     7
 74
     2
 91
        2
 64
     7
 65
     7
 75
     1
175
     1
 42
40.0
 92
        8
 66
     7
 43
1.0
 76
     1
 77
     6
 78
     2
 67
     7
 79
     3
170
     0
171
     0
290
     0
174
     0
 93
        1
 44
0.0
173
     0
291
     0
 45
0.0
1001
ACAD
1000
AcDbSavedByObjectVersion
1070
     0
  0
VISUALSTYLE
  5
6D7
102
{ACAD_REACTORS
330
29
102
}
102
{ACAD_XDICTIONARY
360
7BF
102
}
330
29
100
AcDbVisualStyle
  2
Sketchy
 70
    24
 71
     1
 72
     2
 73
     2
 90
        0
 40
0.6
 41
30.0
 62
     5
 63
     7
 74
     2
 91
        2
 64
     7
 65
     7
 75
     1
175
     1
 42
40.0
 92
       11
 66
     7
 43
1.0
 76
     1
 77
     6
 78
     2
 67
     7
 79
     6
170
     0
171
     0
290
     0
174
     0
 93
        1
 44
0.0
173
     0
291
     0
 45
0.0
1001
ACAD
1000
AcDbSavedByObjectVersion
1070
     0
  0
VISUALSTYLE
  5
6CF
102
{ACAD_REACTORS
330
29
102
}
102
{ACAD_XDICTIONARY
360
7AF
102
}
330
29
100
AcDbVisualStyle
  2
Thicken
 70
    13
 71
     2
 72
     2
 73
     0
 90
        0
 40
0.6
 41
30.0
 62
     5
 63
     7
 74
     1
 91
        4
 64
     7
 65
   257
 75
     1
175
     1
 42
1.0
 92
       12
 66
     7
 43
1.0
 76
     1
 77
     6
 78
     2
 67
     7
 79
     5
170
     0
171
     0
290
     0
174
     0
 93
        1
 44
0.0
173
     0
291
     1
 45
0.0
1001
ACAD
1000
AcDbSavedByObjectVersion
1070
     0
  0
VISUALSTYLE
  5
6C8
102
{ACAD_REACTORS
330
29
102
}
102
{ACAD_XDICTIONARY
360
7A1
102
}
330
29
100
AcDbVisualStyle
  2
Wireframe
 70
     5
 71
     0
 72
     2
 73
     0
 90
        0
 40
0.6
 41
30.0
 62
     5
 63
     7
 74
     1
 91
        4
 64
     7
 65
   257
 75
     1
175
     1
 42
1.0
 92
        0
 66
   257
 43
1.0
 76
     1
 77
     6
 78
     2
 67
     7
 79
     5
170
     0
171
     0
290
     0
174
     0
 93
        1
 44
0.0
173
     0
291
     0
 45
0.0
1001
ACAD
1000
AcDbSavedByObjectVersion
1070
     0
  0
VISUALSTYLE
  5
6D8
102
{ACAD_REACTORS
330
29
102
}
102
{ACAD_XDICTIONARY
360
7C1
102
}
330
29
100
AcDbVisualStyle
  2
X-Ray
 70
    25
 71
     2
 72
     2
 73
     1
 90
        1
 40
0.5
 41
30.0
 62
     5
 63
     7
 74
     1
 91
        0
 64
     7
 65
   257
 75
     1
175
     1
 42
1.0
 92
        8
 66
     7
 43
1.0
 76
     1
 77
     6
 78
     2
 67
     7
 79
     3
170
     0
171
     0
290
     0
174
     0
 93
       13
 44
0.0
173
     0
291
     0
 45
0.0
1001
ACAD
1000
AcDbSavedByObjectVersion
1070
     0
  0
XRECORD
  5
78B
102
{ACAD_REACTORS
330
78A
102
}
330
78A
100
AcDbXrecord
280
     1
340
28
  0
XRECORD
  5
78C
102
{ACAD_REACTORS
330
78A
102
}
330
78A
100
AcDbXrecord
280
     1
340
7
  0
DICTIONARYVAR
  5
6BE
102
{ACAD_REACTORS
330
6BD
102
}
330
6BD
100
DictionaryVariables
280
     0
  1
1:1
  0
DICTIONARYVAR
  5
6E4
102
{ACAD_REACTORS
330
6BD
102
}
330
6BD
100
DictionaryVariables
280
     0
  1
Standard
  0
DICTIONARYVAR
  5
788
102
{ACAD_REACTORS
330
6BD
102
}
330
6BD
100
DictionaryVariables
280
     0
  1
0
  0
DICTIONARYVAR
  5
789
102
{ACAD_REACTORS
330
6BD
102
}
330
6BD
100
DictionaryVariables
280
     0
  1
1
  0
DICTIONARYVAR
  5
790
102
{ACAD_REACTORS
330
6BD
102
}
330
6BD
100
DictionaryVariables
280
     0
  1
1
  0
DICTIONARY
  5
795
330
70
100
AcDbDictionary
280
     1
281
     1
  3
ACAD_XREC_ROUNDTRIP
360
796
  0
DICTIONARY
  5
791
330
E
100
AcDbDictionary
280
     1
281
     1
  3
ACAD_XREC_ROUNDTRIP
360
792
  0
DICTIONARY
  5
793
330
6
100
AcDbDictionary
280
     1
281
     1
  3
ACAD_XREC_ROUNDTRIP
360
794
  0
DICTIONARY
  5
7C7
330
6DB
100
AcDbDictionary
280
     1
281
     1
  3
ACAD_XREC_ROUNDTRIP
360
7C8
  0
DICTIONARY
  5
79F
330
6C7
100
AcDbDictionary
280
     1
281
     1
  3
ACAD_XREC_ROUNDTRIP
360
7A0
  0
DICTIONARY
  5
7A5
330
6CA
100
AcDbDictionary
280
     1
281
     1
  3
ACAD_XREC_ROUNDTRIP
360
7A6
  0
DICTIONARY
  5
7AD
330
6CE
100
AcDbDictionary
280
     1
281
     1
  3
ACAD_XREC_ROUNDTRIP
360
7AE
  0
DICTIONARY
  5
7B5
330
6D2
100
AcDbDictionary
280
     1
281
     1
  3
ACAD_XREC_ROUNDTRIP
360
7B6
  0
DICTIONARY
  5
7A9
330
6CC
100
AcDbDictionary
280
     1
281
     1
  3
ACAD_XREC_ROUNDTRIP
360
7AA
  0
DICTIONARY
  5
7AB
330
6CD
100
AcDbDictionary
280
     1
281
     1
  3
ACAD_XREC_ROUNDTRIP
360
7AC
  0
DICTIONARY
  5
7BB
330
6D5
100
AcDbDictionary
280
     1
281
     1
  3
ACAD_XREC_ROUNDTRIP
360
7BC
  0
DICTIONARY
  5
7B3
330
6D1
100
AcDbDictionary
280
     1
281
     1
  3
ACAD_XREC_ROUNDTRIP
360
7B4
  0
DICTIONARY
  5
797
330
6C3
100
AcDbDictionary
280
     1
281
     1
  3
ACAD_XREC_ROUNDTRIP
360
798
  0
DICTIONARY
  5
799
330
6C4
100
AcDbDictionary
280
     1
281
     1
  3
ACAD_XREC_ROUNDTRIP
360
79A
  0
DICTIONARY
  5
79B
330
6C5
100
AcDbDictionary
280
     1
281
     1
  3
ACAD_XREC_ROUNDTRIP
360
79C
  0
DICTIONARY
  5
79D
330
6C6
100
AcDbDictionary
280
     1
281
     1
  3
ACAD_XREC_ROUNDTRIP
360
79E
  0
DICTIONARY
  5
7A3
330
6C9
100
AcDbDictionary
280
     1
281
     1
  3
ACAD_XREC_ROUNDTRIP
360
7A4
  0
DICTIONARY
  5
7B7
330
6D3
100
AcDbDictionary
280
     1
281
     1
  3
ACAD_XREC_ROUNDTRIP
360
7B8
  0
DICTIONARY
  5
7B1
330
6D0
100
AcDbDictionary
280
     1
281
     1
  3
ACAD_XREC_ROUNDTRIP
360
7B2
  0
DICTIONARY
  5
7B9
330
6D4
100
AcDbDictionary
280
     1
281
     1
  3
ACAD_XREC_ROUNDTRIP
360
7BA
  0
DICTIONARY
  5
7A7
330
6CB
100
AcDbDictionary
280
     1
281
     1
  3
ACAD_XREC_ROUNDTRIP
360
7A8
  0
DICTIONARY
  5
7C5
330
6DA
100
AcDbDictionary
280
     1
281
     1
  3
ACAD_XREC_ROUNDTRIP
360
7C6
  0
DICTIONARY
  5
7C3
330
6D9
100
AcDbDictionary
280
     1
281
     1
  3
ACAD_XREC_ROUNDTRIP
360
7C4
  0
DICTIONARY
  5
7BD
330
6D6
100
AcDbDictionary
280
     1
281
     1
  3
ACAD_XREC_ROUNDTRIP
360
7BE
  0
DICTIONARY
  5
7BF
330
6D7
100
AcDbDictionary
280
     1
281
     1
  3
ACAD_XREC_ROUNDTRIP
360
7C0
  0
DICTIONARY
  5
7AF
330
6CF
100
AcDbDictionary
280
     1
281
     1
  3
ACAD_XREC_ROUNDTRIP
360
7B0
  0
DICTIONARY
  5
7A1
330
6C8
100
AcDbDictionary
280
     1
281
     1
  3
ACAD_XREC_ROUNDTRIP
360
7A2
  0
DICTIONARY
  5
7C1
330
6D8
100
AcDbDictionary
280
     1
281
     1
  3
ACAD_XREC_ROUNDTRIP
360
7C2
  0
XRECORD
  5
796
102
{ACAD_REACTORS
330
795
102
}
330
795
100
AcDbXrecord
280
     1
102
MATERIAL
148
0.0
149
0.0
149
0.0
 93
        0
 94
      127
282
     0
 72
     1
 77
     1
171
     1
175
     1
179
     1
273
     0
  0
XRECORD
  5
792
102
{ACAD_REACTORS
330
791
102
}
330
791
100
AcDbXrecord
280
     1
102
MATERIAL
148
0.0
149
0.0
149
0.0
 93
        0
 94
      127
282
     0
 72
     1
 77
     1
171
     1
175
     1
179
     1
273
     0
  0
XRECORD
  5
794
102
{ACAD_REACTORS
330
793
102
}
330
793
100
AcDbXrecord
280
     1
102
MATERIAL
148
0.0
149
0.0
149
0.0
 93
        0
 94
      127
282
     0
 72
     1
 77
     1
171
     1
175
     1
179
     1
273
     0
  0
XRECORD
  5
7C8
102
{ACAD_REACTORS
330
7C7
102
}
330
7C7
100
AcDbXrecord
280
     1
102
ACAD_ROUNDTRIP_2010_MLEADER_STYLE
  0
XRECORD
  5
7A0
102
{ACAD_REACTORS
330
79F
102
}
330
79F
100
AcDbXrecord
280
     1
102
RTVSPropertyOp0
 70
     1
102
RTVSPropertyOp1
 70
     1
102
RTVSPropertyOp2
 70
     1
102
RTVSPropertyOp3
 70
     1
102
RTVSPropertyOp4
 70
     1
102
RTVSPropertyOp5
 70
     1
102
RTVSPropertyOp6
 70
     1
102
RTVSPropertyOp7
 70
     1
102
RTVSPropertyOp8
 70
     1
102
RTVSPropertyOp9
 70
     1
102
RTVSPropertyOp10
 70
     1
102
RTVSPropertyOp11
 70
     1
102
RTVSPropertyOp12
 70
     1
102
RTVSPropertyOp13
 70
     1
102
RTVSPropertyOp14
 70
     1
102
RTVSPropertyOp15
 70
     1
102
RTVSPropertyOp16
 70
     1
102
RTVSPropertyOp17
 70
     1
102
RTVSPropertyOp18
 70
     1
102
RTVSPropertyOp19
 70
     1
102
RTVSPropertyOp20
 70
     1
102
RTVSPropertyOp21
 70
     1
102
RTVSPropertyOp22
 70
     1
102
RTVSPropertyOp23
 70
     1
102
RTVSPropertyOp24
 70
     1
102
RTVSPropertyOp25
 70
     1
102
RTVSPropertyOp26
 70
     1
102
RTVSPropertyOp27
 70
     1
102
RTVSPropertyOp28
 70
     1
102
RTVSPropertyOp29
 70
     1
102
RTVSPropertyOp30
 70
     1
102
RTVSPropertyOp31
 70
     1
102
RTVSPropertyOp32
 70
     1
102
RTVSPropertyOp33
 70
     1
102
RTVSPropertyOp34
 70
     1
102
RTVSPropertyOp35
 70
     1
102
RTVSPropertyOp36
 70
     1
102
RTVSPropertyOp37
 70
     1
102
RTVSPropertyOp38
 70
     1
102
RTVSPropertyOp39
 70
     1
102
RTVSPropertyOp40
 70
     1
102
RTVSPropertyOp41
 70
     1
102
RTVSPropertyOp42
 70
     1
102
RTVSPropertyOp43
 70
     1
102
RTVSPropertyOp44
 70
     1
102
RTVSPropertyOp45
 70
     1
102
RTVSPropertyOp46
 70
     1
102
RTVSPropertyOp47
 70
     1
102
RTVSPropertyOp48
 70
     1
102
RTVSPropertyOp49
 70
     1
102
RTVSPropertyOp50
 70
     1
102
RTVSPropertyOp51
 70
     0
102
RTVSPropertyOp52
 70
     0
102
RTVSPropertyOp53
 70
     1
102
RTVSPropertyOp54
 70
     1
102
RTVSPropertyOp55
 70
     1
102
RTVSPropertyOp56
 70
     1
102
RTVSPropertyOp57
 70
     1
102
RTVSPost2010Prop28
280
     1
102
RTVSPost2010PropOp28
 70
     1
102
RTVSPost2010Prop29
280
     1
102
RTVSPost2010PropOp29
 70
     1
102
RTVSPost2010Prop30
280
     0
102
RTVSPost2010PropOp30
 70
     1
102
RTVSPost2010Prop31
280
     0
102
RTVSPost2010PropOp31
 70
     1
102
RTVSPost2010Prop32
280
     0
102
RTVSPost2010PropOp32
 70
     1
102
RTVSPost2010Prop33
280
     0
102
RTVSPost2010PropOp33
 70
     1
102
RTVSPost2010Prop34
280
     0
102
RTVSPost2010PropOp34
 70
     1
102
RTVSPost2010Prop35
280
     0
102
RTVSPost2010PropOp35
 70
     1
102
RTVSPost2010Prop36
280
     0
102
RTVSPost2010PropOp36
 70
     1
102
RTVSPost2010Prop37
 90
       50
102
RTVSPost2010PropOp37
 70
     1
102
RTVSPost2010Prop38
140
0.0
102
RTVSPost2010PropOp38
 70
     1
102
RTVSPost2010Prop39
140
1.0
102
RTVSPost2010PropOp39
 70
     1
102
RTVSPost2010Prop40
 90
        0
102
RTVSPost2010PropOp40
 70
     1
102
RTVSPost2010Prop41ColorIndex
 90
       18
102
RTVSPost2010Prop41ColorRGB
 90
        0
102
RTVSPost2010PropOp41
 70
     1
102
RTVSPost2010Prop42
 90
       50
102
RTVSPost2010PropOp42
 70
     1
102
RTVSPost2010Prop43
 90
        3
102
RTVSPost2010PropOp43
 70
     1
102
RTVSPost2010Prop44ColorIndex
 90
        5
102
RTVSPost2010Prop44ColorRGB
 90
      255
102
RTVSPost2010PropOp44
 70
     1
102
RTVSPost2010Prop45
280
     0
102
RTVSPost2010PropOp45
 70
     1
102
RTVSPost2010Prop46
 90
       50
102
RTVSPost2010PropOp46
 70
     1
102
RTVSPost2010Prop47
 90
       50
102
RTVSPost2010PropOp47
 70
     1
102
RTVSPost2010Prop48
 90
       50
102
RTVSPost2010PropOp48
 70
     1
102
RTVSPost2010Prop49
280
     0
102
RTVSPost2010PropOp49
 70
     1
102
RTVSPost2010Prop50
 90
       50
102
RTVSPost2010PropOp50
 70
     1
102
RTVSPost2010Prop51ColorIndex
 90
      256
102
RTVSPost2010Prop51ColorRGB
 90
-16777216
102
RTVSPost2010PropOp51
 70
     0
102
RTVSPost2010Prop52
140
1.0
102
RTVSPost2010PropOp52
 70
     0
102
RTVSPost2010Prop53
 90
        2
102
RTVSPost2010PropOp53
 70
     1
102
RTVSPost2010Prop54
  1
strokes_ogs.tif
102
RTVSPost2010PropOp54
 70
     1
102
RTVSPost2010Prop55
280
     0
102
RTVSPost2010PropOp55
 70
     1
102
RTVSPost2010Prop56
140
1.0
102
RTVSPost2010PropOp56
 70
     1
102
RTVSPost2010Prop57
140
1.0
102
RTVSPost2010PropOp57
 70
     1
  0
XRECORD
  5
7A6
102
{ACAD_REACTORS
330
7A5
102
}
330
7A5
100
AcDbXrecord
280
     1
102
RTVSPropertyOp0
 70
     1
102
RTVSPropertyOp1
 70
     1
102
RTVSPropertyOp2
 70
     1
102
RTVSPropertyOp3
 70
     1
102
RTVSPropertyOp4
 70
     1
102
RTVSPropertyOp5
 70
     1
102
RTVSPropertyOp6
 70
     1
102
RTVSPropertyOp7
 70
     1
102
RTVSPropertyOp8
 70
     1
102
RTVSPropertyOp9
 70
     1
102
RTVSPropertyOp10
 70
     1
102
RTVSPropertyOp11
 70
     1
102
RTVSPropertyOp12
 70
     1
102
RTVSPropertyOp13
 70
     1
102
RTVSPropertyOp14
 70
     1
102
RTVSPropertyOp15
 70
     1
102
RTVSPropertyOp16
 70
     1
102
RTVSPropertyOp17
 70
     1
102
RTVSPropertyOp18
 70
     1
102
RTVSPropertyOp19
 70
     1
102
RTVSPropertyOp20
 70
     1
102
RTVSPropertyOp21
 70
     1
102
RTVSPropertyOp22
 70
     1
102
RTVSPropertyOp23
 70
     1
102
RTVSPropertyOp24
 70
     1
102
RTVSPropertyOp25
 70
     1
102
RTVSPropertyOp26
 70
     1
102
RTVSPropertyOp27
 70
     1
102
RTVSPropertyOp28
 70
     1
102
RTVSPropertyOp29
 70
     1
102
RTVSPropertyOp30
 70
     1
102
RTVSPropertyOp31
 70
     1
102
RTVSPropertyOp32
 70
     1
102
RTVSPropertyOp33
 70
     1
102
RTVSPropertyOp34
 70
     1
102
RTVSPropertyOp35
 70
     1
102
RTVSPropertyOp36
 70
     1
102
RTVSPropertyOp37
 70
     1
102
RTVSPropertyOp38
 70
     1
102
RTVSPropertyOp39
 70
     1
102
RTVSPropertyOp40
 70
     1
102
RTVSPropertyOp41
 70
     1
102
RTVSPropertyOp42
 70
     1
102
RTVSPropertyOp43
 70
     1
102
RTVSPropertyOp44
 70
     1
102
RTVSPropertyOp45
 70
     1
102
RTVSPropertyOp46
 70
     1
102
RTVSPropertyOp47
 70
     1
102
RTVSPropertyOp48
 70
     1
102
RTVSPropertyOp49
 70
     1
102
RTVSPropertyOp50
 70
     1
102
RTVSPropertyOp51
 70
     0
102
RTVSPropertyOp52
 70
     0
102
RTVSPropertyOp53
 70
     1
102
RTVSPropertyOp54
 70
     1
102
RTVSPropertyOp55
 70
     1
102
RTVSPropertyOp56
 70
     1
102
RTVSPropertyOp57
 70
     1
102
RTVSPost2010Prop28
280
     0
102
RTVSPost2010PropOp28
 70
     1
102
RTVSPost2010Prop29
280
     1
102
RTVSPost2010PropOp29
 70
     1
102
RTVSPost2010Prop30
280
     1
102
RTVSPost2010PropOp30
 70
     1
102
RTVSPost2010Prop31
280
     0
102
RTVSPost2010PropOp31
 70
     1
102
RTVSPost2010Prop32
280
     0
102
RTVSPost2010PropOp32
 70
     1
102
RTVSPost2010Prop33
280
     0
102
RTVSPost2010PropOp33
 70
     1
102
RTVSPost2010Prop34
280
     0
102
RTVSPost2010PropOp34
 70
     1
102
RTVSPost2010Prop35
280
     0
102
RTVSPost2010PropOp35
 70
     1
102
RTVSPost2010Prop36
280
     0
102
RTVSPost2010PropOp36
 70
     1
102
RTVSPost2010Prop37
 90
       50
102
RTVSPost2010PropOp37
 70
     1
102
RTVSPost2010Prop38
140
0.0
102
RTVSPost2010PropOp38
 70
     1
102
RTVSPost2010Prop39
140
1.0
102
RTVSPost2010PropOp39
 70
     1
102
RTVSPost2010Prop40
 90
        0
102
RTVSPost2010PropOp40
 70
     1
102
RTVSPost2010Prop41ColorIndex
 90
       18
102
RTVSPost2010Prop41ColorRGB
 90
        0
102
RTVSPost2010PropOp41
 70
     1
102
RTVSPost2010Prop42
 90
       50
102
RTVSPost2010PropOp42
 70
     1
102
RTVSPost2010Prop43
 90
        3
102
RTVSPost2010PropOp43
 70
     1
102
RTVSPost2010Prop44ColorIndex
 90
        5
102
RTVSPost2010Prop44ColorRGB
 90
      255
102
RTVSPost2010PropOp44
 70
     1
102
RTVSPost2010Prop45
280
     0
102
RTVSPost2010PropOp45
 70
     1
102
RTVSPost2010Prop46
 90
       50
102
RTVSPost2010PropOp46
 70
     1
102
RTVSPost2010Prop47
 90
       50
102
RTVSPost2010PropOp47
 70
     1
102
RTVSPost2010Prop48
 90
       50
102
RTVSPost2010PropOp48
 70
     1
102
RTVSPost2010Prop49
280
     0
102
RTVSPost2010PropOp49
 70
     1
102
RTVSPost2010Prop50
 90
       50
102
RTVSPost2010PropOp50
 70
     1
102
RTVSPost2010Prop51ColorIndex
 90
      256
102
RTVSPost2010Prop51ColorRGB
 90
-16777216
102
RTVSPost2010PropOp51
 70
     0
102
RTVSPost2010Prop52
140
1.0
102
RTVSPost2010PropOp52
 70
     0
102
RTVSPost2010Prop53
 90
        2
102
RTVSPost2010PropOp53
 70
     1
102
RTVSPost2010Prop54
  1
strokes_ogs.tif
102
RTVSPost2010PropOp54
 70
     1
102
RTVSPost2010Prop55
280
     0
102
RTVSPost2010PropOp55
 70
     1
102
RTVSPost2010Prop56
140
1.0
102
RTVSPost2010PropOp56
 70
     1
102
RTVSPost2010Prop57
140
1.0
102
RTVSPost2010PropOp57
 70
     1
  0
XRECORD
  5
7AE
102
{ACAD_REACTORS
330
7AD
102
}
330
7AD
100
AcDbXrecord
280
     1
102
RTVSPropertyOp0
 70
     1
102
RTVSPropertyOp1
 70
     1
102
RTVSPropertyOp2
 70
     1
102
RTVSPropertyOp3
 70
     1
102
RTVSPropertyOp4
 70
     1
102
RTVSPropertyOp5
 70
     1
102
RTVSPropertyOp6
 70
     1
102
RTVSPropertyOp7
 70
     1
102
RTVSPropertyOp8
 70
     1
102
RTVSPropertyOp9
 70
     1
102
RTVSPropertyOp10
 70
     1
102
RTVSPropertyOp11
 70
     1
102
RTVSPropertyOp12
 70
     1
102
RTVSPropertyOp13
 70
     1
102
RTVSPropertyOp14
 70
     1
102
RTVSPropertyOp15
 70
     1
102
RTVSPropertyOp16
 70
     1
102
RTVSPropertyOp17
 70
     1
102
RTVSPropertyOp18
 70
     1
102
RTVSPropertyOp19
 70
     1
102
RTVSPropertyOp20
 70
     1
102
RTVSPropertyOp21
 70
     1
102
RTVSPropertyOp22
 70
     1
102
RTVSPropertyOp23
 70
     1
102
RTVSPropertyOp24
 70
     1
102
RTVSPropertyOp25
 70
     1
102
RTVSPropertyOp26
 70
     1
102
RTVSPropertyOp27
 70
     1
102
RTVSPropertyOp28
 70
     1
102
RTVSPropertyOp29
 70
     1
102
RTVSPropertyOp30
 70
     1
102
RTVSPropertyOp31
 70
     1
102
RTVSPropertyOp32
 70
     1
102
RTVSPropertyOp33
 70
     1
102
RTVSPropertyOp34
 70
     1
102
RTVSPropertyOp35
 70
     1
102
RTVSPropertyOp36
 70
     1
102
RTVSPropertyOp37
 70
     1
102
RTVSPropertyOp38
 70
     1
102
RTVSPropertyOp39
 70
     1
102
RTVSPropertyOp40
 70
     1
102
RTVSPropertyOp41
 70
     1
102
RTVSPropertyOp42
 70
     1
102
RTVSPropertyOp43
 70
     1
102
RTVSPropertyOp44
 70
     1
102
RTVSPropertyOp45
 70
     1
102
RTVSPropertyOp46
 70
     1
102
RTVSPropertyOp47
 70
     1
102
RTVSPropertyOp48
 70
     1
102
RTVSPropertyOp49
 70
     1
102
RTVSPropertyOp50
 70
     1
102
RTVSPropertyOp51
 70
     0
102
RTVSPropertyOp52
 70
     0
102
RTVSPropertyOp53
 70
     1
102
RTVSPropertyOp54
 70
     1
102
RTVSPropertyOp55
 70
     1
102
RTVSPropertyOp56
 70
     1
102
RTVSPropertyOp57
 70
     1
102
RTVSPost2010Prop28
280
     0
102
RTVSPost2010PropOp28
 70
     1
102
RTVSPost2010Prop29
280
     1
102
RTVSPost2010PropOp29
 70
     1
102
RTVSPost2010Prop30
280
     1
102
RTVSPost2010PropOp30
 70
     1
102
RTVSPost2010Prop31
280
     0
102
RTVSPost2010PropOp31
 70
     1
102
RTVSPost2010Prop32
280
     0
102
RTVSPost2010PropOp32
 70
     1
102
RTVSPost2010Prop33
280
     0
102
RTVSPost2010PropOp33
 70
     1
102
RTVSPost2010Prop34
280
     0
102
RTVSPost2010PropOp34
 70
     1
102
RTVSPost2010Prop35
280
     0
102
RTVSPost2010PropOp35
 70
     1
102
RTVSPost2010Prop36
280
     0
102
RTVSPost2010PropOp36
 70
     1
102
RTVSPost2010Prop37
 90
       50
102
RTVSPost2010PropOp37
 70
     1
102
RTVSPost2010Prop38
140
0.0
102
RTVSPost2010PropOp38
 70
     1
102
RTVSPost2010Prop39
140
1.0
102
RTVSPost2010PropOp39
 70
     1
102
RTVSPost2010Prop40
 90
        0
102
RTVSPost2010PropOp40
 70
     1
102
RTVSPost2010Prop41ColorIndex
 90
       18
102
RTVSPost2010Prop41ColorRGB
 90
        0
102
RTVSPost2010PropOp41
 70
     1
102
RTVSPost2010Prop42
 90
       50
102
RTVSPost2010PropOp42
 70
     1
102
RTVSPost2010Prop43
 90
        3
102
RTVSPost2010PropOp43
 70
     1
102
RTVSPost2010Prop44ColorIndex
 90
        5
102
RTVSPost2010Prop44ColorRGB
 90
      255
102
RTVSPost2010PropOp44
 70
     1
102
RTVSPost2010Prop45
280
     0
102
RTVSPost2010PropOp45
 70
     1
102
RTVSPost2010Prop46
 90
       50
102
RTVSPost2010PropOp46
 70
     1
102
RTVSPost2010Prop47
 90
       50
102
RTVSPost2010PropOp47
 70
     1
102
RTVSPost2010Prop48
 90
       50
102
RTVSPost2010PropOp48
 70
     1
102
RTVSPost2010Prop49
280
     0
102
RTVSPost2010PropOp49
 70
     1
102
RTVSPost2010Prop50
 90
       50
102
RTVSPost2010PropOp50
 70
     1
102
RTVSPost2010Prop51ColorIndex
 90
      256
102
RTVSPost2010Prop51ColorRGB
 90
-16777216
102
RTVSPost2010PropOp51
 70
     0
102
RTVSPost2010Prop52
140
1.0
102
RTVSPost2010PropOp52
 70
     0
102
RTVSPost2010Prop53
 90
        2
102
RTVSPost2010PropOp53
 70
     1
102
RTVSPost2010Prop54
  1
strokes_ogs.tif
102
RTVSPost2010PropOp54
 70
     1
102
RTVSPost2010Prop55
280
     0
102
RTVSPost2010PropOp55
 70
     1
102
RTVSPost2010Prop56
140
1.0
102
RTVSPost2010PropOp56
 70
     1
102
RTVSPost2010Prop57
140
1.0
102
RTVSPost2010PropOp57
 70
     1
  0
XRECORD
  5
7B6
102
{ACAD_REACTORS
330
7B5
102
}
330
7B5
100
AcDbXrecord
280
     1
102
RTVSPropertyOp0
 70
     1
102
RTVSPropertyOp1
 70
     1
102
RTVSPropertyOp2
 70
     1
102
RTVSPropertyOp3
 70
     1
102
RTVSPropertyOp4
 70
     1
102
RTVSPropertyOp5
 70
     1
102
RTVSPropertyOp6
 70
     1
102
RTVSPropertyOp7
 70
     1
102
RTVSPropertyOp8
 70
     1
102
RTVSPropertyOp9
 70
     1
102
RTVSPropertyOp10
 70
     1
102
RTVSPropertyOp11
 70
     1
102
RTVSPropertyOp12
 70
     1
102
RTVSPropertyOp13
 70
     1
102
RTVSPropertyOp14
 70
     1
102
RTVSPropertyOp15
 70
     1
102
RTVSPropertyOp16
 70
     1
102
RTVSPropertyOp17
 70
     1
102
RTVSPropertyOp18
 70
     1
102
RTVSPropertyOp19
 70
     1
102
RTVSPropertyOp20
 70
     1
102
RTVSPropertyOp21
 70
     1
102
RTVSPropertyOp22
 70
     1
102
RTVSPropertyOp23
 70
     1
102
RTVSPropertyOp24
 70
     1
102
RTVSPropertyOp25
 70
     1
102
RTVSPropertyOp26
 70
     1
102
RTVSPropertyOp27
 70
     1
102
RTVSPropertyOp28
 70
     1
102
RTVSPropertyOp29
 70
     1
102
RTVSPropertyOp30
 70
     1
102
RTVSPropertyOp31
 70
     1
102
RTVSPropertyOp32
 70
     1
102
RTVSPropertyOp33
 70
     1
102
RTVSPropertyOp34
 70
     1
102
RTVSPropertyOp35
 70
     1
102
RTVSPropertyOp36
 70
     1
102
RTVSPropertyOp37
 70
     1
102
RTVSPropertyOp38
 70
     1
102
RTVSPropertyOp39
 70
     1
102
RTVSPropertyOp40
 70
     1
102
RTVSPropertyOp41
 70
     1
102
RTVSPropertyOp42
 70
     1
102
RTVSPropertyOp43
 70
     1
102
RTVSPropertyOp44
 70
     1
102
RTVSPropertyOp45
 70
     1
102
RTVSPropertyOp46
 70
     1
102
RTVSPropertyOp47
 70
     1
102
RTVSPropertyOp48
 70
     1
102
RTVSPropertyOp49
 70
     1
102
RTVSPropertyOp50
 70
     1
102
RTVSPropertyOp51
 70
     0
102
RTVSPropertyOp52
 70
     0
102
RTVSPropertyOp53
 70
     1
102
RTVSPropertyOp54
 70
     1
102
RTVSPropertyOp55
 70
     1
102
RTVSPropertyOp56
 70
     1
102
RTVSPropertyOp57
 70
     1
102
RTVSPost2010Prop28
280
     0
102
RTVSPost2010PropOp28
 70
     1
102
RTVSPost2010Prop29
280
     1
102
RTVSPost2010PropOp29
 70
     1
102
RTVSPost2010Prop30
280
     1
102
RTVSPost2010PropOp30
 70
     1
102
RTVSPost2010Prop31
280
     0
102
RTVSPost2010PropOp31
 70
     1
102
RTVSPost2010Prop32
280
     0
102
RTVSPost2010PropOp32
 70
     1
102
RTVSPost2010Prop33
280
     0
102
RTVSPost2010PropOp33
 70
     1
102
RTVSPost2010Prop34
280
     0
102
RTVSPost2010PropOp34
 70
     1
102
RTVSPost2010Prop35
280
     0
102
RTVSPost2010PropOp35
 70
     1
102
RTVSPost2010Prop36
280
     0
102
RTVSPost2010PropOp36
 70
     1
102
RTVSPost2010Prop37
 90
       50
102
RTVSPost2010PropOp37
 70
     1
102
RTVSPost2010Prop38
140
0.0
102
RTVSPost2010PropOp38
 70
     1
102
RTVSPost2010Prop39
140
1.0
102
RTVSPost2010PropOp39
 70
     1
102
RTVSPost2010Prop40
 90
        0
102
RTVSPost2010PropOp40
 70
     1
102
RTVSPost2010Prop41ColorIndex
 90
       18
102
RTVSPost2010Prop41ColorRGB
 90
        0
102
RTVSPost2010PropOp41
 70
     1
102
RTVSPost2010Prop42
 90
       50
102
RTVSPost2010PropOp42
 70
     1
102
RTVSPost2010Prop43
 90
        3
102
RTVSPost2010PropOp43
 70
     1
102
RTVSPost2010Prop44ColorIndex
 90
        5
102
RTVSPost2010Prop44ColorRGB
 90
      255
102
RTVSPost2010PropOp44
 70
     1
102
RTVSPost2010Prop45
280
     0
102
RTVSPost2010PropOp45
 70
     1
102
RTVSPost2010Prop46
 90
       50
102
RTVSPost2010PropOp46
 70
     1
102
RTVSPost2010Prop47
 90
       50
102
RTVSPost2010PropOp47
 70
     1
102
RTVSPost2010Prop48
 90
       50
102
RTVSPost2010PropOp48
 70
     1
102
RTVSPost2010Prop49
280
     0
102
RTVSPost2010PropOp49
 70
     1
102
RTVSPost2010Prop50
 90
       50
102
RTVSPost2010PropOp50
 70
     1
102
RTVSPost2010Prop51ColorIndex
 90
      256
102
RTVSPost2010Prop51ColorRGB
 90
-16777216
102
RTVSPost2010PropOp51
 70
     0
102
RTVSPost2010Prop52
140
1.0
102
RTVSPost2010PropOp52
 70
     0
102
RTVSPost2010Prop53
 90
        2
102
RTVSPost2010PropOp53
 70
     1
102
RTVSPost2010Prop54
  1
strokes_ogs.tif
102
RTVSPost2010PropOp54
 70
     1
102
RTVSPost2010Prop55
280
     0
102
RTVSPost2010PropOp55
 70
     1
102
RTVSPost2010Prop56
140
1.0
102
RTVSPost2010PropOp56
 70
     1
102
RTVSPost2010Prop57
140
1.0
102
RTVSPost2010PropOp57
 70
     1
  0
XRECORD
  5
7AA
102
{ACAD_REACTORS
330
7A9
102
}
330
7A9
100
AcDbXrecord
280
     1
102
RTVSPropertyOp0
 70
     1
102
RTVSPropertyOp1
 70
     1
102
RTVSPropertyOp2
 70
     1
102
RTVSPropertyOp3
 70
     1
102
RTVSPropertyOp4
 70
     1
102
RTVSPropertyOp5
 70
     1
102
RTVSPropertyOp6
 70
     1
102
RTVSPropertyOp7
 70
     1
102
RTVSPropertyOp8
 70
     1
102
RTVSPropertyOp9
 70
     1
102
RTVSPropertyOp10
 70
     1
102
RTVSPropertyOp11
 70
     1
102
RTVSPropertyOp12
 70
     1
102
RTVSPropertyOp13
 70
     1
102
RTVSPropertyOp14
 70
     1
102
RTVSPropertyOp15
 70
     1
102
RTVSPropertyOp16
 70
     1
102
RTVSPropertyOp17
 70
     1
102
RTVSPropertyOp18
 70
     1
102
RTVSPropertyOp19
 70
     1
102
RTVSPropertyOp20
 70
     1
102
RTVSPropertyOp21
 70
     1
102
RTVSPropertyOp22
 70
     1
102
RTVSPropertyOp23
 70
     1
102
RTVSPropertyOp24
 70
     1
102
RTVSPropertyOp25
 70
     1
102
RTVSPropertyOp26
 70
     1
102
RTVSPropertyOp27
 70
     1
102
RTVSPropertyOp28
 70
     1
102
RTVSPropertyOp29
 70
     1
102
RTVSPropertyOp30
 70
     1
102
RTVSPropertyOp31
 70
     1
102
RTVSPropertyOp32
 70
     1
102
RTVSPropertyOp33
 70
     1
102
RTVSPropertyOp34
 70
     1
102
RTVSPropertyOp35
 70
     1
102
RTVSPropertyOp36
 70
     1
102
RTVSPropertyOp37
 70
     1
102
RTVSPropertyOp38
 70
     1
102
RTVSPropertyOp39
 70
     1
102
RTVSPropertyOp40
 70
     1
102
RTVSPropertyOp41
 70
     1
102
RTVSPropertyOp42
 70
     1
102
RTVSPropertyOp43
 70
     1
102
RTVSPropertyOp44
 70
     1
102
RTVSPropertyOp45
 70
     1
102
RTVSPropertyOp46
 70
     1
102
RTVSPropertyOp47
 70
     1
102
RTVSPropertyOp48
 70
     1
102
RTVSPropertyOp49
 70
     1
102
RTVSPropertyOp50
 70
     1
102
RTVSPropertyOp51
 70
     0
102
RTVSPropertyOp52
 70
     0
102
RTVSPropertyOp53
 70
     1
102
RTVSPropertyOp54
 70
     1
102
RTVSPropertyOp55
 70
     1
102
RTVSPropertyOp56
 70
     1
102
RTVSPropertyOp57
 70
     1
102
RTVSPost2010Prop28
280
     0
102
RTVSPost2010PropOp28
 70
     1
102
RTVSPost2010Prop29
280
     1
102
RTVSPost2010PropOp29
 70
     1
102
RTVSPost2010Prop30
280
     1
102
RTVSPost2010PropOp30
 70
     1
102
RTVSPost2010Prop31
280
     0
102
RTVSPost2010PropOp31
 70
     1
102
RTVSPost2010Prop32
280
     0
102
RTVSPost2010PropOp32
 70
     1
102
RTVSPost2010Prop33
280
     0
102
RTVSPost2010PropOp33
 70
     1
102
RTVSPost2010Prop34
280
     0
102
RTVSPost2010PropOp34
 70
     1
102
RTVSPost2010Prop35
280
     0
102
RTVSPost2010PropOp35
 70
     1
102
RTVSPost2010Prop36
280
     0
102
RTVSPost2010PropOp36
 70
     1
102
RTVSPost2010Prop37
 90
       50
102
RTVSPost2010PropOp37
 70
     1
102
RTVSPost2010Prop38
140
0.0
102
RTVSPost2010PropOp38
 70
     1
102
RTVSPost2010Prop39
140
1.0
102
RTVSPost2010PropOp39
 70
     1
102
RTVSPost2010Prop40
 90
        0
102
RTVSPost2010PropOp40
 70
     1
102
RTVSPost2010Prop41ColorIndex
 90
       18
102
RTVSPost2010Prop41ColorRGB
 90
        0
102
RTVSPost2010PropOp41
 70
     1
102
RTVSPost2010Prop42
 90
       50
102
RTVSPost2010PropOp42
 70
     1
102
RTVSPost2010Prop43
 90
        3
102
RTVSPost2010PropOp43
 70
     1
102
RTVSPost2010Prop44ColorIndex
 90
        5
102
RTVSPost2010Prop44ColorRGB
 90
      255
102
RTVSPost2010PropOp44
 70
     1
102
RTVSPost2010Prop45
280
     0
102
RTVSPost2010PropOp45
 70
     1
102
RTVSPost2010Prop46
 90
       50
102
RTVSPost2010PropOp46
 70
     1
102
RTVSPost2010Prop47
 90
       50
102
RTVSPost2010PropOp47
 70
     1
102
RTVSPost2010Prop48
 90
       50
102
RTVSPost2010PropOp48
 70
     1
102
RTVSPost2010Prop49
280
     0
102
RTVSPost2010PropOp49
 70
     1
102
RTVSPost2010Prop50
 90
       50
102
RTVSPost2010PropOp50
 70
     1
102
RTVSPost2010Prop51ColorIndex
 90
      256
102
RTVSPost2010Prop51ColorRGB
 90
-16777216
102
RTVSPost2010PropOp51
 70
     0
102
RTVSPost2010Prop52
140
1.0
102
RTVSPost2010PropOp52
 70
     0
102
RTVSPost2010Prop53
 90
        2
102
RTVSPost2010PropOp53
 70
     1
102
RTVSPost2010Prop54
  1
strokes_ogs.tif
102
RTVSPost2010PropOp54
 70
     1
102
RTVSPost2010Prop55
280
     0
102
RTVSPost2010PropOp55
 70
     1
102
RTVSPost2010Prop56
140
1.0
102
RTVSPost2010PropOp56
 70
     1
102
RTVSPost2010Prop57
140
1.0
102
RTVSPost2010PropOp57
 70
     1
  0
XRECORD
  5
7AC
102
{ACAD_REACTORS
330
7AB
102
}
330
7AB
100
AcDbXrecord
280
     1
102
RTVSPropertyOp0
 70
     1
102
RTVSPropertyOp1
 70
     1
102
RTVSPropertyOp2
 70
     1
102
RTVSPropertyOp3
 70
     1
102
RTVSPropertyOp4
 70
     1
102
RTVSPropertyOp5
 70
     1
102
RTVSPropertyOp6
 70
     1
102
RTVSPropertyOp7
 70
     1
102
RTVSPropertyOp8
 70
     1
102
RTVSPropertyOp9
 70
     1
102
RTVSPropertyOp10
 70
     1
102
RTVSPropertyOp11
 70
     1
102
RTVSPropertyOp12
 70
     1
102
RTVSPropertyOp13
 70
     1
102
RTVSPropertyOp14
 70
     1
102
RTVSPropertyOp15
 70
     1
102
RTVSPropertyOp16
 70
     1
102
RTVSPropertyOp17
 70
     1
102
RTVSPropertyOp18
 70
     1
102
RTVSPropertyOp19
 70
     1
102
RTVSPropertyOp20
 70
     1
102
RTVSPropertyOp21
 70
     1
102
RTVSPropertyOp22
 70
     1
102
RTVSPropertyOp23
 70
     1
102
RTVSPropertyOp24
 70
     1
102
RTVSPropertyOp25
 70
     1
102
RTVSPropertyOp26
 70
     1
102
RTVSPropertyOp27
 70
     1
102
RTVSPropertyOp28
 70
     1
102
RTVSPropertyOp29
 70
     1
102
RTVSPropertyOp30
 70
     1
102
RTVSPropertyOp31
 70
     1
102
RTVSPropertyOp32
 70
     1
102
RTVSPropertyOp33
 70
     1
102
RTVSPropertyOp34
 70
     1
102
RTVSPropertyOp35
 70
     1
102
RTVSPropertyOp36
 70
     1
102
RTVSPropertyOp37
 70
     1
102
RTVSPropertyOp38
 70
     1
102
RTVSPropertyOp39
 70
     1
102
RTVSPropertyOp40
 70
     1
102
RTVSPropertyOp41
 70
     1
102
RTVSPropertyOp42
 70
     1
102
RTVSPropertyOp43
 70
     1
102
RTVSPropertyOp44
 70
     1
102
RTVSPropertyOp45
 70
     1
102
RTVSPropertyOp46
 70
     1
102
RTVSPropertyOp47
 70
     1
102
RTVSPropertyOp48
 70
     1
102
RTVSPropertyOp49
 70
     1
102
RTVSPropertyOp50
 70
     1
102
RTVSPropertyOp51
 70
     0
102
RTVSPropertyOp52
 70
     0
102
RTVSPropertyOp53
 70
     1
102
RTVSPropertyOp54
 70
     1
102
RTVSPropertyOp55
 70
     1
102
RTVSPropertyOp56
 70
     1
102
RTVSPropertyOp57
 70
     1
102
RTVSPost2010Prop28
280
     0
102
RTVSPost2010PropOp28
 70
     1
102
RTVSPost2010Prop29
280
     1
102
RTVSPost2010PropOp29
 70
     1
102
RTVSPost2010Prop30
280
     1
102
RTVSPost2010PropOp30
 70
     1
102
RTVSPost2010Prop31
280
     0
102
RTVSPost2010PropOp31
 70
     1
102
RTVSPost2010Prop32
280
     0
102
RTVSPost2010PropOp32
 70
     1
102
RTVSPost2010Prop33
280
     0
102
RTVSPost2010PropOp33
 70
     1
102
RTVSPost2010Prop34
280
     0
102
RTVSPost2010PropOp34
 70
     1
102
RTVSPost2010Prop35
280
     0
102
RTVSPost2010PropOp35
 70
     1
102
RTVSPost2010Prop36
280
     0
102
RTVSPost2010PropOp36
 70
     1
102
RTVSPost2010Prop37
 90
       50
102
RTVSPost2010PropOp37
 70
     1
102
RTVSPost2010Prop38
140
0.0
102
RTVSPost2010PropOp38
 70
     1
102
RTVSPost2010Prop39
140
1.0
102
RTVSPost2010PropOp39
 70
     1
102
RTVSPost2010Prop40
 90
        0
102
RTVSPost2010PropOp40
 70
     1
102
RTVSPost2010Prop41ColorIndex
 90
       18
102
RTVSPost2010Prop41ColorRGB
 90
        0
102
RTVSPost2010PropOp41
 70
     1
102
RTVSPost2010Prop42
 90
       50
102
RTVSPost2010PropOp42
 70
     1
102
RTVSPost2010Prop43
 90
        3
102
RTVSPost2010PropOp43
 70
     1
102
RTVSPost2010Prop44ColorIndex
 90
        5
102
RTVSPost2010Prop44ColorRGB
 90
      255
102
RTVSPost2010PropOp44
 70
     1
102
RTVSPost2010Prop45
280
     0
102
RTVSPost2010PropOp45
 70
     1
102
RTVSPost2010Prop46
 90
       50
102
RTVSPost2010PropOp46
 70
     1
102
RTVSPost2010Prop47
 90
       50
102
RTVSPost2010PropOp47
 70
     1
102
RTVSPost2010Prop48
 90
       50
102
RTVSPost2010PropOp48
 70
     1
102
RTVSPost2010Prop49
280
     0
102
RTVSPost2010PropOp49
 70
     1
102
RTVSPost2010Prop50
 90
       50
102
RTVSPost2010PropOp50
 70
     1
102
RTVSPost2010Prop51ColorIndex
 90
      256
102
RTVSPost2010Prop51ColorRGB
 90
-16777216
102
RTVSPost2010PropOp51
 70
     0
102
RTVSPost2010Prop52
140
1.0
102
RTVSPost2010PropOp52
 70
     0
102
RTVSPost2010Prop53
 90
        2
102
RTVSPost2010PropOp53
 70
     1
102
RTVSPost2010Prop54
  1
strokes_ogs.tif
102
RTVSPost2010PropOp54
 70
     1
102
RTVSPost2010Prop55
280
     0
102
RTVSPost2010PropOp55
 70
     1
102
RTVSPost2010Prop56
140
1.0
102
RTVSPost2010PropOp56
 70
     1
102
RTVSPost2010Prop57
140
1.0
102
RTVSPost2010PropOp57
 70
     1
  0
XRECORD
  5
7BC
102
{ACAD_REACTORS
330
7BB
102
}
330
7BB
100
AcDbXrecord
280
     1
102
RTVSPropertyOp0
 70
     0
102
RTVSPropertyOp1
 70
     0
102
RTVSPropertyOp2
 70
     0
102
RTVSPropertyOp3
 70
     0
102
RTVSPropertyOp4
 70
     0
102
RTVSPropertyOp5
 70
     0
102
RTVSPropertyOp6
 70
     0
102
RTVSPropertyOp7
 70
     0
102
RTVSPropertyOp8
 70
     0
102
RTVSPropertyOp9
 70
     0
102
RTVSPropertyOp10
 70
     0
102
RTVSPropertyOp11
 70
     0
102
RTVSPropertyOp12
 70
     0
102
RTVSPropertyOp13
 70
     0
102
RTVSPropertyOp14
 70
     0
102
RTVSPropertyOp15
 70
     0
102
RTVSPropertyOp16
 70
     0
102
RTVSPropertyOp17
 70
     0
102
RTVSPropertyOp18
 70
     0
102
RTVSPropertyOp19
 70
     0
102
RTVSPropertyOp20
 70
     0
102
RTVSPropertyOp21
 70
     0
102
RTVSPropertyOp22
 70
     0
102
RTVSPropertyOp23
 70
     0
102
RTVSPropertyOp24
 70
     0
102
RTVSPropertyOp25
 70
     0
102
RTVSPropertyOp26
 70
     0
102
RTVSPropertyOp27
 70
     0
102
RTVSPropertyOp28
 70
     1
102
RTVSPropertyOp29
 70
     1
102
RTVSPropertyOp30
 70
     1
102
RTVSPropertyOp31
 70
     1
102
RTVSPropertyOp32
 70
     1
102
RTVSPropertyOp33
 70
     1
102
RTVSPropertyOp34
 70
     1
102
RTVSPropertyOp35
 70
     1
102
RTVSPropertyOp36
 70
     1
102
RTVSPropertyOp37
 70
     1
102
RTVSPropertyOp38
 70
     1
102
RTVSPropertyOp39
 70
     1
102
RTVSPropertyOp40
 70
     1
102
RTVSPropertyOp41
 70
     1
102
RTVSPropertyOp42
 70
     1
102
RTVSPropertyOp43
 70
     1
102
RTVSPropertyOp44
 70
     1
102
RTVSPropertyOp45
 70
     1
102
RTVSPropertyOp46
 70
     1
102
RTVSPropertyOp47
 70
     1
102
RTVSPropertyOp48
 70
     1
102
RTVSPropertyOp49
 70
     1
102
RTVSPropertyOp50
 70
     1
102
RTVSPropertyOp51
 70
     0
102
RTVSPropertyOp52
 70
     0
102
RTVSPropertyOp53
 70
     1
102
RTVSPropertyOp54
 70
     1
102
RTVSPropertyOp55
 70
     1
102
RTVSPropertyOp56
 70
     1
102
RTVSPropertyOp57
 70
     1
102
RTVSPost2010Prop28
280
     0
102
RTVSPost2010PropOp28
 70
     1
102
RTVSPost2010Prop29
280
     1
102
RTVSPost2010PropOp29
 70
     1
102
RTVSPost2010Prop30
280
     1
102
RTVSPost2010PropOp30
 70
     1
102
RTVSPost2010Prop31
280
     0
102
RTVSPost2010PropOp31
 70
     1
102
RTVSPost2010Prop32
280
     0
102
RTVSPost2010PropOp32
 70
     1
102
RTVSPost2010Prop33
280
     0
102
RTVSPost2010PropOp33
 70
     1
102
RTVSPost2010Prop34
280
     0
102
RTVSPost2010PropOp34
 70
     1
102
RTVSPost2010Prop35
280
     0
102
RTVSPost2010PropOp35
 70
     1
102
RTVSPost2010Prop36
280
     0
102
RTVSPost2010PropOp36
 70
     1
102
RTVSPost2010Prop37
 90
       50
102
RTVSPost2010PropOp37
 70
     1
102
RTVSPost2010Prop38
140
0.0
102
RTVSPost2010PropOp38
 70
     1
102
RTVSPost2010Prop39
140
1.0
102
RTVSPost2010PropOp39
 70
     1
102
RTVSPost2010Prop40
 90
        0
102
RTVSPost2010PropOp40
 70
     1
102
RTVSPost2010Prop41ColorIndex
 90
       18
102
RTVSPost2010Prop41ColorRGB
 90
        0
102
RTVSPost2010PropOp41
 70
     1
102
RTVSPost2010Prop42
 90
       50
102
RTVSPost2010PropOp42
 70
     1
102
RTVSPost2010Prop43
 90
        3
102
RTVSPost2010PropOp43
 70
     1
102
RTVSPost2010Prop44ColorIndex
 90
        5
102
RTVSPost2010Prop44ColorRGB
 90
      255
102
RTVSPost2010PropOp44
 70
     1
102
RTVSPost2010Prop45
280
     0
102
RTVSPost2010PropOp45
 70
     1
102
RTVSPost2010Prop46
 90
       50
102
RTVSPost2010PropOp46
 70
     1
102
RTVSPost2010Prop47
 90
       50
102
RTVSPost2010PropOp47
 70
     1
102
RTVSPost2010Prop48
 90
       50
102
RTVSPost2010PropOp48
 70
     1
102
RTVSPost2010Prop49
280
     0
102
RTVSPost2010PropOp49
 70
     1
102
RTVSPost2010Prop50
 90
       50
102
RTVSPost2010PropOp50
 70
     1
102
RTVSPost2010Prop51ColorIndex
 90
      256
102
RTVSPost2010Prop51ColorRGB
 90
-16777216
102
RTVSPost2010PropOp51
 70
     0
102
RTVSPost2010Prop52
140
1.0
102
RTVSPost2010PropOp52
 70
     0
102
RTVSPost2010Prop53
 90
        2
102
RTVSPost2010PropOp53
 70
     1
102
RTVSPost2010Prop54
  1
strokes_ogs.tif
102
RTVSPost2010PropOp54
 70
     1
102
RTVSPost2010Prop55
280
     0
102
RTVSPost2010PropOp55
 70
     1
102
RTVSPost2010Prop56
140
1.0
102
RTVSPost2010PropOp56
 70
     1
102
RTVSPost2010Prop57
140
1.0
102
RTVSPost2010PropOp57
 70
     1
  0
XRECORD
  5
7B4
102
{ACAD_REACTORS
330
7B3
102
}
330
7B3
100
AcDbXrecord
280
     1
102
RTVSPropertyOp0
 70
     1
102
RTVSPropertyOp1
 70
     1
102
RTVSPropertyOp2
 70
     1
102
RTVSPropertyOp3
 70
     1
102
RTVSPropertyOp4
 70
     1
102
RTVSPropertyOp5
 70
     1
102
RTVSPropertyOp6
 70
     1
102
RTVSPropertyOp7
 70
     1
102
RTVSPropertyOp8
 70
     1
102
RTVSPropertyOp9
 70
     1
102
RTVSPropertyOp10
 70
     1
102
RTVSPropertyOp11
 70
     1
102
RTVSPropertyOp12
 70
     1
102
RTVSPropertyOp13
 70
     1
102
RTVSPropertyOp14
 70
     1
102
RTVSPropertyOp15
 70
     1
102
RTVSPropertyOp16
 70
     1
102
RTVSPropertyOp17
 70
     1
102
RTVSPropertyOp18
 70
     1
102
RTVSPropertyOp19
 70
     1
102
RTVSPropertyOp20
 70
     1
102
RTVSPropertyOp21
 70
     1
102
RTVSPropertyOp22
 70
     1
102
RTVSPropertyOp23
 70
     1
102
RTVSPropertyOp24
 70
     1
102
RTVSPropertyOp25
 70
     1
102
RTVSPropertyOp26
 70
     1
102
RTVSPropertyOp27
 70
     1
102
RTVSPropertyOp28
 70
     1
102
RTVSPropertyOp29
 70
     1
102
RTVSPropertyOp30
 70
     1
102
RTVSPropertyOp31
 70
     1
102
RTVSPropertyOp32
 70
     1
102
RTVSPropertyOp33
 70
     1
102
RTVSPropertyOp34
 70
     1
102
RTVSPropertyOp35
 70
     1
102
RTVSPropertyOp36
 70
     1
102
RTVSPropertyOp37
 70
     1
102
RTVSPropertyOp38
 70
     1
102
RTVSPropertyOp39
 70
     1
102
RTVSPropertyOp40
 70
     1
102
RTVSPropertyOp41
 70
     1
102
RTVSPropertyOp42
 70
     1
102
RTVSPropertyOp43
 70
     1
102
RTVSPropertyOp44
 70
     1
102
RTVSPropertyOp45
 70
     1
102
RTVSPropertyOp46
 70
     1
102
RTVSPropertyOp47
 70
     1
102
RTVSPropertyOp48
 70
     1
102
RTVSPropertyOp49
 70
     1
102
RTVSPropertyOp50
 70
     1
102
RTVSPropertyOp51
 70
     0
102
RTVSPropertyOp52
 70
     0
102
RTVSPropertyOp53
 70
     1
102
RTVSPropertyOp54
 70
     1
102
RTVSPropertyOp55
 70
     1
102
RTVSPropertyOp56
 70
     1
102
RTVSPropertyOp57
 70
     1
102
RTVSPost2010Prop28
280
     0
102
RTVSPost2010PropOp28
 70
     1
102
RTVSPost2010Prop29
280
     1
102
RTVSPost2010PropOp29
 70
     1
102
RTVSPost2010Prop30
280
     1
102
RTVSPost2010PropOp30
 70
     1
102
RTVSPost2010Prop31
280
     0
102
RTVSPost2010PropOp31
 70
     1
102
RTVSPost2010Prop32
280
     0
102
RTVSPost2010PropOp32
 70
     1
102
RTVSPost2010Prop33
280
     0
102
RTVSPost2010PropOp33
 70
     1
102
RTVSPost2010Prop34
280
     0
102
RTVSPost2010PropOp34
 70
     1
102
RTVSPost2010Prop35
280
     0
102
RTVSPost2010PropOp35
 70
     1
102
RTVSPost2010Prop36
280
     0
102
RTVSPost2010PropOp36
 70
     1
102
RTVSPost2010Prop37
 90
       50
102
RTVSPost2010PropOp37
 70
     1
102
RTVSPost2010Prop38
140
0.0
102
RTVSPost2010PropOp38
 70
     1
102
RTVSPost2010Prop39
140
1.0
102
RTVSPost2010PropOp39
 70
     1
102
RTVSPost2010Prop40
 90
        0
102
RTVSPost2010PropOp40
 70
     1
102
RTVSPost2010Prop41ColorIndex
 90
       18
102
RTVSPost2010Prop41ColorRGB
 90
        0
102
RTVSPost2010PropOp41
 70
     1
102
RTVSPost2010Prop42
 90
       50
102
RTVSPost2010PropOp42
 70
     1
102
RTVSPost2010Prop43
 90
        3
102
RTVSPost2010PropOp43
 70
     1
102
RTVSPost2010Prop44ColorIndex
 90
        5
102
RTVSPost2010Prop44ColorRGB
 90
      255
102
RTVSPost2010PropOp44
 70
     1
102
RTVSPost2010Prop45
280
     0
102
RTVSPost2010PropOp45
 70
     1
102
RTVSPost2010Prop46
 90
       50
102
RTVSPost2010PropOp46
 70
     1
102
RTVSPost2010Prop47
 90
       50
102
RTVSPost2010PropOp47
 70
     1
102
RTVSPost2010Prop48
 90
       50
102
RTVSPost2010PropOp48
 70
     1
102
RTVSPost2010Prop49
280
     0
102
RTVSPost2010PropOp49
 70
     1
102
RTVSPost2010Prop50
 90
       50
102
RTVSPost2010PropOp50
 70
     1
102
RTVSPost2010Prop51ColorIndex
 90
      256
102
RTVSPost2010Prop51ColorRGB
 90
-16777216
102
RTVSPost2010PropOp51
 70
     0
102
RTVSPost2010Prop52
140
1.0
102
RTVSPost2010PropOp52
 70
     0
102
RTVSPost2010Prop53
 90
        2
102
RTVSPost2010PropOp53
 70
     1
102
RTVSPost2010Prop54
  1
strokes_ogs.tif
102
RTVSPost2010PropOp54
 70
     1
102
RTVSPost2010Prop55
280
     0
102
RTVSPost2010PropOp55
 70
     1
102
RTVSPost2010Prop56
140
1.0
102
RTVSPost2010PropOp56
 70
     1
102
RTVSPost2010Prop57
140
1.0
102
RTVSPost2010PropOp57
 70
     1
  0
XRECORD
  5
798
102
{ACAD_REACTORS
330
797
102
}
330
797
100
AcDbXrecord
280
     1
102
RTVSPropertyOp0
 70
     1
102
RTVSPropertyOp1
 70
     1
102
RTVSPropertyOp2
 70
     1
102
RTVSPropertyOp3
 70
     1
102
RTVSPropertyOp4
 70
     1
102
RTVSPropertyOp5
 70
     1
102
RTVSPropertyOp6
 70
     1
102
RTVSPropertyOp7
 70
     1
102
RTVSPropertyOp8
 70
     1
102
RTVSPropertyOp9
 70
     1
102
RTVSPropertyOp10
 70
     1
102
RTVSPropertyOp11
 70
     1
102
RTVSPropertyOp12
 70
     1
102
RTVSPropertyOp13
 70
     1
102
RTVSPropertyOp14
 70
     1
102
RTVSPropertyOp15
 70
     1
102
RTVSPropertyOp16
 70
     1
102
RTVSPropertyOp17
 70
     1
102
RTVSPropertyOp18
 70
     1
102
RTVSPropertyOp19
 70
     1
102
RTVSPropertyOp20
 70
     1
102
RTVSPropertyOp21
 70
     1
102
RTVSPropertyOp22
 70
     1
102
RTVSPropertyOp23
 70
     1
102
RTVSPropertyOp24
 70
     1
102
RTVSPropertyOp25
 70
     1
102
RTVSPropertyOp26
 70
     1
102
RTVSPropertyOp27
 70
     1
102
RTVSPropertyOp28
 70
     1
102
RTVSPropertyOp29
 70
     1
102
RTVSPropertyOp30
 70
     1
102
RTVSPropertyOp31
 70
     1
102
RTVSPropertyOp32
 70
     1
102
RTVSPropertyOp33
 70
     1
102
RTVSPropertyOp34
 70
     1
102
RTVSPropertyOp35
 70
     1
102
RTVSPropertyOp36
 70
     1
102
RTVSPropertyOp37
 70
     1
102
RTVSPropertyOp38
 70
     1
102
RTVSPropertyOp39
 70
     1
102
RTVSPropertyOp40
 70
     1
102
RTVSPropertyOp41
 70
     1
102
RTVSPropertyOp42
 70
     1
102
RTVSPropertyOp43
 70
     1
102
RTVSPropertyOp44
 70
     1
102
RTVSPropertyOp45
 70
     1
102
RTVSPropertyOp46
 70
     1
102
RTVSPropertyOp47
 70
     1
102
RTVSPropertyOp48
 70
     1
102
RTVSPropertyOp49
 70
     1
102
RTVSPropertyOp50
 70
     1
102
RTVSPropertyOp51
 70
     0
102
RTVSPropertyOp52
 70
     0
102
RTVSPropertyOp53
 70
     1
102
RTVSPropertyOp54
 70
     1
102
RTVSPropertyOp55
 70
     1
102
RTVSPropertyOp56
 70
     1
102
RTVSPropertyOp57
 70
     1
102
RTVSPost2010Prop28
280
     0
102
RTVSPost2010PropOp28
 70
     1
102
RTVSPost2010Prop29
280
     1
102
RTVSPost2010PropOp29
 70
     1
102
RTVSPost2010Prop30
280
     1
102
RTVSPost2010PropOp30
 70
     1
102
RTVSPost2010Prop31
280
     0
102
RTVSPost2010PropOp31
 70
     1
102
RTVSPost2010Prop32
280
     0
102
RTVSPost2010PropOp32
 70
     1
102
RTVSPost2010Prop33
280
     0
102
RTVSPost2010PropOp33
 70
     1
102
RTVSPost2010Prop34
280
     0
102
RTVSPost2010PropOp34
 70
     1
102
RTVSPost2010Prop35
280
     0
102
RTVSPost2010PropOp35
 70
     1
102
RTVSPost2010Prop36
280
     0
102
RTVSPost2010PropOp36
 70
     1
102
RTVSPost2010Prop37
 90
       50
102
RTVSPost2010PropOp37
 70
     1
102
RTVSPost2010Prop38
140
0.0
102
RTVSPost2010PropOp38
 70
     1
102
RTVSPost2010Prop39
140
1.0
102
RTVSPost2010PropOp39
 70
     1
102
RTVSPost2010Prop40
 90
        0
102
RTVSPost2010PropOp40
 70
     1
102
RTVSPost2010Prop41ColorIndex
 90
       18
102
RTVSPost2010Prop41ColorRGB
 90
        0
102
RTVSPost2010PropOp41
 70
     1
102
RTVSPost2010Prop42
 90
       50
102
RTVSPost2010PropOp42
 70
     1
102
RTVSPost2010Prop43
 90
        3
102
RTVSPost2010PropOp43
 70
     1
102
RTVSPost2010Prop44ColorIndex
 90
        5
102
RTVSPost2010Prop44ColorRGB
 90
      255
102
RTVSPost2010PropOp44
 70
     1
102
RTVSPost2010Prop45
280
     0
102
RTVSPost2010PropOp45
 70
     1
102
RTVSPost2010Prop46
 90
       50
102
RTVSPost2010PropOp46
 70
     1
102
RTVSPost2010Prop47
 90
       50
102
RTVSPost2010PropOp47
 70
     1
102
RTVSPost2010Prop48
 90
       50
102
RTVSPost2010PropOp48
 70
     1
102
RTVSPost2010Prop49
280
     0
102
RTVSPost2010PropOp49
 70
     1
102
RTVSPost2010Prop50
 90
       50
102
RTVSPost2010PropOp50
 70
     1
102
RTVSPost2010Prop51ColorIndex
 90
      256
102
RTVSPost2010Prop51ColorRGB
 90
-16777216
102
RTVSPost2010PropOp51
 70
     0
102
RTVSPost2010Prop52
140
1.0
102
RTVSPost2010PropOp52
 70
     0
102
RTVSPost2010Prop53
 90
        2
102
RTVSPost2010PropOp53
 70
     1
102
RTVSPost2010Prop54
  1
strokes_ogs.tif
102
RTVSPost2010PropOp54
 70
     1
102
RTVSPost2010Prop55
280
     0
102
RTVSPost2010PropOp55
 70
     1
102
RTVSPost2010Prop56
140
1.0
102
RTVSPost2010PropOp56
 70
     1
102
RTVSPost2010Prop57
140
1.0
102
RTVSPost2010PropOp57
 70
     1
  0
XRECORD
  5
79A
102
{ACAD_REACTORS
330
799
102
}
330
799
100
AcDbXrecord
280
     1
102
RTVSPropertyOp0
 70
     1
102
RTVSPropertyOp1
 70
     1
102
RTVSPropertyOp2
 70
     1
102
RTVSPropertyOp3
 70
     1
102
RTVSPropertyOp4
 70
     1
102
RTVSPropertyOp5
 70
     1
102
RTVSPropertyOp6
 70
     1
102
RTVSPropertyOp7
 70
     1
102
RTVSPropertyOp8
 70
     1
102
RTVSPropertyOp9
 70
     1
102
RTVSPropertyOp10
 70
     1
102
RTVSPropertyOp11
 70
     1
102
RTVSPropertyOp12
 70
     1
102
RTVSPropertyOp13
 70
     1
102
RTVSPropertyOp14
 70
     1
102
RTVSPropertyOp15
 70
     1
102
RTVSPropertyOp16
 70
     1
102
RTVSPropertyOp17
 70
     1
102
RTVSPropertyOp18
 70
     1
102
RTVSPropertyOp19
 70
     1
102
RTVSPropertyOp20
 70
     1
102
RTVSPropertyOp21
 70
     1
102
RTVSPropertyOp22
 70
     1
102
RTVSPropertyOp23
 70
     1
102
RTVSPropertyOp24
 70
     1
102
RTVSPropertyOp25
 70
     1
102
RTVSPropertyOp26
 70
     1
102
RTVSPropertyOp27
 70
     1
102
RTVSPropertyOp28
 70
     1
102
RTVSPropertyOp29
 70
     1
102
RTVSPropertyOp30
 70
     1
102
RTVSPropertyOp31
 70
     1
102
RTVSPropertyOp32
 70
     1
102
RTVSPropertyOp33
 70
     1
102
RTVSPropertyOp34
 70
     1
102
RTVSPropertyOp35
 70
     1
102
RTVSPropertyOp36
 70
     1
102
RTVSPropertyOp37
 70
     1
102
RTVSPropertyOp38
 70
     1
102
RTVSPropertyOp39
 70
     1
102
RTVSPropertyOp40
 70
     1
102
RTVSPropertyOp41
 70
     1
102
RTVSPropertyOp42
 70
     1
102
RTVSPropertyOp43
 70
     1
102
RTVSPropertyOp44
 70
     1
102
RTVSPropertyOp45
 70
     1
102
RTVSPropertyOp46
 70
     1
102
RTVSPropertyOp47
 70
     1
102
RTVSPropertyOp48
 70
     1
102
RTVSPropertyOp49
 70
     1
102
RTVSPropertyOp50
 70
     1
102
RTVSPropertyOp51
 70
     0
102
RTVSPropertyOp52
 70
     0
102
RTVSPropertyOp53
 70
     1
102
RTVSPropertyOp54
 70
     1
102
RTVSPropertyOp55
 70
     1
102
RTVSPropertyOp56
 70
     1
102
RTVSPropertyOp57
 70
     1
102
RTVSPost2010Prop28
280
     0
102
RTVSPost2010PropOp28
 70
     1
102
RTVSPost2010Prop29
280
     1
102
RTVSPost2010PropOp29
 70
     1
102
RTVSPost2010Prop30
280
     1
102
RTVSPost2010PropOp30
 70
     1
102
RTVSPost2010Prop31
280
     0
102
RTVSPost2010PropOp31
 70
     1
102
RTVSPost2010Prop32
280
     0
102
RTVSPost2010PropOp32
 70
     1
102
RTVSPost2010Prop33
280
     0
102
RTVSPost2010PropOp33
 70
     1
102
RTVSPost2010Prop34
280
     0
102
RTVSPost2010PropOp34
 70
     1
102
RTVSPost2010Prop35
280
     0
102
RTVSPost2010PropOp35
 70
     1
102
RTVSPost2010Prop36
280
     0
102
RTVSPost2010PropOp36
 70
     1
102
RTVSPost2010Prop37
 90
       50
102
RTVSPost2010PropOp37
 70
     1
102
RTVSPost2010Prop38
140
0.0
102
RTVSPost2010PropOp38
 70
     1
102
RTVSPost2010Prop39
140
1.0
102
RTVSPost2010PropOp39
 70
     1
102
RTVSPost2010Prop40
 90
        0
102
RTVSPost2010PropOp40
 70
     1
102
RTVSPost2010Prop41ColorIndex
 90
       18
102
RTVSPost2010Prop41ColorRGB
 90
        0
102
RTVSPost2010PropOp41
 70
     1
102
RTVSPost2010Prop42
 90
       50
102
RTVSPost2010PropOp42
 70
     1
102
RTVSPost2010Prop43
 90
        3
102
RTVSPost2010PropOp43
 70
     1
102
RTVSPost2010Prop44ColorIndex
 90
        5
102
RTVSPost2010Prop44ColorRGB
 90
      255
102
RTVSPost2010PropOp44
 70
     1
102
RTVSPost2010Prop45
280
     0
102
RTVSPost2010PropOp45
 70
     1
102
RTVSPost2010Prop46
 90
       50
102
RTVSPost2010PropOp46
 70
     1
102
RTVSPost2010Prop47
 90
       50
102
RTVSPost2010PropOp47
 70
     1
102
RTVSPost2010Prop48
 90
       50
102
RTVSPost2010PropOp48
 70
     1
102
RTVSPost2010Prop49
280
     0
102
RTVSPost2010PropOp49
 70
     1
102
RTVSPost2010Prop50
 90
       50
102
RTVSPost2010PropOp50
 70
     1
102
RTVSPost2010Prop51ColorIndex
 90
      256
102
RTVSPost2010Prop51ColorRGB
 90
-16777216
102
RTVSPost2010PropOp51
 70
     0
102
RTVSPost2010Prop52
140
1.0
102
RTVSPost2010PropOp52
 70
     0
102
RTVSPost2010Prop53
 90
        2
102
RTVSPost2010PropOp53
 70
     1
102
RTVSPost2010Prop54
  1
strokes_ogs.tif
102
RTVSPost2010PropOp54
 70
     1
102
RTVSPost2010Prop55
280
     0
102
RTVSPost2010PropOp55
 70
     1
102
RTVSPost2010Prop56
140
1.0
102
RTVSPost2010PropOp56
 70
     1
102
RTVSPost2010Prop57
140
1.0
102
RTVSPost2010PropOp57
 70
     1
  0
XRECORD
  5
79C
102
{ACAD_REACTORS
330
79B
102
}
330
79B
100
AcDbXrecord
280
     1
102
RTVSPropertyOp0
 70
     1
102
RTVSPropertyOp1
 70
     1
102
RTVSPropertyOp2
 70
     1
102
RTVSPropertyOp3
 70
     1
102
RTVSPropertyOp4
 70
     1
102
RTVSPropertyOp5
 70
     1
102
RTVSPropertyOp6
 70
     1
102
RTVSPropertyOp7
 70
     1
102
RTVSPropertyOp8
 70
     1
102
RTVSPropertyOp9
 70
     1
102
RTVSPropertyOp10
 70
     1
102
RTVSPropertyOp11
 70
     1
102
RTVSPropertyOp12
 70
     1
102
RTVSPropertyOp13
 70
     1
102
RTVSPropertyOp14
 70
     1
102
RTVSPropertyOp15
 70
     1
102
RTVSPropertyOp16
 70
     1
102
RTVSPropertyOp17
 70
     1
102
RTVSPropertyOp18
 70
     1
102
RTVSPropertyOp19
 70
     1
102
RTVSPropertyOp20
 70
     1
102
RTVSPropertyOp21
 70
     1
102
RTVSPropertyOp22
 70
     1
102
RTVSPropertyOp23
 70
     1
102
RTVSPropertyOp24
 70
     1
102
RTVSPropertyOp25
 70
     1
102
RTVSPropertyOp26
 70
     1
102
RTVSPropertyOp27
 70
     1
102
RTVSPropertyOp28
 70
     1
102
RTVSPropertyOp29
 70
     1
102
RTVSPropertyOp30
 70
     1
102
RTVSPropertyOp31
 70
     1
102
RTVSPropertyOp32
 70
     1
102
RTVSPropertyOp33
 70
     1
102
RTVSPropertyOp34
 70
     1
102
RTVSPropertyOp35
 70
     1
102
RTVSPropertyOp36
 70
     1
102
RTVSPropertyOp37
 70
     1
102
RTVSPropertyOp38
 70
     1
102
RTVSPropertyOp39
 70
     1
102
RTVSPropertyOp40
 70
     1
102
RTVSPropertyOp41
 70
     1
102
RTVSPropertyOp42
 70
     1
102
RTVSPropertyOp43
 70
     1
102
RTVSPropertyOp44
 70
     1
102
RTVSPropertyOp45
 70
     1
102
RTVSPropertyOp46
 70
     1
102
RTVSPropertyOp47
 70
     1
102
RTVSPropertyOp48
 70
     1
102
RTVSPropertyOp49
 70
     1
102
RTVSPropertyOp50
 70
     1
102
RTVSPropertyOp51
 70
     0
102
RTVSPropertyOp52
 70
     0
102
RTVSPropertyOp53
 70
     1
102
RTVSPropertyOp54
 70
     1
102
RTVSPropertyOp55
 70
     1
102
RTVSPropertyOp56
 70
     1
102
RTVSPropertyOp57
 70
     1
102
RTVSPost2010Prop28
280
     0
102
RTVSPost2010PropOp28
 70
     1
102
RTVSPost2010Prop29
280
     1
102
RTVSPost2010PropOp29
 70
     1
102
RTVSPost2010Prop30
280
     1
102
RTVSPost2010PropOp30
 70
     1
102
RTVSPost2010Prop31
280
     0
102
RTVSPost2010PropOp31
 70
     1
102
RTVSPost2010Prop32
280
     0
102
RTVSPost2010PropOp32
 70
     1
102
RTVSPost2010Prop33
280
     0
102
RTVSPost2010PropOp33
 70
     1
102
RTVSPost2010Prop34
280
     0
102
RTVSPost2010PropOp34
 70
     1
102
RTVSPost2010Prop35
280
     0
102
RTVSPost2010PropOp35
 70
     1
102
RTVSPost2010Prop36
280
     0
102
RTVSPost2010PropOp36
 70
     1
102
RTVSPost2010Prop37
 90
       50
102
RTVSPost2010PropOp37
 70
     1
102
RTVSPost2010Prop38
140
0.0
102
RTVSPost2010PropOp38
 70
     1
102
RTVSPost2010Prop39
140
1.0
102
RTVSPost2010PropOp39
 70
     1
102
RTVSPost2010Prop40
 90
        0
102
RTVSPost2010PropOp40
 70
     1
102
RTVSPost2010Prop41ColorIndex
 90
       18
102
RTVSPost2010Prop41ColorRGB
 90
        0
102
RTVSPost2010PropOp41
 70
     1
102
RTVSPost2010Prop42
 90
       50
102
RTVSPost2010PropOp42
 70
     1
102
RTVSPost2010Prop43
 90
        3
102
RTVSPost2010PropOp43
 70
     1
102
RTVSPost2010Prop44ColorIndex
 90
        5
102
RTVSPost2010Prop44ColorRGB
 90
      255
102
RTVSPost2010PropOp44
 70
     1
102
RTVSPost2010Prop45
280
     0
102
RTVSPost2010PropOp45
 70
     1
102
RTVSPost2010Prop46
 90
       50
102
RTVSPost2010PropOp46
 70
     1
102
RTVSPost2010Prop47
 90
       50
102
RTVSPost2010PropOp47
 70
     1
102
RTVSPost2010Prop48
 90
       50
102
RTVSPost2010PropOp48
 70
     1
102
RTVSPost2010Prop49
280
     0
102
RTVSPost2010PropOp49
 70
     1
102
RTVSPost2010Prop50
 90
       50
102
RTVSPost2010PropOp50
 70
     1
102
RTVSPost2010Prop51ColorIndex
 90
      256
102
RTVSPost2010Prop51ColorRGB
 90
-16777216
102
RTVSPost2010PropOp51
 70
     0
102
RTVSPost2010Prop52
140
1.0
102
RTVSPost2010PropOp52
 70
     0
102
RTVSPost2010Prop53
 90
        2
102
RTVSPost2010PropOp53
 70
     1
102
RTVSPost2010Prop54
  1
strokes_ogs.tif
102
RTVSPost2010PropOp54
 70
     1
102
RTVSPost2010Prop55
280
     0
102
RTVSPost2010PropOp55
 70
     1
102
RTVSPost2010Prop56
140
1.0
102
RTVSPost2010PropOp56
 70
     1
102
RTVSPost2010Prop57
140
1.0
102
RTVSPost2010PropOp57
 70
     1
  0
XRECORD
  5
79E
102
{ACAD_REACTORS
330
79D
102
}
330
79D
100
AcDbXrecord
280
     1
102
RTVSPropertyOp0
 70
     1
102
RTVSPropertyOp1
 70
     1
102
RTVSPropertyOp2
 70
     1
102
RTVSPropertyOp3
 70
     1
102
RTVSPropertyOp4
 70
     1
102
RTVSPropertyOp5
 70
     1
102
RTVSPropertyOp6
 70
     1
102
RTVSPropertyOp7
 70
     1
102
RTVSPropertyOp8
 70
     1
102
RTVSPropertyOp9
 70
     1
102
RTVSPropertyOp10
 70
     1
102
RTVSPropertyOp11
 70
     1
102
RTVSPropertyOp12
 70
     1
102
RTVSPropertyOp13
 70
     1
102
RTVSPropertyOp14
 70
     1
102
RTVSPropertyOp15
 70
     1
102
RTVSPropertyOp16
 70
     1
102
RTVSPropertyOp17
 70
     1
102
RTVSPropertyOp18
 70
     1
102
RTVSPropertyOp19
 70
     1
102
RTVSPropertyOp20
 70
     1
102
RTVSPropertyOp21
 70
     1
102
RTVSPropertyOp22
 70
     1
102
RTVSPropertyOp23
 70
     1
102
RTVSPropertyOp24
 70
     1
102
RTVSPropertyOp25
 70
     1
102
RTVSPropertyOp26
 70
     1
102
RTVSPropertyOp27
 70
     1
102
RTVSPropertyOp28
 70
     1
102
RTVSPropertyOp29
 70
     1
102
RTVSPropertyOp30
 70
     1
102
RTVSPropertyOp31
 70
     1
102
RTVSPropertyOp32
 70
     1
102
RTVSPropertyOp33
 70
     1
102
RTVSPropertyOp34
 70
     1
102
RTVSPropertyOp35
 70
     1
102
RTVSPropertyOp36
 70
     1
102
RTVSPropertyOp37
 70
     1
102
RTVSPropertyOp38
 70
     1
102
RTVSPropertyOp39
 70
     1
102
RTVSPropertyOp40
 70
     1
102
RTVSPropertyOp41
 70
     1
102
RTVSPropertyOp42
 70
     1
102
RTVSPropertyOp43
 70
     1
102
RTVSPropertyOp44
 70
     1
102
RTVSPropertyOp45
 70
     1
102
RTVSPropertyOp46
 70
     1
102
RTVSPropertyOp47
 70
     1
102
RTVSPropertyOp48
 70
     1
102
RTVSPropertyOp49
 70
     1
102
RTVSPropertyOp50
 70
     1
102
RTVSPropertyOp51
 70
     0
102
RTVSPropertyOp52
 70
     0
102
RTVSPropertyOp53
 70
     1
102
RTVSPropertyOp54
 70
     1
102
RTVSPropertyOp55
 70
     1
102
RTVSPropertyOp56
 70
     1
102
RTVSPropertyOp57
 70
     1
102
RTVSPost2010Prop28
280
     0
102
RTVSPost2010PropOp28
 70
     1
102
RTVSPost2010Prop29
280
     1
102
RTVSPost2010PropOp29
 70
     1
102
RTVSPost2010Prop30
280
     1
102
RTVSPost2010PropOp30
 70
     1
102
RTVSPost2010Prop31
280
     0
102
RTVSPost2010PropOp31
 70
     1
102
RTVSPost2010Prop32
280
     0
102
RTVSPost2010PropOp32
 70
     1
102
RTVSPost2010Prop33
280
     0
102
RTVSPost2010PropOp33
 70
     1
102
RTVSPost2010Prop34
280
     0
102
RTVSPost2010PropOp34
 70
     1
102
RTVSPost2010Prop35
280
     0
102
RTVSPost2010PropOp35
 70
     1
102
RTVSPost2010Prop36
280
     0
102
RTVSPost2010PropOp36
 70
     1
102
RTVSPost2010Prop37
 90
       50
102
RTVSPost2010PropOp37
 70
     1
102
RTVSPost2010Prop38
140
0.0
102
RTVSPost2010PropOp38
 70
     1
102
RTVSPost2010Prop39
140
1.0
102
RTVSPost2010PropOp39
 70
     1
102
RTVSPost2010Prop40
 90
        0
102
RTVSPost2010PropOp40
 70
     1
102
RTVSPost2010Prop41ColorIndex
 90
       18
102
RTVSPost2010Prop41ColorRGB
 90
        0
102
RTVSPost2010PropOp41
 70
     1
102
RTVSPost2010Prop42
 90
       50
102
RTVSPost2010PropOp42
 70
     1
102
RTVSPost2010Prop43
 90
        3
102
RTVSPost2010PropOp43
 70
     1
102
RTVSPost2010Prop44ColorIndex
 90
        5
102
RTVSPost2010Prop44ColorRGB
 90
      255
102
RTVSPost2010PropOp44
 70
     1
102
RTVSPost2010Prop45
280
     0
102
RTVSPost2010PropOp45
 70
     1
102
RTVSPost2010Prop46
 90
       50
102
RTVSPost2010PropOp46
 70
     1
102
RTVSPost2010Prop47
 90
       50
102
RTVSPost2010PropOp47
 70
     1
102
RTVSPost2010Prop48
 90
       50
102
RTVSPost2010PropOp48
 70
     1
102
RTVSPost2010Prop49
280
     0
102
RTVSPost2010PropOp49
 70
     1
102
RTVSPost2010Prop50
 90
       50
102
RTVSPost2010PropOp50
 70
     1
102
RTVSPost2010Prop51ColorIndex
 90
      256
102
RTVSPost2010Prop51ColorRGB
 90
-16777216
102
RTVSPost2010PropOp51
 70
     0
102
RTVSPost2010Prop52
140
1.0
102
RTVSPost2010PropOp52
 70
     0
102
RTVSPost2010Prop53
 90
        2
102
RTVSPost2010PropOp53
 70
     1
102
RTVSPost2010Prop54
  1
strokes_ogs.tif
102
RTVSPost2010PropOp54
 70
     1
102
RTVSPost2010Prop55
280
     0
102
RTVSPost2010PropOp55
 70
     1
102
RTVSPost2010Prop56
140
1.0
102
RTVSPost2010PropOp56
 70
     1
102
RTVSPost2010Prop57
140
1.0
102
RTVSPost2010PropOp57
 70
     1
  0
XRECORD
  5
7A4
102
{ACAD_REACTORS
330
7A3
102
}
330
7A3
100
AcDbXrecord
280
     1
102
RTVSPropertyOp0
 70
     1
102
RTVSPropertyOp1
 70
     1
102
RTVSPropertyOp2
 70
     1
102
RTVSPropertyOp3
 70
     1
102
RTVSPropertyOp4
 70
     1
102
RTVSPropertyOp5
 70
     1
102
RTVSPropertyOp6
 70
     1
102
RTVSPropertyOp7
 70
     1
102
RTVSPropertyOp8
 70
     1
102
RTVSPropertyOp9
 70
     1
102
RTVSPropertyOp10
 70
     1
102
RTVSPropertyOp11
 70
     1
102
RTVSPropertyOp12
 70
     1
102
RTVSPropertyOp13
 70
     1
102
RTVSPropertyOp14
 70
     1
102
RTVSPropertyOp15
 70
     1
102
RTVSPropertyOp16
 70
     1
102
RTVSPropertyOp17
 70
     1
102
RTVSPropertyOp18
 70
     1
102
RTVSPropertyOp19
 70
     1
102
RTVSPropertyOp20
 70
     1
102
RTVSPropertyOp21
 70
     1
102
RTVSPropertyOp22
 70
     1
102
RTVSPropertyOp23
 70
     1
102
RTVSPropertyOp24
 70
     1
102
RTVSPropertyOp25
 70
     1
102
RTVSPropertyOp26
 70
     1
102
RTVSPropertyOp27
 70
     1
102
RTVSPropertyOp28
 70
     1
102
RTVSPropertyOp29
 70
     1
102
RTVSPropertyOp30
 70
     1
102
RTVSPropertyOp31
 70
     1
102
RTVSPropertyOp32
 70
     1
102
RTVSPropertyOp33
 70
     1
102
RTVSPropertyOp34
 70
     1
102
RTVSPropertyOp35
 70
     1
102
RTVSPropertyOp36
 70
     1
102
RTVSPropertyOp37
 70
     1
102
RTVSPropertyOp38
 70
     1
102
RTVSPropertyOp39
 70
     1
102
RTVSPropertyOp40
 70
     1
102
RTVSPropertyOp41
 70
     1
102
RTVSPropertyOp42
 70
     1
102
RTVSPropertyOp43
 70
     1
102
RTVSPropertyOp44
 70
     1
102
RTVSPropertyOp45
 70
     1
102
RTVSPropertyOp46
 70
     1
102
RTVSPropertyOp47
 70
     1
102
RTVSPropertyOp48
 70
     1
102
RTVSPropertyOp49
 70
     1
102
RTVSPropertyOp50
 70
     1
102
RTVSPropertyOp51
 70
     0
102
RTVSPropertyOp52
 70
     0
102
RTVSPropertyOp53
 70
     1
102
RTVSPropertyOp54
 70
     1
102
RTVSPropertyOp55
 70
     1
102
RTVSPropertyOp56
 70
     1
102
RTVSPropertyOp57
 70
     1
102
RTVSPost2010Prop28
280
     0
102
RTVSPost2010PropOp28
 70
     1
102
RTVSPost2010Prop29
280
     1
102
RTVSPost2010PropOp29
 70
     1
102
RTVSPost2010Prop30
280
     1
102
RTVSPost2010PropOp30
 70
     1
102
RTVSPost2010Prop31
280
     0
102
RTVSPost2010PropOp31
 70
     1
102
RTVSPost2010Prop32
280
     0
102
RTVSPost2010PropOp32
 70
     1
102
RTVSPost2010Prop33
280
     0
102
RTVSPost2010PropOp33
 70
     1
102
RTVSPost2010Prop34
280
     0
102
RTVSPost2010PropOp34
 70
     1
102
RTVSPost2010Prop35
280
     0
102
RTVSPost2010PropOp35
 70
     1
102
RTVSPost2010Prop36
280
     0
102
RTVSPost2010PropOp36
 70
     1
102
RTVSPost2010Prop37
 90
       50
102
RTVSPost2010PropOp37
 70
     1
102
RTVSPost2010Prop38
140
0.0
102
RTVSPost2010PropOp38
 70
     1
102
RTVSPost2010Prop39
140
1.0
102
RTVSPost2010PropOp39
 70
     1
102
RTVSPost2010Prop40
 90
        0
102
RTVSPost2010PropOp40
 70
     1
102
RTVSPost2010Prop41ColorIndex
 90
       18
102
RTVSPost2010Prop41ColorRGB
 90
        0
102
RTVSPost2010PropOp41
 70
     1
102
RTVSPost2010Prop42
 90
       50
102
RTVSPost2010PropOp42
 70
     1
102
RTVSPost2010Prop43
 90
        3
102
RTVSPost2010PropOp43
 70
     1
102
RTVSPost2010Prop44ColorIndex
 90
        5
102
RTVSPost2010Prop44ColorRGB
 90
      255
102
RTVSPost2010PropOp44
 70
     1
102
RTVSPost2010Prop45
280
     0
102
RTVSPost2010PropOp45
 70
     1
102
RTVSPost2010Prop46
 90
       50
102
RTVSPost2010PropOp46
 70
     1
102
RTVSPost2010Prop47
 90
       50
102
RTVSPost2010PropOp47
 70
     1
102
RTVSPost2010Prop48
 90
       50
102
RTVSPost2010PropOp48
 70
     1
102
RTVSPost2010Prop49
280
     0
102
RTVSPost2010PropOp49
 70
     1
102
RTVSPost2010Prop50
 90
       50
102
RTVSPost2010PropOp50
 70
     1
102
RTVSPost2010Prop51ColorIndex
 90
      256
102
RTVSPost2010Prop51ColorRGB
 90
-16777216
102
RTVSPost2010PropOp51
 70
     0
102
RTVSPost2010Prop52
140
1.0
102
RTVSPost2010PropOp52
 70
     0
102
RTVSPost2010Prop53
 90
        2
102
RTVSPost2010PropOp53
 70
     1
102
RTVSPost2010Prop54
  1
strokes_ogs.tif
102
RTVSPost2010PropOp54
 70
     1
102
RTVSPost2010Prop55
280
     0
102
RTVSPost2010PropOp55
 70
     1
102
RTVSPost2010Prop56
140
1.0
102
RTVSPost2010PropOp56
 70
     1
102
RTVSPost2010Prop57
140
1.0
102
RTVSPost2010PropOp57
 70
     1
  0
XRECORD
  5
7B8
102
{ACAD_REACTORS
330
7B7
102
}
330
7B7
100
AcDbXrecord
280
     1
102
RTVSPropertyOp0
 70
     0
102
RTVSPropertyOp1
 70
     0
102
RTVSPropertyOp2
 70
     0
102
RTVSPropertyOp3
 70
     0
102
RTVSPropertyOp4
 70
     0
102
RTVSPropertyOp5
 70
     0
102
RTVSPropertyOp6
 70
     0
102
RTVSPropertyOp7
 70
     0
102
RTVSPropertyOp8
 70
     0
102
RTVSPropertyOp9
 70
     0
102
RTVSPropertyOp10
 70
     0
102
RTVSPropertyOp11
 70
     0
102
RTVSPropertyOp12
 70
     0
102
RTVSPropertyOp13
 70
     0
102
RTVSPropertyOp14
 70
     0
102
RTVSPropertyOp15
 70
     0
102
RTVSPropertyOp16
 70
     0
102
RTVSPropertyOp17
 70
     0
102
RTVSPropertyOp18
 70
     0
102
RTVSPropertyOp19
 70
     0
102
RTVSPropertyOp20
 70
     0
102
RTVSPropertyOp21
 70
     0
102
RTVSPropertyOp22
 70
     0
102
RTVSPropertyOp23
 70
     0
102
RTVSPropertyOp24
 70
     0
102
RTVSPropertyOp25
 70
     0
102
RTVSPropertyOp26
 70
     0
102
RTVSPropertyOp27
 70
     0
102
RTVSPropertyOp28
 70
     1
102
RTVSPropertyOp29
 70
     1
102
RTVSPropertyOp30
 70
     1
102
RTVSPropertyOp31
 70
     1
102
RTVSPropertyOp32
 70
     1
102
RTVSPropertyOp33
 70
     1
102
RTVSPropertyOp34
 70
     1
102
RTVSPropertyOp35
 70
     1
102
RTVSPropertyOp36
 70
     1
102
RTVSPropertyOp37
 70
     1
102
RTVSPropertyOp38
 70
     1
102
RTVSPropertyOp39
 70
     1
102
RTVSPropertyOp40
 70
     1
102
RTVSPropertyOp41
 70
     1
102
RTVSPropertyOp42
 70
     1
102
RTVSPropertyOp43
 70
     1
102
RTVSPropertyOp44
 70
     1
102
RTVSPropertyOp45
 70
     1
102
RTVSPropertyOp46
 70
     1
102
RTVSPropertyOp47
 70
     1
102
RTVSPropertyOp48
 70
     1
102
RTVSPropertyOp49
 70
     1
102
RTVSPropertyOp50
 70
     1
102
RTVSPropertyOp51
 70
     0
102
RTVSPropertyOp52
 70
     0
102
RTVSPropertyOp53
 70
     1
102
RTVSPropertyOp54
 70
     1
102
RTVSPropertyOp55
 70
     1
102
RTVSPropertyOp56
 70
     1
102
RTVSPropertyOp57
 70
     1
102
RTVSPost2010Prop28
280
     0
102
RTVSPost2010PropOp28
 70
     1
102
RTVSPost2010Prop29
280
     1
102
RTVSPost2010PropOp29
 70
     1
102
RTVSPost2010Prop30
280
     1
102
RTVSPost2010PropOp30
 70
     1
102
RTVSPost2010Prop31
280
     0
102
RTVSPost2010PropOp31
 70
     1
102
RTVSPost2010Prop32
280
     0
102
RTVSPost2010PropOp32
 70
     1
102
RTVSPost2010Prop33
280
     0
102
RTVSPost2010PropOp33
 70
     1
102
RTVSPost2010Prop34
280
     0
102
RTVSPost2010PropOp34
 70
     1
102
RTVSPost2010Prop35
280
     0
102
RTVSPost2010PropOp35
 70
     1
102
RTVSPost2010Prop36
280
     0
102
RTVSPost2010PropOp36
 70
     1
102
RTVSPost2010Prop37
 90
       50
102
RTVSPost2010PropOp37
 70
     1
102
RTVSPost2010Prop38
140
0.0
102
RTVSPost2010PropOp38
 70
     1
102
RTVSPost2010Prop39
140
1.0
102
RTVSPost2010PropOp39
 70
     1
102
RTVSPost2010Prop40
 90
        0
102
RTVSPost2010PropOp40
 70
     1
102
RTVSPost2010Prop41ColorIndex
 90
       18
102
RTVSPost2010Prop41ColorRGB
 90
        0
102
RTVSPost2010PropOp41
 70
     1
102
RTVSPost2010Prop42
 90
       50
102
RTVSPost2010PropOp42
 70
     1
102
RTVSPost2010Prop43
 90
        3
102
RTVSPost2010PropOp43
 70
     1
102
RTVSPost2010Prop44ColorIndex
 90
        5
102
RTVSPost2010Prop44ColorRGB
 90
      255
102
RTVSPost2010PropOp44
 70
     1
102
RTVSPost2010Prop45
280
     0
102
RTVSPost2010PropOp45
 70
     1
102
RTVSPost2010Prop46
 90
       50
102
RTVSPost2010PropOp46
 70
     1
102
RTVSPost2010Prop47
 90
       50
102
RTVSPost2010PropOp47
 70
     1
102
RTVSPost2010Prop48
 90
       50
102
RTVSPost2010PropOp48
 70
     1
102
RTVSPost2010Prop49
280
     0
102
RTVSPost2010PropOp49
 70
     1
102
RTVSPost2010Prop50
 90
       50
102
RTVSPost2010PropOp50
 70
     1
102
RTVSPost2010Prop51ColorIndex
 90
      256
102
RTVSPost2010Prop51ColorRGB
 90
-16777216
102
RTVSPost2010PropOp51
 70
     0
102
RTVSPost2010Prop52
140
1.0
102
RTVSPost2010PropOp52
 70
     0
102
RTVSPost2010Prop53
 90
        2
102
RTVSPost2010PropOp53
 70
     1
102
RTVSPost2010Prop54
  1
strokes_ogs.tif
102
RTVSPost2010PropOp54
 70
     1
102
RTVSPost2010Prop55
280
     0
102
RTVSPost2010PropOp55
 70
     1
102
RTVSPost2010Prop56
140
1.0
102
RTVSPost2010PropOp56
 70
     1
102
RTVSPost2010Prop57
140
1.0
102
RTVSPost2010PropOp57
 70
     1
  0
XRECORD
  5
7B2
102
{ACAD_REACTORS
330
7B1
102
}
330
7B1
100
AcDbXrecord
280
     1
102
RTVSPropertyOp0
 70
     1
102
RTVSPropertyOp1
 70
     1
102
RTVSPropertyOp2
 70
     1
102
RTVSPropertyOp3
 70
     1
102
RTVSPropertyOp4
 70
     1
102
RTVSPropertyOp5
 70
     1
102
RTVSPropertyOp6
 70
     1
102
RTVSPropertyOp7
 70
     1
102
RTVSPropertyOp8
 70
     1
102
RTVSPropertyOp9
 70
     1
102
RTVSPropertyOp10
 70
     1
102
RTVSPropertyOp11
 70
     1
102
RTVSPropertyOp12
 70
     1
102
RTVSPropertyOp13
 70
     1
102
RTVSPropertyOp14
 70
     1
102
RTVSPropertyOp15
 70
     1
102
RTVSPropertyOp16
 70
     1
102
RTVSPropertyOp17
 70
     1
102
RTVSPropertyOp18
 70
     1
102
RTVSPropertyOp19
 70
     1
102
RTVSPropertyOp20
 70
     1
102
RTVSPropertyOp21
 70
     1
102
RTVSPropertyOp22
 70
     1
102
RTVSPropertyOp23
 70
     1
102
RTVSPropertyOp24
 70
     1
102
RTVSPropertyOp25
 70
     1
102
RTVSPropertyOp26
 70
     1
102
RTVSPropertyOp27
 70
     1
102
RTVSPropertyOp28
 70
     1
102
RTVSPropertyOp29
 70
     1
102
RTVSPropertyOp30
 70
     1
102
RTVSPropertyOp31
 70
     1
102
RTVSPropertyOp32
 70
     1
102
RTVSPropertyOp33
 70
     1
102
RTVSPropertyOp34
 70
     1
102
RTVSPropertyOp35
 70
     1
102
RTVSPropertyOp36
 70
     1
102
RTVSPropertyOp37
 70
     1
102
RTVSPropertyOp38
 70
     1
102
RTVSPropertyOp39
 70
     1
102
RTVSPropertyOp40
 70
     1
102
RTVSPropertyOp41
 70
     1
102
RTVSPropertyOp42
 70
     1
102
RTVSPropertyOp43
 70
     1
102
RTVSPropertyOp44
 70
     1
102
RTVSPropertyOp45
 70
     1
102
RTVSPropertyOp46
 70
     1
102
RTVSPropertyOp47
 70
     1
102
RTVSPropertyOp48
 70
     1
102
RTVSPropertyOp49
 70
     1
102
RTVSPropertyOp50
 70
     1
102
RTVSPropertyOp51
 70
     0
102
RTVSPropertyOp52
 70
     0
102
RTVSPropertyOp53
 70
     1
102
RTVSPropertyOp54
 70
     1
102
RTVSPropertyOp55
 70
     1
102
RTVSPropertyOp56
 70
     1
102
RTVSPropertyOp57
 70
     1
102
RTVSPost2010Prop28
280
     0
102
RTVSPost2010PropOp28
 70
     1
102
RTVSPost2010Prop29
280
     1
102
RTVSPost2010PropOp29
 70
     1
102
RTVSPost2010Prop30
280
     1
102
RTVSPost2010PropOp30
 70
     1
102
RTVSPost2010Prop31
280
     0
102
RTVSPost2010PropOp31
 70
     1
102
RTVSPost2010Prop32
280
     0
102
RTVSPost2010PropOp32
 70
     1
102
RTVSPost2010Prop33
280
     0
102
RTVSPost2010PropOp33
 70
     1
102
RTVSPost2010Prop34
280
     0
102
RTVSPost2010PropOp34
 70
     1
102
RTVSPost2010Prop35
280
     0
102
RTVSPost2010PropOp35
 70
     1
102
RTVSPost2010Prop36
280
     0
102
RTVSPost2010PropOp36
 70
     1
102
RTVSPost2010Prop37
 90
       50
102
RTVSPost2010PropOp37
 70
     1
102
RTVSPost2010Prop38
140
0.0
102
RTVSPost2010PropOp38
 70
     1
102
RTVSPost2010Prop39
140
1.0
102
RTVSPost2010PropOp39
 70
     1
102
RTVSPost2010Prop40
 90
        0
102
RTVSPost2010PropOp40
 70
     1
102
RTVSPost2010Prop41ColorIndex
 90
       18
102
RTVSPost2010Prop41ColorRGB
 90
        0
102
RTVSPost2010PropOp41
 70
     1
102
RTVSPost2010Prop42
 90
       50
102
RTVSPost2010PropOp42
 70
     1
102
RTVSPost2010Prop43
 90
        3
102
RTVSPost2010PropOp43
 70
     1
102
RTVSPost2010Prop44ColorIndex
 90
        5
102
RTVSPost2010Prop44ColorRGB
 90
      255
102
RTVSPost2010PropOp44
 70
     1
102
RTVSPost2010Prop45
280
     0
102
RTVSPost2010PropOp45
 70
     1
102
RTVSPost2010Prop46
 90
       50
102
RTVSPost2010PropOp46
 70
     1
102
RTVSPost2010Prop47
 90
       50
102
RTVSPost2010PropOp47
 70
     1
102
RTVSPost2010Prop48
 90
       50
102
RTVSPost2010PropOp48
 70
     1
102
RTVSPost2010Prop49
280
     0
102
RTVSPost2010PropOp49
 70
     1
102
RTVSPost2010Prop50
 90
       50
102
RTVSPost2010PropOp50
 70
     1
102
RTVSPost2010Prop51ColorIndex
 90
      256
102
RTVSPost2010Prop51ColorRGB
 90
-16777216
102
RTVSPost2010PropOp51
 70
     0
102
RTVSPost2010Prop52
140
1.0
102
RTVSPost2010PropOp52
 70
     0
102
RTVSPost2010Prop53
 90
        2
102
RTVSPost2010PropOp53
 70
     1
102
RTVSPost2010Prop54
  1
strokes_ogs.tif
102
RTVSPost2010PropOp54
 70
     1
102
RTVSPost2010Prop55
280
     0
102
RTVSPost2010PropOp55
 70
     1
102
RTVSPost2010Prop56
140
1.0
102
RTVSPost2010PropOp56
 70
     1
102
RTVSPost2010Prop57
140
1.0
102
RTVSPost2010PropOp57
 70
     1
  0
XRECORD
  5
7BA
102
{ACAD_REACTORS
330
7B9
102
}
330
7B9
100
AcDbXrecord
280
     1
102
RTVSPropertyOp0
 70
     0
102
RTVSPropertyOp1
 70
     0
102
RTVSPropertyOp2
 70
     0
102
RTVSPropertyOp3
 70
     0
102
RTVSPropertyOp4
 70
     0
102
RTVSPropertyOp5
 70
     0
102
RTVSPropertyOp6
 70
     0
102
RTVSPropertyOp7
 70
     0
102
RTVSPropertyOp8
 70
     0
102
RTVSPropertyOp9
 70
     0
102
RTVSPropertyOp10
 70
     0
102
RTVSPropertyOp11
 70
     0
102
RTVSPropertyOp12
 70
     0
102
RTVSPropertyOp13
 70
     0
102
RTVSPropertyOp14
 70
     0
102
RTVSPropertyOp15
 70
     0
102
RTVSPropertyOp16
 70
     0
102
RTVSPropertyOp17
 70
     0
102
RTVSPropertyOp18
 70
     0
102
RTVSPropertyOp19
 70
     0
102
RTVSPropertyOp20
 70
     0
102
RTVSPropertyOp21
 70
     0
102
RTVSPropertyOp22
 70
     0
102
RTVSPropertyOp23
 70
     0
102
RTVSPropertyOp24
 70
     0
102
RTVSPropertyOp25
 70
     0
102
RTVSPropertyOp26
 70
     0
102
RTVSPropertyOp27
 70
     0
102
RTVSPropertyOp28
 70
     1
102
RTVSPropertyOp29
 70
     1
102
RTVSPropertyOp30
 70
     1
102
RTVSPropertyOp31
 70
     1
102
RTVSPropertyOp32
 70
     1
102
RTVSPropertyOp33
 70
     1
102
RTVSPropertyOp34
 70
     1
102
RTVSPropertyOp35
 70
     1
102
RTVSPropertyOp36
 70
     1
102
RTVSPropertyOp37
 70
     1
102
RTVSPropertyOp38
 70
     1
102
RTVSPropertyOp39
 70
     1
102
RTVSPropertyOp40
 70
     1
102
RTVSPropertyOp41
 70
     1
102
RTVSPropertyOp42
 70
     1
102
RTVSPropertyOp43
 70
     1
102
RTVSPropertyOp44
 70
     1
102
RTVSPropertyOp45
 70
     1
102
RTVSPropertyOp46
 70
     1
102
RTVSPropertyOp47
 70
     1
102
RTVSPropertyOp48
 70
     1
102
RTVSPropertyOp49
 70
     1
102
RTVSPropertyOp50
 70
     1
102
RTVSPropertyOp51
 70
     0
102
RTVSPropertyOp52
 70
     0
102
RTVSPropertyOp53
 70
     1
102
RTVSPropertyOp54
 70
     1
102
RTVSPropertyOp55
 70
     1
102
RTVSPropertyOp56
 70
     1
102
RTVSPropertyOp57
 70
     1
102
RTVSPost2010Prop28
280
     0
102
RTVSPost2010PropOp28
 70
     1
102
RTVSPost2010Prop29
280
     1
102
RTVSPost2010PropOp29
 70
     1
102
RTVSPost2010Prop30
280
     1
102
RTVSPost2010PropOp30
 70
     1
102
RTVSPost2010Prop31
280
     0
102
RTVSPost2010PropOp31
 70
     1
102
RTVSPost2010Prop32
280
     0
102
RTVSPost2010PropOp32
 70
     1
102
RTVSPost2010Prop33
280
     0
102
RTVSPost2010PropOp33
 70
     1
102
RTVSPost2010Prop34
280
     0
102
RTVSPost2010PropOp34
 70
     1
102
RTVSPost2010Prop35
280
     0
102
RTVSPost2010PropOp35
 70
     1
102
RTVSPost2010Prop36
280
     0
102
RTVSPost2010PropOp36
 70
     1
102
RTVSPost2010Prop37
 90
       50
102
RTVSPost2010PropOp37
 70
     1
102
RTVSPost2010Prop38
140
0.0
102
RTVSPost2010PropOp38
 70
     1
102
RTVSPost2010Prop39
140
1.0
102
RTVSPost2010PropOp39
 70
     1
102
RTVSPost2010Prop40
 90
        0
102
RTVSPost2010PropOp40
 70
     1
102
RTVSPost2010Prop41ColorIndex
 90
       18
102
RTVSPost2010Prop41ColorRGB
 90
        0
102
RTVSPost2010PropOp41
 70
     1
102
RTVSPost2010Prop42
 90
       50
102
RTVSPost2010PropOp42
 70
     1
102
RTVSPost2010Prop43
 90
        3
102
RTVSPost2010PropOp43
 70
     1
102
RTVSPost2010Prop44ColorIndex
 90
        5
102
RTVSPost2010Prop44ColorRGB
 90
      255
102
RTVSPost2010PropOp44
 70
     1
102
RTVSPost2010Prop45
280
     0
102
RTVSPost2010PropOp45
 70
     1
102
RTVSPost2010Prop46
 90
       50
102
RTVSPost2010PropOp46
 70
     1
102
RTVSPost2010Prop47
 90
       50
102
RTVSPost2010PropOp47
 70
     1
102
RTVSPost2010Prop48
 90
       50
102
RTVSPost2010PropOp48
 70
     1
102
RTVSPost2010Prop49
280
     0
102
RTVSPost2010PropOp49
 70
     1
102
RTVSPost2010Prop50
 90
       50
102
RTVSPost2010PropOp50
 70
     1
102
RTVSPost2010Prop51ColorIndex
 90
      256
102
RTVSPost2010Prop51ColorRGB
 90
-16777216
102
RTVSPost2010PropOp51
 70
     0
102
RTVSPost2010Prop52
140
1.0
102
RTVSPost2010PropOp52
 70
     0
102
RTVSPost2010Prop53
 90
        2
102
RTVSPost2010PropOp53
 70
     1
102
RTVSPost2010Prop54
  1
strokes_ogs.tif
102
RTVSPost2010PropOp54
 70
     1
102
RTVSPost2010Prop55
280
     0
102
RTVSPost2010PropOp55
 70
     1
102
RTVSPost2010Prop56
140
1.0
102
RTVSPost2010PropOp56
 70
     1
102
RTVSPost2010Prop57
140
1.0
102
RTVSPost2010PropOp57
 70
     1
  0
XRECORD
  5
7A8
102
{ACAD_REACTORS
330
7A7
102
}
330
7A7
100
AcDbXrecord
280
     1
102
RTVSPropertyOp0
 70
     1
102
RTVSPropertyOp1
 70
     1
102
RTVSPropertyOp2
 70
     1
102
RTVSPropertyOp3
 70
     1
102
RTVSPropertyOp4
 70
     1
102
RTVSPropertyOp5
 70
     1
102
RTVSPropertyOp6
 70
     1
102
RTVSPropertyOp7
 70
     1
102
RTVSPropertyOp8
 70
     1
102
RTVSPropertyOp9
 70
     1
102
RTVSPropertyOp10
 70
     1
102
RTVSPropertyOp11
 70
     1
102
RTVSPropertyOp12
 70
     1
102
RTVSPropertyOp13
 70
     1
102
RTVSPropertyOp14
 70
     1
102
RTVSPropertyOp15
 70
     1
102
RTVSPropertyOp16
 70
     1
102
RTVSPropertyOp17
 70
     1
102
RTVSPropertyOp18
 70
     1
102
RTVSPropertyOp19
 70
     1
102
RTVSPropertyOp20
 70
     1
102
RTVSPropertyOp21
 70
     1
102
RTVSPropertyOp22
 70
     1
102
RTVSPropertyOp23
 70
     1
102
RTVSPropertyOp24
 70
     1
102
RTVSPropertyOp25
 70
     1
102
RTVSPropertyOp26
 70
     1
102
RTVSPropertyOp27
 70
     1
102
RTVSPropertyOp28
 70
     1
102
RTVSPropertyOp29
 70
     1
102
RTVSPropertyOp30
 70
     1
102
RTVSPropertyOp31
 70
     1
102
RTVSPropertyOp32
 70
     1
102
RTVSPropertyOp33
 70
     1
102
RTVSPropertyOp34
 70
     1
102
RTVSPropertyOp35
 70
     1
102
RTVSPropertyOp36
 70
     1
102
RTVSPropertyOp37
 70
     1
102
RTVSPropertyOp38
 70
     1
102
RTVSPropertyOp39
 70
     1
102
RTVSPropertyOp40
 70
     1
102
RTVSPropertyOp41
 70
     1
102
RTVSPropertyOp42
 70
     1
102
RTVSPropertyOp43
 70
     1
102
RTVSPropertyOp44
 70
     1
102
RTVSPropertyOp45
 70
     1
102
RTVSPropertyOp46
 70
     1
102
RTVSPropertyOp47
 70
     1
102
RTVSPropertyOp48
 70
     1
102
RTVSPropertyOp49
 70
     1
102
RTVSPropertyOp50
 70
     1
102
RTVSPropertyOp51
 70
     0
102
RTVSPropertyOp52
 70
     0
102
RTVSPropertyOp53
 70
     1
102
RTVSPropertyOp54
 70
     1
102
RTVSPropertyOp55
 70
     1
102
RTVSPropertyOp56
 70
     1
102
RTVSPropertyOp57
 70
     1
102
RTVSPost2010Prop28
280
     0
102
RTVSPost2010PropOp28
 70
     1
102
RTVSPost2010Prop29
280
     1
102
RTVSPost2010PropOp29
 70
     1
102
RTVSPost2010Prop30
280
     1
102
RTVSPost2010PropOp30
 70
     1
102
RTVSPost2010Prop31
280
     0
102
RTVSPost2010PropOp31
 70
     1
102
RTVSPost2010Prop32
280
     0
102
RTVSPost2010PropOp32
 70
     1
102
RTVSPost2010Prop33
280
     0
102
RTVSPost2010PropOp33
 70
     1
102
RTVSPost2010Prop34
280
     0
102
RTVSPost2010PropOp34
 70
     1
102
RTVSPost2010Prop35
280
     0
102
RTVSPost2010PropOp35
 70
     1
102
RTVSPost2010Prop36
280
     0
102
RTVSPost2010PropOp36
 70
     1
102
RTVSPost2010Prop37
 90
       50
102
RTVSPost2010PropOp37
 70
     1
102
RTVSPost2010Prop38
140
0.0
102
RTVSPost2010PropOp38
 70
     1
102
RTVSPost2010Prop39
140
1.0
102
RTVSPost2010PropOp39
 70
     1
102
RTVSPost2010Prop40
 90
        0
102
RTVSPost2010PropOp40
 70
     1
102
RTVSPost2010Prop41ColorIndex
 90
       18
102
RTVSPost2010Prop41ColorRGB
 90
        0
102
RTVSPost2010PropOp41
 70
     1
102
RTVSPost2010Prop42
 90
       50
102
RTVSPost2010PropOp42
 70
     1
102
RTVSPost2010Prop43
 90
        3
102
RTVSPost2010PropOp43
 70
     1
102
RTVSPost2010Prop44ColorIndex
 90
        5
102
RTVSPost2010Prop44ColorRGB
 90
      255
102
RTVSPost2010PropOp44
 70
     1
102
RTVSPost2010Prop45
280
     0
102
RTVSPost2010PropOp45
 70
     1
102
RTVSPost2010Prop46
 90
       50
102
RTVSPost2010PropOp46
 70
     1
102
RTVSPost2010Prop47
 90
       50
102
RTVSPost2010PropOp47
 70
     1
102
RTVSPost2010Prop48
 90
       50
102
RTVSPost2010PropOp48
 70
     1
102
RTVSPost2010Prop49
280
     0
102
RTVSPost2010PropOp49
 70
     1
102
RTVSPost2010Prop50
 90
       50
102
RTVSPost2010PropOp50
 70
     1
102
RTVSPost2010Prop51ColorIndex
 90
      256
102
RTVSPost2010Prop51ColorRGB
 90
-16777216
102
RTVSPost2010PropOp51
 70
     0
102
RTVSPost2010Prop52
140
1.0
102
RTVSPost2010PropOp52
 70
     0
102
RTVSPost2010Prop53
 90
        2
102
RTVSPost2010PropOp53
 70
     1
102
RTVSPost2010Prop54
  1
strokes_ogs.tif
102
RTVSPost2010PropOp54
 70
     1
102
RTVSPost2010Prop55
280
     0
102
RTVSPost2010PropOp55
 70
     1
102
RTVSPost2010Prop56
140
1.0
102
RTVSPost2010PropOp56
 70
     1
102
RTVSPost2010Prop57
140
1.0
102
RTVSPost2010PropOp57
 70
     1
  0
XRECORD
  5
7C6
102
{ACAD_REACTORS
330
7C5
102
}
330
7C5
100
AcDbXrecord
280
     1
102
RTVSPropertyOp0
 70
     1
102
RTVSPropertyOp1
 70
     1
102
RTVSPropertyOp2
 70
     1
102
RTVSPropertyOp3
 70
     1
102
RTVSPropertyOp4
 70
     1
102
RTVSPropertyOp5
 70
     1
102
RTVSPropertyOp6
 70
     1
102
RTVSPropertyOp7
 70
     1
102
RTVSPropertyOp8
 70
     1
102
RTVSPropertyOp9
 70
     1
102
RTVSPropertyOp10
 70
     1
102
RTVSPropertyOp11
 70
     1
102
RTVSPropertyOp12
 70
     1
102
RTVSPropertyOp13
 70
     1
102
RTVSPropertyOp14
 70
     1
102
RTVSPropertyOp15
 70
     1
102
RTVSPropertyOp16
 70
     1
102
RTVSPropertyOp17
 70
     1
102
RTVSPropertyOp18
 70
     1
102
RTVSPropertyOp19
 70
     1
102
RTVSPropertyOp20
 70
     1
102
RTVSPropertyOp21
 70
     1
102
RTVSPropertyOp22
 70
     1
102
RTVSPropertyOp23
 70
     1
102
RTVSPropertyOp24
 70
     1
102
RTVSPropertyOp25
 70
     1
102
RTVSPropertyOp26
 70
     1
102
RTVSPropertyOp27
 70
     1
102
RTVSPropertyOp28
 70
     1
102
RTVSPropertyOp29
 70
     1
102
RTVSPropertyOp30
 70
     1
102
RTVSPropertyOp31
 70
     1
102
RTVSPropertyOp32
 70
     1
102
RTVSPropertyOp33
 70
     1
102
RTVSPropertyOp34
 70
     1
102
RTVSPropertyOp35
 70
     1
102
RTVSPropertyOp36
 70
     1
102
RTVSPropertyOp37
 70
     1
102
RTVSPropertyOp38
 70
     1
102
RTVSPropertyOp39
 70
     1
102
RTVSPropertyOp40
 70
     1
102
RTVSPropertyOp41
 70
     1
102
RTVSPropertyOp42
 70
     1
102
RTVSPropertyOp43
 70
     1
102
RTVSPropertyOp44
 70
     1
102
RTVSPropertyOp45
 70
     1
102
RTVSPropertyOp46
 70
     1
102
RTVSPropertyOp47
 70
     1
102
RTVSPropertyOp48
 70
     1
102
RTVSPropertyOp49
 70
     1
102
RTVSPropertyOp50
 70
     1
102
RTVSPropertyOp51
 70
     0
102
RTVSPropertyOp52
 70
     0
102
RTVSPropertyOp53
 70
     1
102
RTVSPropertyOp54
 70
     1
102
RTVSPropertyOp55
 70
     1
102
RTVSPropertyOp56
 70
     1
102
RTVSPropertyOp57
 70
     1
102
RTVSPost2010Prop28
280
     0
102
RTVSPost2010PropOp28
 70
     1
102
RTVSPost2010Prop29
280
     1
102
RTVSPost2010PropOp29
 70
     1
102
RTVSPost2010Prop30
280
     1
102
RTVSPost2010PropOp30
 70
     1
102
RTVSPost2010Prop31
280
     0
102
RTVSPost2010PropOp31
 70
     1
102
RTVSPost2010Prop32
280
     0
102
RTVSPost2010PropOp32
 70
     1
102
RTVSPost2010Prop33
280
     0
102
RTVSPost2010PropOp33
 70
     1
102
RTVSPost2010Prop34
280
     0
102
RTVSPost2010PropOp34
 70
     1
102
RTVSPost2010Prop35
280
     0
102
RTVSPost2010PropOp35
 70
     1
102
RTVSPost2010Prop36
280
     0
102
RTVSPost2010PropOp36
 70
     1
102
RTVSPost2010Prop37
 90
       50
102
RTVSPost2010PropOp37
 70
     1
102
RTVSPost2010Prop38
140
0.0
102
RTVSPost2010PropOp38
 70
     1
102
RTVSPost2010Prop39
140
1.0
102
RTVSPost2010PropOp39
 70
     1
102
RTVSPost2010Prop40
 90
        0
102
RTVSPost2010PropOp40
 70
     1
102
RTVSPost2010Prop41ColorIndex
 90
       18
102
RTVSPost2010Prop41ColorRGB
 90
        0
102
RTVSPost2010PropOp41
 70
     1
102
RTVSPost2010Prop42
 90
       50
102
RTVSPost2010PropOp42
 70
     1
102
RTVSPost2010Prop43
 90
        3
102
RTVSPost2010PropOp43
 70
     1
102
RTVSPost2010Prop44ColorIndex
 90
        5
102
RTVSPost2010Prop44ColorRGB
 90
      255
102
RTVSPost2010PropOp44
 70
     1
102
RTVSPost2010Prop45
280
     0
102
RTVSPost2010PropOp45
 70
     1
102
RTVSPost2010Prop46
 90
       50
102
RTVSPost2010PropOp46
 70
     1
102
RTVSPost2010Prop47
 90
       50
102
RTVSPost2010PropOp47
 70
     1
102
RTVSPost2010Prop48
 90
       50
102
RTVSPost2010PropOp48
 70
     1
102
RTVSPost2010Prop49
280
     0
102
RTVSPost2010PropOp49
 70
     1
102
RTVSPost2010Prop50
 90
       50
102
RTVSPost2010PropOp50
 70
     1
102
RTVSPost2010Prop51ColorIndex
 90
      256
102
RTVSPost2010Prop51ColorRGB
 90
-16777216
102
RTVSPost2010PropOp51
 70
     0
102
RTVSPost2010Prop52
140
1.0
102
RTVSPost2010PropOp52
 70
     0
102
RTVSPost2010Prop53
 90
        2
102
RTVSPost2010PropOp53
 70
     1
102
RTVSPost2010Prop54
  1
strokes_ogs.tif
102
RTVSPost2010PropOp54
 70
     1
102
RTVSPost2010Prop55
280
     0
102
RTVSPost2010PropOp55
 70
     1
102
RTVSPost2010Prop56
140
1.0
102
RTVSPost2010PropOp56
 70
     1
102
RTVSPost2010Prop57
140
1.0
102
RTVSPost2010PropOp57
 70
     1
  0
XRECORD
  5
7C4
102
{ACAD_REACTORS
330
7C3
102
}
330
7C3
100
AcDbXrecord
280
     1
102
RTVSPropertyOp0
 70
     1
102
RTVSPropertyOp1
 70
     1
102
RTVSPropertyOp2
 70
     1
102
RTVSPropertyOp3
 70
     1
102
RTVSPropertyOp4
 70
     1
102
RTVSPropertyOp5
 70
     1
102
RTVSPropertyOp6
 70
     1
102
RTVSPropertyOp7
 70
     1
102
RTVSPropertyOp8
 70
     1
102
RTVSPropertyOp9
 70
     1
102
RTVSPropertyOp10
 70
     1
102
RTVSPropertyOp11
 70
     1
102
RTVSPropertyOp12
 70
     1
102
RTVSPropertyOp13
 70
     1
102
RTVSPropertyOp14
 70
     1
102
RTVSPropertyOp15
 70
     1
102
RTVSPropertyOp16
 70
     1
102
RTVSPropertyOp17
 70
     1
102
RTVSPropertyOp18
 70
     1
102
RTVSPropertyOp19
 70
     1
102
RTVSPropertyOp20
 70
     1
102
RTVSPropertyOp21
 70
     1
102
RTVSPropertyOp22
 70
     1
102
RTVSPropertyOp23
 70
     1
102
RTVSPropertyOp24
 70
     1
102
RTVSPropertyOp25
 70
     1
102
RTVSPropertyOp26
 70
     1
102
RTVSPropertyOp27
 70
     1
102
RTVSPropertyOp28
 70
     1
102
RTVSPropertyOp29
 70
     1
102
RTVSPropertyOp30
 70
     1
102
RTVSPropertyOp31
 70
     1
102
RTVSPropertyOp32
 70
     1
102
RTVSPropertyOp33
 70
     1
102
RTVSPropertyOp34
 70
     1
102
RTVSPropertyOp35
 70
     1
102
RTVSPropertyOp36
 70
     1
102
RTVSPropertyOp37
 70
     1
102
RTVSPropertyOp38
 70
     1
102
RTVSPropertyOp39
 70
     1
102
RTVSPropertyOp40
 70
     1
102
RTVSPropertyOp41
 70
     1
102
RTVSPropertyOp42
 70
     1
102
RTVSPropertyOp43
 70
     1
102
RTVSPropertyOp44
 70
     1
102
RTVSPropertyOp45
 70
     1
102
RTVSPropertyOp46
 70
     1
102
RTVSPropertyOp47
 70
     1
102
RTVSPropertyOp48
 70
     1
102
RTVSPropertyOp49
 70
     1
102
RTVSPropertyOp50
 70
     1
102
RTVSPropertyOp51
 70
     0
102
RTVSPropertyOp52
 70
     0
102
RTVSPropertyOp53
 70
     1
102
RTVSPropertyOp54
 70
     1
102
RTVSPropertyOp55
 70
     1
102
RTVSPropertyOp56
 70
     1
102
RTVSPropertyOp57
 70
     1
102
RTVSPost2010Prop28
280
     0
102
RTVSPost2010PropOp28
 70
     1
102
RTVSPost2010Prop29
280
     1
102
RTVSPost2010PropOp29
 70
     1
102
RTVSPost2010Prop30
280
     1
102
RTVSPost2010PropOp30
 70
     1
102
RTVSPost2010Prop31
280
     0
102
RTVSPost2010PropOp31
 70
     1
102
RTVSPost2010Prop32
280
     0
102
RTVSPost2010PropOp32
 70
     1
102
RTVSPost2010Prop33
280
     0
102
RTVSPost2010PropOp33
 70
     1
102
RTVSPost2010Prop34
280
     0
102
RTVSPost2010PropOp34
 70
     1
102
RTVSPost2010Prop35
280
     0
102
RTVSPost2010PropOp35
 70
     1
102
RTVSPost2010Prop36
280
     0
102
RTVSPost2010PropOp36
 70
     1
102
RTVSPost2010Prop37
 90
       50
102
RTVSPost2010PropOp37
 70
     1
102
RTVSPost2010Prop38
140
0.0
102
RTVSPost2010PropOp38
 70
     1
102
RTVSPost2010Prop39
140
1.0
102
RTVSPost2010PropOp39
 70
     1
102
RTVSPost2010Prop40
 90
        0
102
RTVSPost2010PropOp40
 70
     1
102
RTVSPost2010Prop41ColorIndex
 90
       18
102
RTVSPost2010Prop41ColorRGB
 90
        0
102
RTVSPost2010PropOp41
 70
     1
102
RTVSPost2010Prop42
 90
       50
102
RTVSPost2010PropOp42
 70
     1
102
RTVSPost2010Prop43
 90
        3
102
RTVSPost2010PropOp43
 70
     1
102
RTVSPost2010Prop44ColorIndex
 90
        5
102
RTVSPost2010Prop44ColorRGB
 90
      255
102
RTVSPost2010PropOp44
 70
     1
102
RTVSPost2010Prop45
280
     0
102
RTVSPost2010PropOp45
 70
     1
102
RTVSPost2010Prop46
 90
       50
102
RTVSPost2010PropOp46
 70
     1
102
RTVSPost2010Prop47
 90
       50
102
RTVSPost2010PropOp47
 70
     1
102
RTVSPost2010Prop48
 90
       50
102
RTVSPost2010PropOp48
 70
     1
102
RTVSPost2010Prop49
280
     0
102
RTVSPost2010PropOp49
 70
     1
102
RTVSPost2010Prop50
 90
       50
102
RTVSPost2010PropOp50
 70
     1
102
RTVSPost2010Prop51ColorIndex
 90
      256
102
RTVSPost2010Prop51ColorRGB
 90
-16777216
102
RTVSPost2010PropOp51
 70
     0
102
RTVSPost2010Prop52
140
1.0
102
RTVSPost2010PropOp52
 70
     0
102
RTVSPost2010Prop53
 90
        2
102
RTVSPost2010PropOp53
 70
     1
102
RTVSPost2010Prop54
  1
strokes_ogs.tif
102
RTVSPost2010PropOp54
 70
     1
102
RTVSPost2010Prop55
280
     0
102
RTVSPost2010PropOp55
 70
     1
102
RTVSPost2010Prop56
140
1.0
102
RTVSPost2010PropOp56
 70
     1
102
RTVSPost2010Prop57
140
1.0
102
RTVSPost2010PropOp57
 70
     1
  0
XRECORD
  5
7BE
102
{ACAD_REACTORS
330
7BD
102
}
330
7BD
100
AcDbXrecord
280
     1
102
RTVSPropertyOp0
 70
     1
102
RTVSPropertyOp1
 70
     1
102
RTVSPropertyOp2
 70
     1
102
RTVSPropertyOp3
 70
     1
102
RTVSPropertyOp4
 70
     1
102
RTVSPropertyOp5
 70
     1
102
RTVSPropertyOp6
 70
     1
102
RTVSPropertyOp7
 70
     1
102
RTVSPropertyOp8
 70
     1
102
RTVSPropertyOp9
 70
     1
102
RTVSPropertyOp10
 70
     1
102
RTVSPropertyOp11
 70
     1
102
RTVSPropertyOp12
 70
     1
102
RTVSPropertyOp13
 70
     1
102
RTVSPropertyOp14
 70
     1
102
RTVSPropertyOp15
 70
     1
102
RTVSPropertyOp16
 70
     1
102
RTVSPropertyOp17
 70
     1
102
RTVSPropertyOp18
 70
     1
102
RTVSPropertyOp19
 70
     1
102
RTVSPropertyOp20
 70
     1
102
RTVSPropertyOp21
 70
     1
102
RTVSPropertyOp22
 70
     1
102
RTVSPropertyOp23
 70
     1
102
RTVSPropertyOp24
 70
     1
102
RTVSPropertyOp25
 70
     1
102
RTVSPropertyOp26
 70
     1
102
RTVSPropertyOp27
 70
     1
102
RTVSPropertyOp28
 70
     1
102
RTVSPropertyOp29
 70
     1
102
RTVSPropertyOp30
 70
     1
102
RTVSPropertyOp31
 70
     1
102
RTVSPropertyOp32
 70
     1
102
RTVSPropertyOp33
 70
     1
102
RTVSPropertyOp34
 70
     1
102
RTVSPropertyOp35
 70
     1
102
RTVSPropertyOp36
 70
     1
102
RTVSPropertyOp37
 70
     1
102
RTVSPropertyOp38
 70
     1
102
RTVSPropertyOp39
 70
     1
102
RTVSPropertyOp40
 70
     1
102
RTVSPropertyOp41
 70
     1
102
RTVSPropertyOp42
 70
     1
102
RTVSPropertyOp43
 70
     1
102
RTVSPropertyOp44
 70
     1
102
RTVSPropertyOp45
 70
     1
102
RTVSPropertyOp46
 70
     1
102
RTVSPropertyOp47
 70
     1
102
RTVSPropertyOp48
 70
     1
102
RTVSPropertyOp49
 70
     1
102
RTVSPropertyOp50
 70
     1
102
RTVSPropertyOp51
 70
     0
102
RTVSPropertyOp52
 70
     0
102
RTVSPropertyOp53
 70
     1
102
RTVSPropertyOp54
 70
     1
102
RTVSPropertyOp55
 70
     1
102
RTVSPropertyOp56
 70
     1
102
RTVSPropertyOp57
 70
     1
102
RTVSPost2010Prop28
280
     0
102
RTVSPost2010PropOp28
 70
     1
102
RTVSPost2010Prop29
280
     1
102
RTVSPost2010PropOp29
 70
     1
102
RTVSPost2010Prop30
280
     1
102
RTVSPost2010PropOp30
 70
     1
102
RTVSPost2010Prop31
280
     0
102
RTVSPost2010PropOp31
 70
     1
102
RTVSPost2010Prop32
280
     0
102
RTVSPost2010PropOp32
 70
     1
102
RTVSPost2010Prop33
280
     0
102
RTVSPost2010PropOp33
 70
     1
102
RTVSPost2010Prop34
280
     0
102
RTVSPost2010PropOp34
 70
     1
102
RTVSPost2010Prop35
280
     0
102
RTVSPost2010PropOp35
 70
     1
102
RTVSPost2010Prop36
280
     0
102
RTVSPost2010PropOp36
 70
     1
102
RTVSPost2010Prop37
 90
       50
102
RTVSPost2010PropOp37
 70
     1
102
RTVSPost2010Prop38
140
0.0
102
RTVSPost2010PropOp38
 70
     1
102
RTVSPost2010Prop39
140
1.0
102
RTVSPost2010PropOp39
 70
     1
102
RTVSPost2010Prop40
 90
        0
102
RTVSPost2010PropOp40
 70
     1
102
RTVSPost2010Prop41ColorIndex
 90
       18
102
RTVSPost2010Prop41ColorRGB
 90
        0
102
RTVSPost2010PropOp41
 70
     1
102
RTVSPost2010Prop42
 90
       50
102
RTVSPost2010PropOp42
 70
     1
102
RTVSPost2010Prop43
 90
        3
102
RTVSPost2010PropOp43
 70
     1
102
RTVSPost2010Prop44ColorIndex
 90
        5
102
RTVSPost2010Prop44ColorRGB
 90
      255
102
RTVSPost2010PropOp44
 70
     1
102
RTVSPost2010Prop45
280
     0
102
RTVSPost2010PropOp45
 70
     1
102
RTVSPost2010Prop46
 90
       50
102
RTVSPost2010PropOp46
 70
     1
102
RTVSPost2010Prop47
 90
       50
102
RTVSPost2010PropOp47
 70
     1
102
RTVSPost2010Prop48
 90
       50
102
RTVSPost2010PropOp48
 70
     1
102
RTVSPost2010Prop49
280
     0
102
RTVSPost2010PropOp49
 70
     1
102
RTVSPost2010Prop50
 90
       50
102
RTVSPost2010PropOp50
 70
     1
102
RTVSPost2010Prop51ColorIndex
 90
      256
102
RTVSPost2010Prop51ColorRGB
 90
-16777216
102
RTVSPost2010PropOp51
 70
     0
102
RTVSPost2010Prop52
140
1.0
102
RTVSPost2010PropOp52
 70
     0
102
RTVSPost2010Prop53
 90
        2
102
RTVSPost2010PropOp53
 70
     1
102
RTVSPost2010Prop54
  1
strokes_ogs.tif
102
RTVSPost2010PropOp54
 70
     1
102
RTVSPost2010Prop55
280
     0
102
RTVSPost2010PropOp55
 70
     1
102
RTVSPost2010Prop56
140
1.0
102
RTVSPost2010PropOp56
 70
     1
102
RTVSPost2010Prop57
140
1.0
102
RTVSPost2010PropOp57
 70
     1
  0
XRECORD
  5
7C0
102
{ACAD_REACTORS
330
7BF
102
}
330
7BF
100
AcDbXrecord
280
     1
102
RTVSPropertyOp0
 70
     1
102
RTVSPropertyOp1
 70
     1
102
RTVSPropertyOp2
 70
     1
102
RTVSPropertyOp3
 70
     1
102
RTVSPropertyOp4
 70
     1
102
RTVSPropertyOp5
 70
     1
102
RTVSPropertyOp6
 70
     1
102
RTVSPropertyOp7
 70
     1
102
RTVSPropertyOp8
 70
     1
102
RTVSPropertyOp9
 70
     1
102
RTVSPropertyOp10
 70
     1
102
RTVSPropertyOp11
 70
     1
102
RTVSPropertyOp12
 70
     1
102
RTVSPropertyOp13
 70
     1
102
RTVSPropertyOp14
 70
     1
102
RTVSPropertyOp15
 70
     1
102
RTVSPropertyOp16
 70
     1
102
RTVSPropertyOp17
 70
     1
102
RTVSPropertyOp18
 70
     1
102
RTVSPropertyOp19
 70
     1
102
RTVSPropertyOp20
 70
     1
102
RTVSPropertyOp21
 70
     1
102
RTVSPropertyOp22
 70
     1
102
RTVSPropertyOp23
 70
     1
102
RTVSPropertyOp24
 70
     1
102
RTVSPropertyOp25
 70
     1
102
RTVSPropertyOp26
 70
     1
102
RTVSPropertyOp27
 70
     1
102
RTVSPropertyOp28
 70
     1
102
RTVSPropertyOp29
 70
     1
102
RTVSPropertyOp30
 70
     1
102
RTVSPropertyOp31
 70
     1
102
RTVSPropertyOp32
 70
     1
102
RTVSPropertyOp33
 70
     1
102
RTVSPropertyOp34
 70
     1
102
RTVSPropertyOp35
 70
     1
102
RTVSPropertyOp36
 70
     1
102
RTVSPropertyOp37
 70
     1
102
RTVSPropertyOp38
 70
     1
102
RTVSPropertyOp39
 70
     1
102
RTVSPropertyOp40
 70
     1
102
RTVSPropertyOp41
 70
     1
102
RTVSPropertyOp42
 70
     1
102
RTVSPropertyOp43
 70
     1
102
RTVSPropertyOp44
 70
     1
102
RTVSPropertyOp45
 70
     1
102
RTVSPropertyOp46
 70
     1
102
RTVSPropertyOp47
 70
     1
102
RTVSPropertyOp48
 70
     1
102
RTVSPropertyOp49
 70
     1
102
RTVSPropertyOp50
 70
     1
102
RTVSPropertyOp51
 70
     0
102
RTVSPropertyOp52
 70
     0
102
RTVSPropertyOp53
 70
     1
102
RTVSPropertyOp54
 70
     1
102
RTVSPropertyOp55
 70
     1
102
RTVSPropertyOp56
 70
     1
102
RTVSPropertyOp57
 70
     1
102
RTVSPost2010Prop28
280
     0
102
RTVSPost2010PropOp28
 70
     1
102
RTVSPost2010Prop29
280
     1
102
RTVSPost2010PropOp29
 70
     1
102
RTVSPost2010Prop30
280
     1
102
RTVSPost2010PropOp30
 70
     1
102
RTVSPost2010Prop31
280
     0
102
RTVSPost2010PropOp31
 70
     1
102
RTVSPost2010Prop32
280
     0
102
RTVSPost2010PropOp32
 70
     1
102
RTVSPost2010Prop33
280
     0
102
RTVSPost2010PropOp33
 70
     1
102
RTVSPost2010Prop34
280
     0
102
RTVSPost2010PropOp34
 70
     1
102
RTVSPost2010Prop35
280
     0
102
RTVSPost2010PropOp35
 70
     1
102
RTVSPost2010Prop36
280
     0
102
RTVSPost2010PropOp36
 70
     1
102
RTVSPost2010Prop37
 90
       50
102
RTVSPost2010PropOp37
 70
     1
102
RTVSPost2010Prop38
140
0.0
102
RTVSPost2010PropOp38
 70
     1
102
RTVSPost2010Prop39
140
1.0
102
RTVSPost2010PropOp39
 70
     1
102
RTVSPost2010Prop40
 90
        0
102
RTVSPost2010PropOp40
 70
     1
102
RTVSPost2010Prop41ColorIndex
 90
       18
102
RTVSPost2010Prop41ColorRGB
 90
        0
102
RTVSPost2010PropOp41
 70
     1
102
RTVSPost2010Prop42
 90
       50
102
RTVSPost2010PropOp42
 70
     1
102
RTVSPost2010Prop43
 90
        3
102
RTVSPost2010PropOp43
 70
     1
102
RTVSPost2010Prop44ColorIndex
 90
        5
102
RTVSPost2010Prop44ColorRGB
 90
      255
102
RTVSPost2010PropOp44
 70
     1
102
RTVSPost2010Prop45
280
     0
102
RTVSPost2010PropOp45
 70
     1
102
RTVSPost2010Prop46
 90
       50
102
RTVSPost2010PropOp46
 70
     1
102
RTVSPost2010Prop47
 90
       50
102
RTVSPost2010PropOp47
 70
     1
102
RTVSPost2010Prop48
 90
       50
102
RTVSPost2010PropOp48
 70
     1
102
RTVSPost2010Prop49
280
     0
102
RTVSPost2010PropOp49
 70
     1
102
RTVSPost2010Prop50
 90
       50
102
RTVSPost2010PropOp50
 70
     1
102
RTVSPost2010Prop51ColorIndex
 90
      256
102
RTVSPost2010Prop51ColorRGB
 90
-16777216
102
RTVSPost2010PropOp51
 70
     0
102
RTVSPost2010Prop52
140
1.0
102
RTVSPost2010PropOp52
 70
     0
102
RTVSPost2010Prop53
 90
        2
102
RTVSPost2010PropOp53
 70
     1
102
RTVSPost2010Prop54
  1
strokes_ogs.tif
102
RTVSPost2010PropOp54
 70
     1
102
RTVSPost2010Prop55
280
     0
102
RTVSPost2010PropOp55
 70
     1
102
RTVSPost2010Prop56
140
1.0
102
RTVSPost2010PropOp56
 70
     1
102
RTVSPost2010Prop57
140
1.0
102
RTVSPost2010PropOp57
 70
     1
  0
XRECORD
  5
7B0
102
{ACAD_REACTORS
330
7AF
102
}
330
7AF
100
AcDbXrecord
280
     1
102
RTVSPropertyOp0
 70
     1
102
RTVSPropertyOp1
 70
     1
102
RTVSPropertyOp2
 70
     1
102
RTVSPropertyOp3
 70
     1
102
RTVSPropertyOp4
 70
     1
102
RTVSPropertyOp5
 70
     1
102
RTVSPropertyOp6
 70
     1
102
RTVSPropertyOp7
 70
     1
102
RTVSPropertyOp8
 70
     1
102
RTVSPropertyOp9
 70
     1
102
RTVSPropertyOp10
 70
     1
102
RTVSPropertyOp11
 70
     1
102
RTVSPropertyOp12
 70
     1
102
RTVSPropertyOp13
 70
     1
102
RTVSPropertyOp14
 70
     1
102
RTVSPropertyOp15
 70
     1
102
RTVSPropertyOp16
 70
     1
102
RTVSPropertyOp17
 70
     1
102
RTVSPropertyOp18
 70
     1
102
RTVSPropertyOp19
 70
     1
102
RTVSPropertyOp20
 70
     1
102
RTVSPropertyOp21
 70
     1
102
RTVSPropertyOp22
 70
     1
102
RTVSPropertyOp23
 70
     1
102
RTVSPropertyOp24
 70
     1
102
RTVSPropertyOp25
 70
     1
102
RTVSPropertyOp26
 70
     1
102
RTVSPropertyOp27
 70
     1
102
RTVSPropertyOp28
 70
     1
102
RTVSPropertyOp29
 70
     1
102
RTVSPropertyOp30
 70
     1
102
RTVSPropertyOp31
 70
     1
102
RTVSPropertyOp32
 70
     1
102
RTVSPropertyOp33
 70
     1
102
RTVSPropertyOp34
 70
     1
102
RTVSPropertyOp35
 70
     1
102
RTVSPropertyOp36
 70
     1
102
RTVSPropertyOp37
 70
     1
102
RTVSPropertyOp38
 70
     1
102
RTVSPropertyOp39
 70
     1
102
RTVSPropertyOp40
 70
     1
102
RTVSPropertyOp41
 70
     1
102
RTVSPropertyOp42
 70
     1
102
RTVSPropertyOp43
 70
     1
102
RTVSPropertyOp44
 70
     1
102
RTVSPropertyOp45
 70
     1
102
RTVSPropertyOp46
 70
     1
102
RTVSPropertyOp47
 70
     1
102
RTVSPropertyOp48
 70
     1
102
RTVSPropertyOp49
 70
     1
102
RTVSPropertyOp50
 70
     1
102
RTVSPropertyOp51
 70
     0
102
RTVSPropertyOp52
 70
     0
102
RTVSPropertyOp53
 70
     1
102
RTVSPropertyOp54
 70
     1
102
RTVSPropertyOp55
 70
     1
102
RTVSPropertyOp56
 70
     1
102
RTVSPropertyOp57
 70
     1
102
RTVSPost2010Prop28
280
     0
102
RTVSPost2010PropOp28
 70
     1
102
RTVSPost2010Prop29
280
     1
102
RTVSPost2010PropOp29
 70
     1
102
RTVSPost2010Prop30
280
     1
102
RTVSPost2010PropOp30
 70
     1
102
RTVSPost2010Prop31
280
     0
102
RTVSPost2010PropOp31
 70
     1
102
RTVSPost2010Prop32
280
     0
102
RTVSPost2010PropOp32
 70
     1
102
RTVSPost2010Prop33
280
     0
102
RTVSPost2010PropOp33
 70
     1
102
RTVSPost2010Prop34
280
     0
102
RTVSPost2010PropOp34
 70
     1
102
RTVSPost2010Prop35
280
     0
102
RTVSPost2010PropOp35
 70
     1
102
RTVSPost2010Prop36
280
     0
102
RTVSPost2010PropOp36
 70
     1
102
RTVSPost2010Prop37
 90
       50
102
RTVSPost2010PropOp37
 70
     1
102
RTVSPost2010Prop38
140
0.0
102
RTVSPost2010PropOp38
 70
     1
102
RTVSPost2010Prop39
140
1.0
102
RTVSPost2010PropOp39
 70
     1
102
RTVSPost2010Prop40
 90
        0
102
RTVSPost2010PropOp40
 70
     1
102
RTVSPost2010Prop41ColorIndex
 90
       18
102
RTVSPost2010Prop41ColorRGB
 90
        0
102
RTVSPost2010PropOp41
 70
     1
102
RTVSPost2010Prop42
 90
       50
102
RTVSPost2010PropOp42
 70
     1
102
RTVSPost2010Prop43
 90
        3
102
RTVSPost2010PropOp43
 70
     1
102
RTVSPost2010Prop44ColorIndex
 90
        5
102
RTVSPost2010Prop44ColorRGB
 90
      255
102
RTVSPost2010PropOp44
 70
     1
102
RTVSPost2010Prop45
280
     0
102
RTVSPost2010PropOp45
 70
     1
102
RTVSPost2010Prop46
 90
       50
102
RTVSPost2010PropOp46
 70
     1
102
RTVSPost2010Prop47
 90
       50
102
RTVSPost2010PropOp47
 70
     1
102
RTVSPost2010Prop48
 90
       50
102
RTVSPost2010PropOp48
 70
     1
102
RTVSPost2010Prop49
280
     0
102
RTVSPost2010PropOp49
 70
     1
102
RTVSPost2010Prop50
 90
       50
102
RTVSPost2010PropOp50
 70
     1
102
RTVSPost2010Prop51ColorIndex
 90
      256
102
RTVSPost2010Prop51ColorRGB
 90
-16777216
102
RTVSPost2010PropOp51
 70
     0
102
RTVSPost2010Prop52
140
1.0
102
RTVSPost2010PropOp52
 70
     0
102
RTVSPost2010Prop53
 90
        2
102
RTVSPost2010PropOp53
 70
     1
102
RTVSPost2010Prop54
  1
strokes_ogs.tif
102
RTVSPost2010PropOp54
 70
     1
102
RTVSPost2010Prop55
280
     0
102
RTVSPost2010PropOp55
 70
     1
102
RTVSPost2010Prop56
140
1.0
102
RTVSPost2010PropOp56
 70
     1
102
RTVSPost2010Prop57
140
1.0
102
RTVSPost2010PropOp57
 70
     1
  0
XRECORD
  5
7A2
102
{ACAD_REACTORS
330
7A1
102
}
330
7A1
100
AcDbXrecord
280
     1
102
RTVSPropertyOp0
 70
     1
102
RTVSPropertyOp1
 70
     1
102
RTVSPropertyOp2
 70
     1
102
RTVSPropertyOp3
 70
     1
102
RTVSPropertyOp4
 70
     1
102
RTVSPropertyOp5
 70
     1
102
RTVSPropertyOp6
 70
     1
102
RTVSPropertyOp7
 70
     1
102
RTVSPropertyOp8
 70
     1
102
RTVSPropertyOp9
 70
     1
102
RTVSPropertyOp10
 70
     1
102
RTVSPropertyOp11
 70
     1
102
RTVSPropertyOp12
 70
     1
102
RTVSPropertyOp13
 70
     1
102
RTVSPropertyOp14
 70
     1
102
RTVSPropertyOp15
 70
     1
102
RTVSPropertyOp16
 70
     1
102
RTVSPropertyOp17
 70
     1
102
RTVSPropertyOp18
 70
     1
102
RTVSPropertyOp19
 70
     1
102
RTVSPropertyOp20
 70
     1
102
RTVSPropertyOp21
 70
     1
102
RTVSPropertyOp22
 70
     1
102
RTVSPropertyOp23
 70
     1
102
RTVSPropertyOp24
 70
     1
102
RTVSPropertyOp25
 70
     1
102
RTVSPropertyOp26
 70
     1
102
RTVSPropertyOp27
 70
     1
102
RTVSPropertyOp28
 70
     1
102
RTVSPropertyOp29
 70
     1
102
RTVSPropertyOp30
 70
     1
102
RTVSPropertyOp31
 70
     1
102
RTVSPropertyOp32
 70
     1
102
RTVSPropertyOp33
 70
     1
102
RTVSPropertyOp34
 70
     1
102
RTVSPropertyOp35
 70
     1
102
RTVSPropertyOp36
 70
     1
102
RTVSPropertyOp37
 70
     1
102
RTVSPropertyOp38
 70
     1
102
RTVSPropertyOp39
 70
     1
102
RTVSPropertyOp40
 70
     1
102
RTVSPropertyOp41
 70
     1
102
RTVSPropertyOp42
 70
     1
102
RTVSPropertyOp43
 70
     1
102
RTVSPropertyOp44
 70
     1
102
RTVSPropertyOp45
 70
     1
102
RTVSPropertyOp46
 70
     1
102
RTVSPropertyOp47
 70
     1
102
RTVSPropertyOp48
 70
     1
102
RTVSPropertyOp49
 70
     1
102
RTVSPropertyOp50
 70
     1
102
RTVSPropertyOp51
 70
     0
102
RTVSPropertyOp52
 70
     0
102
RTVSPropertyOp53
 70
     1
102
RTVSPropertyOp54
 70
     1
102
RTVSPropertyOp55
 70
     1
102
RTVSPropertyOp56
 70
     1
102
RTVSPropertyOp57
 70
     1
102
RTVSPost2010Prop28
280
     0
102
RTVSPost2010PropOp28
 70
     1
102
RTVSPost2010Prop29
280
     1
102
RTVSPost2010PropOp29
 70
     1
102
RTVSPost2010Prop30
280
     1
102
RTVSPost2010PropOp30
 70
     1
102
RTVSPost2010Prop31
280
     0
102
RTVSPost2010PropOp31
 70
     1
102
RTVSPost2010Prop32
280
     0
102
RTVSPost2010PropOp32
 70
     1
102
RTVSPost2010Prop33
280
     0
102
RTVSPost2010PropOp33
 70
     1
102
RTVSPost2010Prop34
280
     0
102
RTVSPost2010PropOp34
 70
     1
102
RTVSPost2010Prop35
280
     0
102
RTVSPost2010PropOp35
 70
     1
102
RTVSPost2010Prop36
280
     0
102
RTVSPost2010PropOp36
 70
     1
102
RTVSPost2010Prop37
 90
       50
102
RTVSPost2010PropOp37
 70
     1
102
RTVSPost2010Prop38
140
0.0
102
RTVSPost2010PropOp38
 70
     1
102
RTVSPost2010Prop39
140
1.0
102
RTVSPost2010PropOp39
 70
     1
102
RTVSPost2010Prop40
 90
        0
102
RTVSPost2010PropOp40
 70
     1
102
RTVSPost2010Prop41ColorIndex
 90
       18
102
RTVSPost2010Prop41ColorRGB
 90
        0
102
RTVSPost2010PropOp41
 70
     1
102
RTVSPost2010Prop42
 90
       50
102
RTVSPost2010PropOp42
 70
     1
102
RTVSPost2010Prop43
 90
        3
102
RTVSPost2010PropOp43
 70
     1
102
RTVSPost2010Prop44ColorIndex
 90
        5
102
RTVSPost2010Prop44ColorRGB
 90
      255
102
RTVSPost2010PropOp44
 70
     1
102
RTVSPost2010Prop45
280
     0
102
RTVSPost2010PropOp45
 70
     1
102
RTVSPost2010Prop46
 90
       50
102
RTVSPost2010PropOp46
 70
     1
102
RTVSPost2010Prop47
 90
       50
102
RTVSPost2010PropOp47
 70
     1
102
RTVSPost2010Prop48
 90
       50
102
RTVSPost2010PropOp48
 70
     1
102
RTVSPost2010Prop49
280
     0
102
RTVSPost2010PropOp49
 70
     1
102
RTVSPost2010Prop50
 90
       50
102
RTVSPost2010PropOp50
 70
     1
102
RTVSPost2010Prop51ColorIndex
 90
      256
102
RTVSPost2010Prop51ColorRGB
 90
-16777216
102
RTVSPost2010PropOp51
 70
     0
102
RTVSPost2010Prop52
140
1.0
102
RTVSPost2010PropOp52
 70
     0
102
RTVSPost2010Prop53
 90
        2
102
RTVSPost2010PropOp53
 70
     1
102
RTVSPost2010Prop54
  1
strokes_ogs.tif
102
RTVSPost2010PropOp54
 70
     1
102
RTVSPost2010Prop55
280
     0
102
RTVSPost2010PropOp55
 70
     1
102
RTVSPost2010Prop56
140
1.0
102
RTVSPost2010PropOp56
 70
     1
102
RTVSPost2010Prop57
140
1.0
102
RTVSPost2010PropOp57
 70
     1
  0
XRECORD
  5
7C2
102
{ACAD_REACTORS
330
7C1
102
}
330
7C1
100
AcDbXrecord
280
     1
102
RTVSPropertyOp0
 70
     1
102
RTVSPropertyOp1
 70
     1
102
RTVSPropertyOp2
 70
     1
102
RTVSPropertyOp3
 70
     1
102
RTVSPropertyOp4
 70
     1
102
RTVSPropertyOp5
 70
     1
102
RTVSPropertyOp6
 70
     1
102
RTVSPropertyOp7
 70
     1
102
RTVSPropertyOp8
 70
     1
102
RTVSPropertyOp9
 70
     1
102
RTVSPropertyOp10
 70
     1
102
RTVSPropertyOp11
 70
     1
102
RTVSPropertyOp12
 70
     1
102
RTVSPropertyOp13
 70
     1
102
RTVSPropertyOp14
 70
     1
102
RTVSPropertyOp15
 70
     1
102
RTVSPropertyOp16
 70
     1
102
RTVSPropertyOp17
 70
     1
102
RTVSPropertyOp18
 70
     1
102
RTVSPropertyOp19
 70
     1
102
RTVSPropertyOp20
 70
     1
102
RTVSPropertyOp21
 70
     1
102
RTVSPropertyOp22
 70
     1
102
RTVSPropertyOp23
 70
     1
102
RTVSPropertyOp24
 70
     1
102
RTVSPropertyOp25
 70
     1
102
RTVSPropertyOp26
 70
     1
102
RTVSPropertyOp27
 70
     1
102
RTVSPropertyOp28
 70
     1
102
RTVSPropertyOp29
 70
     1
102
RTVSPropertyOp30
 70
     1
102
RTVSPropertyOp31
 70
     1
102
RTVSPropertyOp32
 70
     1
102
RTVSPropertyOp33
 70
     1
102
RTVSPropertyOp34
 70
     1
102
RTVSPropertyOp35
 70
     1
102
RTVSPropertyOp36
 70
     1
102
RTVSPropertyOp37
 70
     1
102
RTVSPropertyOp38
 70
     1
102
RTVSPropertyOp39
 70
     1
102
RTVSPropertyOp40
 70
     1
102
RTVSPropertyOp41
 70
     1
102
RTVSPropertyOp42
 70
     1
102
RTVSPropertyOp43
 70
     1
102
RTVSPropertyOp44
 70
     1
102
RTVSPropertyOp45
 70
     1
102
RTVSPropertyOp46
 70
     1
102
RTVSPropertyOp47
 70
     1
102
RTVSPropertyOp48
 70
     1
102
RTVSPropertyOp49
 70
     1
102
RTVSPropertyOp50
 70
     1
102
RTVSPropertyOp51
 70
     0
102
RTVSPropertyOp52
 70
     0
102
RTVSPropertyOp53
 70
     1
102
RTVSPropertyOp54
 70
     1
102
RTVSPropertyOp55
 70
     1
102
RTVSPropertyOp56
 70
     1
102
RTVSPropertyOp57
 70
     1
102
RTVSPost2010Prop28
280
     0
102
RTVSPost2010PropOp28
 70
     1
102
RTVSPost2010Prop29
280
     1
102
RTVSPost2010PropOp29
 70
     1
102
RTVSPost2010Prop30
280
     1
102
RTVSPost2010PropOp30
 70
     1
102
RTVSPost2010Prop31
280
     0
102
RTVSPost2010PropOp31
 70
     1
102
RTVSPost2010Prop32
280
     0
102
RTVSPost2010PropOp32
 70
     1
102
RTVSPost2010Prop33
280
     0
102
RTVSPost2010PropOp33
 70
     1
102
RTVSPost2010Prop34
280
     0
102
RTVSPost2010PropOp34
 70
     1
102
RTVSPost2010Prop35
280
     0
102
RTVSPost2010PropOp35
 70
     1
102
RTVSPost2010Prop36
280
     0
102
RTVSPost2010PropOp36
 70
     1
102
RTVSPost2010Prop37
 90
       50
102
RTVSPost2010PropOp37
 70
     1
102
RTVSPost2010Prop38
140
0.0
102
RTVSPost2010PropOp38
 70
     1
102
RTVSPost2010Prop39
140
1.0
102
RTVSPost2010PropOp39
 70
     1
102
RTVSPost2010Prop40
 90
        0
102
RTVSPost2010PropOp40
 70
     1
102
RTVSPost2010Prop41ColorIndex
 90
       18
102
RTVSPost2010Prop41ColorRGB
 90
        0
102
RTVSPost2010PropOp41
 70
     1
102
RTVSPost2010Prop42
 90
       50
102
RTVSPost2010PropOp42
 70
     1
102
RTVSPost2010Prop43
 90
        3
102
RTVSPost2010PropOp43
 70
     1
102
RTVSPost2010Prop44ColorIndex
 90
        5
102
RTVSPost2010Prop44ColorRGB
 90
      255
102
RTVSPost2010PropOp44
 70
     1
102
RTVSPost2010Prop45
280
     0
102
RTVSPost2010PropOp45
 70
     1
102
RTVSPost2010Prop46
 90
       50
102
RTVSPost2010PropOp46
 70
     1
102
RTVSPost2010Prop47
 90
       50
102
RTVSPost2010PropOp47
 70
     1
102
RTVSPost2010Prop48
 90
       50
102
RTVSPost2010PropOp48
 70
     1
102
RTVSPost2010Prop49
280
     0
102
RTVSPost2010PropOp49
 70
     1
102
RTVSPost2010Prop50
 90
       50
102
RTVSPost2010PropOp50
 70
     1
102
RTVSPost2010Prop51ColorIndex
 90
      256
102
RTVSPost2010Prop51ColorRGB
 90
-16777216
102
RTVSPost2010PropOp51
 70
     0
102
RTVSPost2010Prop52
140
1.0
102
RTVSPost2010PropOp52
 70
     0
102
RTVSPost2010Prop53
 90
        2
102
RTVSPost2010PropOp53
 70
     1
102
RTVSPost2010Prop54
  1
strokes_ogs.tif
102
RTVSPost2010PropOp54
 70
     1
102
RTVSPost2010Prop55
280
     0
102
RTVSPost2010PropOp55
 70
     1
102
RTVSPost2010Prop56
140
1.0
102
RTVSPost2010PropOp56
 70
     1
102
RTVSPost2010Prop57
140
1.0
102
RTVSPost2010PropOp57
 70
     1
  0
ENDSEC
  0
SECTION
  2
THUMBNAILIMAGE
 90
    16364
310
28000000B4000000550000000100080000000000C43B000000000000000000000001000000010000FFFFFF000000FF0000FFFF0000FF0000FFFF0000FF000000FF00FF000000000080808000C0C0C0000000FF007F7FFF000000A5005252A50000007F003F3F7F0000004C0026264C000000260013132600003FFF007F9FFF
310
000029A5005267A500001F7F003F4F7F0000134C00262F4C000009260013172600007FFF007FBFFF000052A500527CA500003F7F003F5F7F0000264C0026394C0000132600131C260000BFFF007FDFFF00007CA5005291A500005F7F003F6F7F0000394C0026424C00001C26001321260000FFFF007FFFFF0000A5A50052A5
310
A500007F7F003F7F7F00004C4C00264C4C00002626001326260000FFBF007FFFDF0000A57C0052A59100007F5F003F7F6F00004C3900264C420000261C001326210000FF7F007FFFBF0000A5520052A57C00007F3F003F7F5F00004C2600264C39000026130013261C0000FF3F007FFF9F0000A5290052A56700007F1F003F
310
7F4F00004C1300264C2F00002609001326170000FF00007FFF7F0000A5000052A55200007F00003F7F3F00004C0000264C260000260000132613003FFF00009FFF7F0029A5000067A552001F7F00004F7F3F00134C00002F4C260009260000172613007FFF0000BFFF7F0052A500007CA552003F7F00005F7F3F00264C0000
310
394C2600132600001C261300BFFF0000DFFF7F007CA5000091A552005F7F00006F7F3F00394C0000424C26001C26000021261300FFFF0000FFFF7F00A5A50000A5A552007F7F00007F7F3F004C4C00004C4C26002626000026261300FFBF0000FFDF7F00A57C0000A59152007F5F00007F6F3F004C3900004C422600261C00
310
0026211300FF7F0000FFBF7F00A5520000A57C52007F3F00007F5F3F004C2600004C39260026130000261C1300FF3F0000FF9F7F00A5290000A56752007F1F00007F4F3F004C1300004C2F26002609000026171300FF000000FF7F7F00A5000000A55252007F0000007F3F3F004C0000004C2626002600000026131300FF00
310
3F00FF7F9F00A5002900A55267007F001F007F3F4F004C0013004C262F002600090026131700FF007F00FF7FBF00A5005200A5527C007F003F007F3F5F004C0026004C2639002600130026131C00FF00BF00FF7FDF00A5007C00A55291007F005F007F3F6F004C0039004C26420026001C0026132100FF00FF00FF7FFF00A5
310
00A500A552A5007F007F007F3F7F004C004C004C264C002600260026132600BF00FF00DF7FFF007C00A5009152A5005F007F006F3F7F0039004C0042264C001C002600211326007F00FF00BF7FFF005200A5007C52A5003F007F005F3F7F0026004C0039264C00130026001C1326003F00FF009F7FFF002900A5006752A500
310
1F007F004F3F7F0013004C002F264C000900260017132600000000002D2D2D005B5B5B0089898900B7B7B700B3B3B30000000000000000000000000000000000000000000000000000000000000000000000000000000000000000000000000000000000000000000000000000000000000000000000000000000000000000
310
00000000000000000000000000000000000000000000000000000000000000000000000000000000000000000000000000000000000000000000000000000000000000000000000000000000000000000000000000000000000000000000000000000000000000000000000000000000000000000000000000000000000000
310
00000000000000000000000000000000000000000000000000000000000000000000000000000000000000000000000000000000000000000000000000000000000000000000000000000000000000000000000000000000000000000000000000000000000000000000000000000000000000000000000000000000000000
310
00000000000000000000000000000000000000000000000000000000000000000000000000000000000000000000000000000000000000000000000000000000000000000000000000000000000000000000000000000000000000000000000000000000000000000000000000000000000000000000000000000000000000
310
00000000000000000000000000000000000000000000000000000000000000000000000000000000000000000000000000000000000000000000000000000000000000000000000000000000000000000000000000000000000000000000000000000000000000000000000000000000000000000000000000000000000000
310
00000000000000000000000000000000000000000000000000000000000000000000000000000000000000000000000000000000000000000000000000000000000000000000000000000000000000000000000000000000000000000000000000000000000000000000000000000000000000000000000000000000000000
310
00000000000000000000000000000000000000000000000000000000030303030103030303030000000000000000000000000003030303030301030303000000000000000000000000020202020202000000000000000000000303010303030303030303030303030303030303000000000000000000000000000000000000
310
00000000000000000000000000000000000000000000000000000000000000000000000000000000000000000000000000000000000000000000000000000000000000000000000000000000000000000003000000010000000303030303030303030303030303030303000000000100000300000000000000000000000002
310
02020202020000000000000000000003000100000000000001000000000003030300030000000000000000000000000000000000000000000000000000000000000000000000000000000000000000000000000000000000000000000000000000000000000000000000000000000000000000000000000000000000000000
310
00000000000000030303030103030303030003030300010401000303030003030303030301030303000000000000000000000000000000000000000000000000000000000303010303030303030303030303030303030303000000000000000000000000000000000000000000000000000000000000000000000000000000
310
00000000000000000000000000000000000000000000000000000000000000000000000000000000000000000000000000000000000000000000000003030000010000000003030000030303040303030300030303000000000100030300000000000000000000000000000000000000000000000000000000000001030300
310
00010001000000000303030100000000000000000000000000000000000000000000000000000000000000000000000000000000000000000000000000000000000000000000000000000000000000000000000000000000000000000000000000000000000000000000000000000000030303030303030303030003030300
310
00000100000000030300030303030303030303030300000000000000000000000000000000000000000000000000000000000303030303030303000000030303000000000000000000000000000000000000000000000000000000000000000000000000000000000000000000000000000000000000000000000000000000
310
00000000000000000000000000000000000000000000000000000000000000000000000000000101010000000003000003000000000000010000000000000300000300000000010101010000000000000000000000000000000000000000000000000000000000030303000100030303000003030300000000000000000000
310
00000000000000000000000000000000000000000000000000000000000000000000000000000000000000000000000000000000000000000000000000000000000000000000000000000000000000000000000000000303030303030403000000030000030000000000000001000000000000000300000300000003040303
310
03030303000000000000000000000000000000000000000000000000000303010303030101030000030303000000000000000000000000000000000000000000000000000000000000000000000000000000000000000000000000000000000000000000000000000000000000000000000000000000000000000000000000
310
00000000000000000000000003010101010304030101010101010101010101010101010101010101010101010101010101030403030101010301000000000000000000000000000000000000000000000000030303030103030103000003030300000000000000000000000000000000000000000000000000000000000000
310
00000000000000000000000000000000000000000000000000000000000000000000000000000000000000000000000000000000000000000000000000000000000300000000030403000000000300000000000000000003030000000000000000030000000003040303000000030000000000000000000000000000000000
310
00000000000000000303030303030301030000030303000000000000000000000000000000000000000000000000000000000000000000000000000000000000000000000000000000000000000000000000000000000000000000000000000000000000000000000000000000000000000000000000030303030303040000
310
03000300000000000003030303030301030300000000000003000300000403030303030300000000000000000000000000000000000000000000000001030303030303030303000003030300000000000000000000000000000000000000000000000000000000000000000000000000000000000000000000000000000000
310
00000000000000000000000000000000000000000000000000000000000000000000000000000000000000000000000000010101030003000303030303010000000003030000000303030303030003000301010303000000000000000000000000000000000000000000000000000000000003030301010003030300000303
310
03000000000000000000000000000000000000000000000000000000000000000000000000000000000000000000000000000000000000000000000000000000000000000000000000000000000000000000000000000000000000000000000000000000000003030303000303000000000303030300000100000000000000
310
00000003030303030303000000000000000000000000000000000000000000000000000000000003030303030303030300000003030303000000000000000000000000000000000000000000000000000000000000000000000000000000000000000000000000000000000000000000000000000000000000000000000000
310
00000000000000000000000000000000000000000000000000000000000300030003000000030301030301030301000000000001000000000000030003030000000000000000000000000000000000000000000000000000000000010301010000010001000000000301010300000000000000000000000000000000000000
310
00000000000000000000000000000000000000000000000000000000000000000000000000000000000000000000000000000000000000000000000000000000000000000000000000000000000000000000030300030000000301010001000001030300000003030303030000000003000303000000000000000000000000
310
00000000000000000000000000000000000003030300000000010000000003030303000000000000000000000000000000000000000000000000000000000000000000000000000000000000000000000000000000000000000000000000000000000000000000000000000000000000000000000000000000000000000000
310
00000000000000000303000300000303030003030303000303000003010103010103000000000303030000000000000000000000000000000000000000000003030303030303030301010000000001000000000301010300000000000000000000000000000000000000000000000000000000000000000000000000000000
310
00000000000000000000000000000000000000000000000000000000000000000000000000000000000000000000000000000000000000000000000000030300030000030101030303030303010103030301030303010303000000030303000000000000000000000000000000000000000000000300000000000003030101
310
00000000010000000003010103000000000000000000000000000000000000000000000000000000000000000000000000000000000000000000000000000000000000000000000000000000000000000000000000000000000000000000000000000000000000000000000000000000000003030300000101010103010101
310
03030101010303010001000103030000000303030000000000000000000000000000000000000000000003010101010101030304030101010101010101010101030300000000000000000000000000000000000000000000000000000000000000000000000000000000000000000000000000000000000000000000000000
310
00000000000000000000000000000000000000000000000000000000000000000000000000000000030101010101010101030301010303010101010103010101030101010101010103010000000000000000000000000000000000000000000300000000000003030403000000000100000000030303030000000000000000
310
00000000000000000000000000000000000000000000000000000000000000000000000000000000000000000000000000000000000000000000000000000000000000000000000000000000000000000000000000000000000000000003030003000003030303030303030303030301010300010003010100000003030300
310
00000000000000000000000000000000000000000003000000000000030304030000000001000000000303030300000000000000000000000000000000000000000000000000000000000000000000000000000000000000000000000000000000000000000000000000000000000000000000000000000000000000000000
310
00000000000000000000000000000000000000030300030000030303000303030300030300030301030103010303000000030303000000000000000000000000000000000000000000000303030303030303030101000000000100000000030101030000000000000000000000000000000000000000000000000000000000
310
00000000000000000000000000000000000000000000000000000000000000000000000000000000000000000000000000000000000000000000000000000000000000000000000003030003000000030101000100000103030000010101030101010000000300030300000000000000000000000000000000000000000000
310
00000000000000000304030000000001000000000303030300000000000000000000000000000000000000000000000000000000000000000000000000000000000000000000000000000000000000000000000000000000000000000000000000000000000000000000000000000000000000000000000000000000000303
310
00030000000003030103030103030100000303010301030300000003000303000000000000000000000000000000000000000000000000000000000001030101000000000100000000030101030000000000000000000000000000000000000000000000000000000000000000000000000000000000000000000000000000
310
00000000000000000000000000000000000000000000000000000000000000000000000000000000000000000000000000000003000303030303030000030303030000010000000003030300000303030300030300000000000000000000000000000000000000000000000000000000000003030300000000010000000003
310
03030300000000000000000000000000000000000000000000000000000000000000000000000000000000000000000000000000000000000000000000000000000000000000000000000000000000000000000000000000000000000000000000000000000000000300030003000000030303010303000001000003030303
310
03030300000003030003000000000000000000000000000000000000000000000000000000000000000303000000000100000000030303000000000000000000000000000000000000000000000000000000000000000000000000000000000000000000000000000000000000000000000000000000000000000000000000
310
00000000000000000000000000000000000000000000000000000000000000030003030000000000000000000303030303000000000000000000030300000300000000000000000000000000000000000000000000000000000000000000030300000000010000000003030300000000000000000000000000000000000000
310
00000000000000000000000000000000000000000000000000000000000000000000000000000000000000000000000000000000000000000000000000000000000000000000000000000000000000000000000003000300030000000000000000000001000000000000000000000300030000030000000000000000000000
310
00000000000000000000000000000000000000000303000000000100000000030303000000000000000000000000000000000000000000000000000000000000000000000000000000000000000000000000000000000000000000000000000000000000000000000000000000000000000000000000000000000000000000
310
00000000000000000000030000030003000000000000000303030303000000000000000300000300030000000000000000000000000000000000000000000000000000000000000000030300000000010000000003030300000000000000000000000000000000000000000000000000000000000000000000000000000000
310
00000000000000000000000000000000000000000000000000000000000000000000000000000000000000000000000000000000000000000000000000000003000000030003000000000000030303030300000000000003000003000003000000000000000000000000000000000000000000000000000000000000000003
310
03000000000100000000030303000000000000000000000000000000000000000000000000000000000000000000000000000000000000000000000000000000000000000000000000000000000000000000000000000000000000000000000000000000000000000000000000000000000000000300000000030003000000
310
00000303030303000000000003000003000000030000000000000000000000000000000000000000000000000000000000000000030300000000010000000003030300000000000000000000000000000000000000000000000000000000000000000000000000000000000000000000000000000000000000000000000000
310
00000000000000000000000000000000000000000000000000000000000000000000000000000000000000030000000003000303030000000001000000000303030003030000000300000000000000000000000000000000000000000000000000000000000000000003030000000001000000000303030000000000000000
310
00000000000000000000000000000000000000000000000000000000000000000000000000000000000000000000000000000000000000000000000000000000000000000000000000000000000000000000000000000000000000000000000003000000000003030000030303030103030303000003030000000000030000
310
00000000000000000000000000000000000000000000000000000000000000030300000000010000000003030300000000000000000000000000000000000000000000000000000000000000000000000000000000000000000000000000000000000000000000000000000000000000000000000000000000000000000000
310
00000000000000000000000000000000000000000000030303030100000003030300000001000000030303000000030303030300000000000000000000000000000000000000000000000000000000000000000003030000000001000000000303030000000000000000000000000000000000000000000000000000000000
310
00000000000000000000000000000000000000000000000000000000000000000000000000000000000000000000000000000000000000000000000000000000000000000000000000000000000003030303030303030303030303030303030303030300000000000000000000000000000000000000000000000000000000
310
00000000000000000000030303030303030303030303030300000000000000000000000000000000000000000000000000000000000000000000000000000000000000000000000000000000000000000000000000000000000000000000000000000000000000000000000000000000000000000000000000000000000000
310
00000000000100000000000000000303030000000000000000000000000000000000000000000000000000000000000000000000000000000000000000000000000000000303030300000000000000000000000000000000000000000000000000000000000000000000000000000000000000000000000000000000000000
310
00000000000000000000000000000000000000000000000000000000000000000000000000000000000000000000000000000000000000000000000000000000000000010101000000000000000000000000000000000000000000000000000000000000000000000000000000000000000000000000000001030303010100
310
00000000000000000000000000000000000000000000000000000000000000000000000000000000000000000000000000000000000000000000000000000000000000000000000000000000000000000000000000000000000000000000000000000000000000000000000000000000000000000000000000030300000000
310
00000000000000000000000000000000000000000000000000000000000000000000000000000000000000000000000303030300000000000000000000000000000000000000000000000000000000000000000000000000000000000000000000000000000000000000000000000000000000000000000000000000000000
310
00000000000000000000000000000000000000000000000000000000000000000000000000000000000000000000000303000000000000000000000000000000000000000000000000000000000000000000000000000000000000000000000000000000030303000000000000000000000000000000000000000000000000
310
00000000000000000000000000000000000000000000000000000000000000000000000000000000000000000000000000000000000000000000000000000000000000000000000000000000000000000000000000000000000000000000000000000000000000000000000000000000000000000000000000000000000000
310
00000000000000000000000000000000000000000000000000000000000000000000000000000000000000000000000000000000000000000000000000000000000000000000000000000000000000000000000000000000000000000000000000000000000000000000000000000000000000000000000000000000000000
310
00000000000000000000000000000000000000000000000000000000000000000000000000000000000000000000000000000000000000000000000000000000000000000000000000000000000000000000000000000000000000000000000000000000000000000000000000000000000000000000000000000000000000
310
00000000000000000000000000000000000000000000000000000000000000000000000000000000000000000000000000000000000000000000000000000000000000000000000000000000000000000000000000000000000000000000000000000000000000000000000000000000000000000000000000000000000000
310
00000000000000000000000000000000000000000000000000000000000000000000000000000000000000000000000000000000000000000000000000000000000000000000000000000000000000000000000000000000000000000000000000000000000000000000000000000000000000000000000000000000000000
310
00000000000000000000000000000000000000000000000000000000000000000000000000000000000000000000000000000000000000000000000000000000000000000000000000000000000000000000000000000000000000000000000000000000000000000000000000000000000000000000000000000000000000
310
00000000000000000000000000000000000000000000000000000000000000000000000000000000000000000000000000000000000000000000000000000000000000000000000000000000000000000000000000000000000000000000000000000000000000000000000000000000000000000000000000000000000000
310
00000000000000000000000000000000000000000000000000000000000000000000000000000000000000000000000000000000000000000000000000000000000000000000000000000000000000000000000000000000000000000000000000000000000000000000000000000000000000000000000000000000000000
310
00000000000000000000000000000000000000000000000000000000000000000000000000000000000000000000000000000000000000000000000000000000000000000000000000000000000000000000000000000000000000000000000000000000000000000000000000000000000000000000000000000000000000
310
00000000000000000000000000000000000000000000000000000000000000000000000000000000000000000000000000000000000000000000000000000000000000000000000000000000000000000000000000000000000000000000000000000000000000000000000000000000000000000000000000000000000000
310
00000000000000000000000000000000000000000000000000000000000000000000000000000000000000000000000000000000000000000000000000000000000000000000000000000000000000000000000000000000000000000000000000000000000000000000000000000000000000000000000000000000000000
310
00000000000000000000000000000000000000000000000000000000000000000000000000000000000000000000000000000000000000000000000000000000000000000000000000000000000000000000000000000000000000000000000000000000000000000000000000000000000000000000000000000000000000
310
00000000000000000000000000000000000000000000000000000000000000000000000000000000000000000000000000000000000000000000000000000000000000000000000000000000000000000000000000000000000000000000000000000000000000000000000000000000000000000000000000000000000000
310
00000000000000000000000000000000000000000000000000000000000000000000000000000000000000000000000000000000000000000000000000000000000000000000000000000000000000000000000000000000000000000000000000000000000000000000000000000000000000000000000000000000000000
310
00000000000000000000000000000000000000000000000000000000000000000000000000000000000000000000000000000000000000000000000000000000000000000000000000000000000000000000000000000000000000000000000000000000000000000000000000000000000000000000000000000000000000
310
00000000000000000000000000000000000000000000000000000000000000000000000000000000000000000000000000000000000000000000000000000000000000000000000000000000000000000000000000000000000000000000000000000000000000000000000000000000000000000000000000000000000000
310
00000000000000000000000000000000000000000000000000000000000000000000000000000000000000000000000000000000000000000000000000000000000000000000000000000000000000000000000000000000000000000000000000000000000000000000000000000000000000000000000000000000000000
310
00000000000000000000000000000000000000000000000000000000000000000000000000000000000000000000000000000000000000000000000000000000000000000000000000000000000000000000000000000000000000000000000000000000000000000000000000000000000000000000000000000000000000
310
00000000000000000000000000000000000000000000000000000000000000000000000000000000000000000000000000000000000000000000000000000000000000000000000000000000000000000000000000000000000000000000000000000000000000000000000000000000000000000000000000000000000000
310
00000000000000000000000000000000000000000000000000000000000000000000000000000000000000000000000000000000000000000000000000000000000000000000000000000000000000000000000000000000000000000000000000000000000000000000000000000000000000000000000000000000000000
310
00000000000000000000000000000000000000000000000000000000000000000000000000000000000000000000000000000000000000000000000000000000000000000000000000000000000000000000000000000000000000000000000000000000000000000000000000000000000000000000000000000000000000
310
00000000000000000000000000000000000000000000000000000000000000000000000000000000000000000000000000000000000000000000000000000000000000000000000000000000000000000000000000000000000000000000000000000000000000000000000000000000000000000000000000000000000000
310
00000000000000000000000000000000000000000000000000000000000000000000000000000000000000000000000000000000000000000000000000000000000000000000000000000000000000000000000000000000000000000000000000000000000000000000000000000000000000000000000000000000000000
310
00000000000000000000000000000000000000000000000000000000000000000000000000000000000000000000000000000000030303030300000000000000000000000000000000000000000000000000000000000000000000000000000000000000000000000000000000000000000000000000000000000000000000
310
00000000000000000000000000000000000000000000000000000000000000000000000000000000000000000000000000000000000000000000000000000000000000000000000000000000000000000000000000000000000000000000000000000000000000000003000303030000000000000000000000000000000000
310
00000000000000000000000000000000000000000000000000000000000000000000000000000000000000000000000000000000000000000000000000000000000000000000000000000000000000000000000000000000000000000000000000000000000000000000000000000000000000000000000000000000000000
310
00000000000000000000000000000000000000000000000000000000000000030003030300000000000000000000000000000000000000000000000000000000000000000000000000000000000000000000000000000000000000000000000000000000000000000000000000000000000000000000000000000000000000
310
00000000000000000000000000000000000000000000000000000000000000000000000000000000000000000000000000000000000000000000000000000000000000000000000000000000000000000000000003000303030000000000000000000000000000000000000000000000000000000000000000000000000000
310
00000000000000000000000000000000000000000000000000000000000000000000000000000000000000000000000000000000000000000000000000000000000000000000000000000000000000000000000000000000000000000000000000000000000000000000000000000000000000000000000000000000000000
310
00000000000000000000030003030300000000000000000000000000000000000000000000000000000000000000000000000000000000000000000000000000000000000000000000000000000000000000000000000000000000000000000000000000000000000000000000000000000000000000000000000000000000
310
00000000000000000000000000000000000000000000000000000000000000000000000000000000000000000000000000000000000000000000000000000003000303030000000000000000000000000000000000000000000000000000000000000000000000000000000000000000000000000000000000000000000000
310
00000000000000000000000000000000000000000000000000000000000000000000000000000000000000000000000000000000000000000000000000000000000000000000000000000000000000000000000000000000000000000000000000000000000000000000000303030301030303030300030303000000000000
310
00000000030303030301030303000000000000000000000000000000000000000000000000000000000000000000000000000000000000000000000000000000000000000000000000000000000000000000000000000000000000000000000000000000000000000000000000000000000000000000000000000000000000
310
00000000000000000000000000000000000000000000000000000000000000000003000003030000010303030303030301030003010000030003010300030100000300000000000000000000000000000000000000000000000000000000000000000000000000000000000000000000000000000000000000000000000000
310
00000000000000000000000000000000000000000000000000000000000000000000000000000000000000000000000000000000000000000000000000000000000000000000000000000000000000000000000000000303010303010301030303030303030103030301040403040401030101010103030000000000000000
310
00000000000000000000000000000000000000000000000000000000000000000000000000000000000000000000000000000000000000000000000000000000000000000000000000000000000000000000000000000000000000000000000000000000000000000000000000000000000000000000000000000000000000
310
00000000000000000000000303030303010303010303030103030301010303010303010303010303030103030303000000000000000000000000000000000000000000000000000000000000000000000000000000000000000000000000000000000000000000000000000000000000000000000000000000000000000000
310
00000000000000000000000000000000000000000000000000000000000000000000000000000000000000000000000000000000000000000000000000000000010101030303030303030303010303030301030303030301030303030303030301010101000000000000000000000000000000000000000000000000000000
310
00000000000000000000000000000000000000000000000000000000000000000000000000000000000000000000000000000000000000000000000000000000000000000000000000000000000000000000000000000000000000000000000000000000000000000000000000000000000000000003040000000000000000
310
00000100000000010000000000010000000000000000000403030000000000000000000000000000000000000000000000000000000000000000000000000000000000000000000000000000000000000000000000000000000000000000000000000000000000000000000000000000000000000000000000000000000000
310
00000000000000000000000000000000000000000000000000000000000000000000000000000303030303030400000000000000000000010000000001000000000001000000000000000000040303030303030000000000000000000000000000000000000000000000000000000000000000000000000000000000000000
310
00000000000000000000000000000000000000000000000000000000000000000000000000000000000000000000000000000000000000000000000000000000000000000000000000000000000000000000000000000000000000030303030303010101010101010101010101010101010301010101010101010101010101
310
01010103030303030301000000000000000000000000000000000000000000000000000000000000000000000000000000000000000000000000000000000000000000000000000000000000000000000000000000000000000000000000000000000000000000000000000000000000000000000000000000000000000000
310
00000000000000000000000000000000000303030303030400000000000303000000010000000303030000000001000000000000000000040303030303030000000000000000000000000000000000000000000000000000000000000000000000000000000000000000000000000000000000000000000000000000000000
310
00000000000000000000000000000000000000000000000000000000000000000000000000000000000000000000000000000000000000000000000000000000000000000000000000000003010101010103010301010101010101030303010101010101010101010101010101010100000000000000000000000000000000
310
00000000000000000000000000000000000000000000000000000000000000000000000000000000000000000000000000000000000000000000000000000000000000000000000000000000000000000000000000000000000000000000000000000000000000000000000000000000000000000000000000000000000000
310
00030300000000000303000000010000000303030000000001000000000000000000030303000000000000000000000000000000000000000000000000000000000000000000000000000000000000000000000000000000000000000000000000000000000000000000000000000000000000000000000000000000000000
310
00000000000000000000000000000000000000000000000000000000000000000000000000000000000000000000000000000000000000030000000000000000000001000000030303000000000100000000000000000003000000000000000000000000000000000000000000000000000000000000000000000000000000
310
00000000000000000000000000000000000000000000000000000000000000000000000000000000000000000000000000000000000000000000000000000000000000000000000000000000000000000000000000000000000000000000000000000000000000000000000003000000000000000000000100000000010000
310
00000001000000000000000000030000000000000000000000000000000000000000000000000000000000000000000000000000000000000000000000000000000000000000000000000000000000000000000000000000000000000000000000000000000000000000000000000000000000000000000000000000000000
310
00000000000000000000000000000000000000000000000000000000000000000000030000000000000000000001000000000100000000000100000000000000000003000000000000000000000000000000000000000000000000000000000000000000000000000000000000000000000000000000000000000000000000
310
00000000000000000000000000000000000000000000000000000000000000000000000000000000000000000000000000000000000000000000000000000000000000000000000000000000000000000000000000000003040404040404040404040104040404040404040404010404040404040404040300000000000000
310
00000000000000000000000000000000000000000000000000000000000000000000000000000000000000000000000000000000000000000000000000000000000000000000000000000000000000000000000000000000000000000000000000000000000000000000000000000000000000000000000000000000000000
310
00000000000000000000000000030303030303030103030301030303010303030103030103030103030303030303000000000000000000000000000000000000000000000000000000000000000000000000000000000000000000000000000000000000000000000000000000000000000000000000000000000000000000
310
00000000000000000000000000000000000000000000000000000000000000000000000000000000000000000000000000000000000000000000000000000000000003030003010003030304040303040401030303030404030404010303030100030300000000000000000000000000000000000000000000000000000000
310
00000000000000000000000000000000000000000000000000000000000000000000000000000000000000000000000000000000000000000000000000000000000000000000000000000000000000000000000000000000000000000000000000000000000000000000000000000000000000000000000303010101010003
310
03030003030000010300030300000300030103010301010303000000000000000000000000000000000000000000000000000000000000000000000000000000000000000000000000000000000000000000000000000000000000000000000000000000000000000000000000000000000000000000000000000000000000
310
00000000000000000000000000000000000000000000000000000000000000000000000000000000000000000003000000010000000300000000000000000000000000000003000000000100000300000000000000000000000000000000000000000000000000000000000000000000000000000000000000000000000000
310
00000000000000000000000000000000000000000000000000000000000000000000000000000000000000000000000000000000000000000000000000000000000000000000000000000000000000000000000000000000000000000000000000000003030303030303030000000000000000000000000000000003030303
310
03030303000000000000000000000000000000000000000000000000000000000000000000000000000000000000000000000000000000000000000000000000000000000000000000000000000000000000000000000000000000000000000000000000000000000000000000000000000000000000000000000000000000
310
00000000000000000000000000000000000000000000000000000000000000000000000000000000000000000000000000000000000000000000000000000000000000000000000000000000000000000000000000000000000000000000000000000000000000000000000000000000000000000000000000000000000000
310
00000000000000000000000000000000000000000000000000000000000000000000000000000000000000000000000000000000000000000000000000000000000000000000000000000000000000000000000000000000000000000000000000000000000000000000000000000000000000000000000000000000000000
310
000000000000000000000000000000000000000000000000000000000000000000000000000000000000000000000000000000000000000000000000000000000000000000000000000000000000000000000000000000000000000000000000000000000000000000000000
  0
ENDSEC
  0
EOF
