  0
SECTION
  2
HEADER
  9
$ACADVER
  1
AC1015
  9
$ACADMAINTVER
 70
     6
  9
$DWGCODEPAGE
  3
ANSI_932
  9
$INSBASE
 10
1716.096080366606
 20
292.5166180345004
 30
0.0
  9
$EXTMIN
 10
231.1307595656881
 20
15.80702746972452
 30
0.0
  9
$EXTMAX
 10
1299.139929847842
 20
1172.34185827574
 30
0.0
  9
$LIMMIN
 10
0.0
 20
0.0
  9
$LIMMAX
 10
816.5000000000001
 20
565.0
  9
$ORTHOMODE
 70
     1
  9
$REGENMODE
 70
     1
  9
$FILLMODE
 70
     1
  9
$QTEXTMODE
 70
     0
  9
$MIRRTEXT
 70
     1
  9
$LTSCALE
 40
20.0
  9
$ATTMODE
 70
     1
  9
$TEXTSIZE
 40
12.0
  9
$TRACEWID
 40
0.05
  9
$TEXTSTYLE
  7
KANJI
  9
$CLAYER
  8
2
  9
$CELTYPE
  6
BYLAYER
  9
$CECOLOR
 62
   256
  9
$CELTSCALE
 40
1.0
  9
$DISPSILH
 70
     0
  9
$DIMSCALE
 40
4.0
  9
$DIMASZ
 40
2.0
  9
$DIMEXO
 40
0.5
  9
$DIMDLI
 40
0.0
  9
$DIMRND
 40
0.0
  9
$DIMDLE
 40
0.0
  9
$DIMEXE
 40
1.0
  9
$DIMTP
 40
0.0
  9
$DIMTM
 40
0.0
  9
$DIMTXT
 40
3.0
  9
$DIMCEN
 40
0.09
  9
$DIMTSZ
 40
0.0
  9
$DIMTOL
 70
     0
  9
$DIMLIM
 70
     0
  9
$DIMTIH
 70
     0
  9
$DIMTOH
 70
     0
  9
$DIMSE1
 70
     0
  9
$DIMSE2
 70
     0
  9
$DIMTAD
 70
     0
  9
$DIMZIN
 70
     8
  9
$DIMBLK
  1

  9
$DIMASO
 70
     0
  9
$DIMSHO
 70
     0
  9
$DIMPOST
  1

  9
$DIMAPOST
  1

  9
$DIMALT
 70
     0
  9
$DIMALTD
 70
     2
  9
$DIMALTF
 40
25.4
  9
$DIMLFAC
 40
1.0
  9
$DIMTOFL
 70
     1
  9
$DIMTVP
 40
1.0
  9
$DIMTIX
 70
     1
  9
$DIMSOXD
 70
     1
  9
$DIMSAH
 70
     0
  9
$DIMBLK1
  1

  9
$DIMBLK2
  1

  9
$DIMSTYLE
  2
STANDARD
  9
$DIMCLRD
 70
   256
  9
$DIMCLRE
 70
   256
  9
$DIMCLRT
 70
   256
  9
$DIMTFAC
 40
1.0
  9
$DIMGAP
 40
0.09
  9
$DIMJUST
 70
     0
  9
$DIMSD1
 70
     0
  9
$DIMSD2
 70
     0
  9
$DIMTOLJ
 70
     1
  9
$DIMTZIN
 70
     0
  9
$DIMALTZ
 70
     0
  9
$DIMALTTZ
 70
     0
  9
$DIMUPT
 70
     0
  9
$DIMDEC
 70
     1
  9
$DIMTDEC
 70
     4
  9
$DIMALTU
 70
     2
  9
$DIMALTTD
 70
     2
  9
$DIMTXSTY
  7
STANDARD
  9
$DIMAUNIT
 70
     0
  9
$DIMADEC
 70
     0
  9
$DIMALTRND
 40
0.0
  9
$DIMAZIN
 70
     0
  9
$DIMDSEP
 70
    46
  9
$DIMATFIT
 70
     3
  9
$DIMFRAC
 70
     0
  9
$DIMLDRBLK
  1

  9
$DIMLUNIT
 70
     2
  9
$DIMLWD
 70
    -2
  9
$DIMLWE
 70
    -2
  9
$DIMTMOVE
 70
     0
  9
$LUNITS
 70
     2
  9
$LUPREC
 70
     3
  9
$SKETCHINC
 40
0.1
  9
$FILLETRAD
 40
1.0
  9
$AUNITS
 70
     0
  9
$AUPREC
 70
     3
  9
$MENU
  1
C:\R13\WIN\SUPPORT\ACADFULL
  9
$ELEVATION
 40
0.0
  9
$PELEVATION
 40
0.0
  9
$THICKNESS
 40
0.0
  9
$LIMCHECK
 70
     0
  9
$CHAMFERA
 40
0.0
  9
$CHAMFERB
 40
0.0
  9
$CHAMFERC
 40
0.0
  9
$CHAMFERD
 40
0.0
  9
$SKPOLY
 70
     0
  9
$TDCREATE
 40
2457161.453607801
  9
$TDUCREATE
 40
2457161.078607801
  9
$TDUPDATE
 40
2458109.493693368
  9
$TDUUPDATE
 40
2458109.118693368
  9
$TDINDWG
 40
0.0438710648
  9
$TDUSRTIMER
 40
0.0438703125
  9
$USRTIMER
 70
     1
  9
$ANGBASE
 50
0.0
  9
$ANGDIR
 70
     0
  9
$PDMODE
 70
     0
  9
$PDSIZE
 40
0.0
  9
$PLINEWID
 40
0.0
  9
$SPLFRAME
 70
     0
  9
$SPLINETYPE
 70
     6
  9
$SPLINESEGS
 70
     8
  9
$HANDSEED
  5
5A2
  9
$SURFTAB1
 70
     6
  9
$SURFTAB2
 70
     6
  9
$SURFTYPE
 70
     6
  9
$SURFU
 70
     6
  9
$SURFV
 70
     6
  9
$UCSBASE
  2

  9
$UCSNAME
  2

  9
$UCSORG
 10
0.0
 20
0.0
 30
0.0
  9
$UCSXDIR
 10
1.0
 20
0.0
 30
0.0
  9
$UCSYDIR
 10
0.0
 20
1.0
 30
0.0
  9
$UCSORTHOREF
  2

  9
$UCSORTHOVIEW
 70
     0
  9
$UCSORGTOP
 10
0.0
 20
0.0
 30
0.0
  9
$UCSORGBOTTOM
 10
0.0
 20
0.0
 30
0.0
  9
$UCSORGLEFT
 10
0.0
 20
0.0
 30
0.0
  9
$UCSORGRIGHT
 10
0.0
 20
0.0
 30
0.0
  9
$UCSORGFRONT
 10
0.0
 20
0.0
 30
0.0
  9
$UCSORGBACK
 10
0.0
 20
0.0
 30
0.0
  9
$PUCSBASE
  2

  9
$PUCSNAME
  2

  9
$PUCSORG
 10
0.0
 20
0.0
 30
0.0
  9
$PUCSXDIR
 10
1.0
 20
0.0
 30
0.0
  9
$PUCSYDIR
 10
0.0
 20
1.0
 30
0.0
  9
$PUCSORTHOREF
  2

  9
$PUCSORTHOVIEW
 70
     0
  9
$PUCSORGTOP
 10
0.0
 20
0.0
 30
0.0
  9
$PUCSORGBOTTOM
 10
0.0
 20
0.0
 30
0.0
  9
$PUCSORGLEFT
 10
0.0
 20
0.0
 30
0.0
  9
$PUCSORGRIGHT
 10
0.0
 20
0.0
 30
0.0
  9
$PUCSORGFRONT
 10
0.0
 20
0.0
 30
0.0
  9
$PUCSORGBACK
 10
0.0
 20
0.0
 30
0.0
  9
$USERI1
 70
     0
  9
$USERI2
 70
     0
  9
$USERI3
 70
     0
  9
$USERI4
 70
     0
  9
$USERI5
 70
     0
  9
$USERR1
 40
0.0
  9
$USERR2
 40
0.0
  9
$USERR3
 40
0.0
  9
$USERR4
 40
2448925.372986111
  9
$USERR5
 40
0.04166667
  9
$WORLDVIEW
 70
     1
  9
$SHADEDGE
 70
     3
  9
$SHADEDIF
 70
    70
  9
$TILEMODE
 70
     1
  9
$MAXACTVP
 70
    16
  9
$PINSBASE
 10
0.0
 20
0.0
 30
0.0
  9
$PLIMCHECK
 70
     0
  9
$PEXTMIN
 10
1000000000000000E+20
 20
1000000000000000E+20
 30
1000000000000000E+20
  9
$PEXTMAX
 10
-1000000000000000E+20
 20
-1000000000000000E+20
 30
-1000000000000000E+20
  9
$PLIMMIN
 10
0.0
 20
0.0
  9
$PLIMMAX
 10
12.0
 20
9.0
  9
$UNITMODE
 70
     0
  9
$VISRETAIN
 70
     0
  9
$PLINEGEN
 70
     0
  9
$PSLTSCALE
 70
     0
  9
$TREEDEPTH
 70
  3020
  9
$CMLSTYLE
  2
STANDARD
  9
$CMLJUST
 70
     0
  9
$CMLSCALE
 40
1.0
  9
$PROXYGRAPHICS
 70
     1
  9
$MEASUREMENT
 70
     0
  9
$CELWEIGHT
370
    -1
  9
$ENDCAPS
280
     0
  9
$JOINSTYLE
280
     0
  9
$LWDISPLAY
290
     0
  9
$INSUNITS
 70
     0
  9
$HYPERLINKBASE
  1

  9
$STYLESHEET
  1

  9
$XEDIT
290
     1
  9
$CEPSNTYPE
380
     0
  9
$PSTYLEMODE
290
     1
  9
$FINGERPRINTGUID
  2
{B2743FE6-FD62-41F3-A814-1F1E62B9CB76}
  9
$VERSIONGUID
  2
{1B6C69C9-758C-4797-A07C-4728ED899F9B}
  9
$EXTNAMES
290
     1
  9
$PSVPSCALE
 40
0.0
  9
$OLESTARTUP
290
     0
  0
ENDSEC
  0
SECTION
  2
CLASSES
  0
CLASS
  1
ACDBDICTIONARYWDFLT
  2
AcDbDictionaryWithDefault
  3
ObjectDBX Classes
 90
        0
280
     0
281
     0
  0
CLASS
  1
MATERIAL
  2
AcDbMaterial
  3
ObjectDBX Classes
 90
     1153
280
     0
281
     0
  0
CLASS
  1
SORTENTSTABLE
  2
AcDbSortentsTable
  3
ObjectDBX Classes
 90
        0
280
     0
281
     0
  0
CLASS
  1
SCALE
  2
AcDbScale
  3
ObjectDBX Classes
 90
     1153
280
     0
281
     0
  0
CLASS
  1
DICTIONARYVAR
  2
AcDbDictionaryVar
  3
ObjectDBX Classes
 90
        0
280
     0
281
     0
  0
CLASS
  1
VISUALSTYLE
  2
AcDbVisualStyle
  3
ObjectDBX Classes
 90
     4095
280
     0
281
     0
  0
CLASS
  1
MLEADERSTYLE
  2
AcDbMLeaderStyle
  3
ACDB_MLEADERSTYLE_CLASS
 90
     4095
280
     0
281
     0
  0
CLASS
  1
TABLESTYLE
  2
AcDbTableStyle
  3
ObjectDBX Classes
 90
     4095
280
     0
281
     0
  0
CLASS
  1
ACDBPLACEHOLDER
  2
AcDbPlaceHolder
  3
ObjectDBX Classes
 90
        0
280
     0
281
     0
  0
CLASS
  1
LAYOUT
  2
AcDbLayout
  3
ObjectDBX Classes
 90
        0
280
     0
281
     0
  0
ENDSEC
  0
SECTION
  2
TABLES
  0
TABLE
  2
VPORT
  5
26
102
{ACAD_XDICTIONARY
360
568
102
}
330
0
100
AcDbSymbolTable
 70
     2
  0
VPORT
  5
2B
330
26
100
AcDbSymbolTableRecord
100
AcDbViewportTableRecord
  2
*ACTIVE
 70
     0
 10
0.0
 20
0.0
 11
1.0
 21
1.0
 12
1000.522815015036
 22
611.2352425003324
 13
0.0
 23
0.0
 14
1.0
 24
1.0
 15
50.0
 25
50.0
 16
0.0
 26
0.0
 36
1.0
 17
0.0
 27
0.0
 37
0.0
 40
1272.885162938695
 41
1.82716049382716
 42
50.0
 43
0.0
 44
0.0
 50
0.0
 51
0.0
 71
     0
 72
  5000
 73
     1
 74
     0
 75
     0
 76
     0
 77
     0
 78
     0
281
     0
 65
     1
110
0.0
120
0.0
130
0.0
111
1.0
121
0.0
131
0.0
112
0.0
122
1.0
132
0.0
 79
     0
146
0.0
  0
ENDTAB
  0
TABLE
  2
LTYPE
  5
B
330
0
100
AcDbSymbolTable
 70
     2
  0
LTYPE
  5
C
330
B
100
AcDbSymbolTableRecord
100
AcDbLinetypeTableRecord
  2
BYBLOCK
 70
     0
  3

 72
    65
 73
     0
 40
0.0
  0
LTYPE
  5
D
330
B
100
AcDbSymbolTableRecord
100
AcDbLinetypeTableRecord
  2
BYLAYER
 70
     0
  3

 72
    65
 73
     0
 40
0.0
  0
LTYPE
  5
A
330
B
100
AcDbSymbolTableRecord
100
AcDbLinetypeTableRecord
  2
CONTINUOUS
 70
     0
  3
Solid line
 72
    65
 73
     0
 40
0.0
  0
LTYPE
  5
7C
330
B
100
AcDbSymbolTableRecord
100
AcDbLinetypeTableRecord
  2
CENTER
 70
     0
  3
____ _ ____ _ ____ _ ____ _ ____ _ ____ _ ____
 72
    65
 73
     4
 40
2.0
 49
1.25
 74
     0
 49
-0.25
 74
     0
 49
0.25
 74
     0
 49
-0.25
 74
     0
  0
ENDTAB
  0
TABLE
  2
LAYER
  5
2
330
0
100
AcDbSymbolTable
 70
     8
  0
LAYER
  5
1B
330
2
100
AcDbSymbolTableRecord
100
AcDbLayerTableRecord
  2
0
 70
     0
 62
     7
  6
CONTINUOUS
370
    -3
390
3
  0
LAYER
  5
29D
330
2
100
AcDbSymbolTableRecord
100
AcDbLayerTableRecord
  2
1
 70
     0
 62
     9
  6
CONTINUOUS
370
    -3
390
3
  0
LAYER
  5
1
330
2
100
AcDbSymbolTableRecord
100
AcDbLayerTableRecord
  2
2
 70
     0
 62
     4
  6
CONTINUOUS
370
    -3
390
3
  0
LAYER
  5
75
330
2
100
AcDbSymbolTableRecord
100
AcDbLayerTableRecord
  2
4
 70
     0
 62
     3
  6
CONTINUOUS
370
    -3
390
3
  0
LAYER
  5
7B
330
2
100
AcDbSymbolTableRecord
100
AcDbLayerTableRecord
  2
L-CENTER
 70
     0
 62
     1
  6
CENTER
370
    -3
390
3
  0
LAYER
  5
72
330
2
100
AcDbSymbolTableRecord
100
AcDbLayerTableRecord
  2
3
 70
     0
 62
     2
  6
CONTINUOUS
370
    -3
390
3
  0
LAYER
  5
297
330
2
100
AcDbSymbolTableRecord
100
AcDbLayerTableRecord
  2
5
 70
     0
 62
     6
  6
CONTINUOUS
370
    -3
390
3
  0
LAYER
  5
41B
330
2
100
AcDbSymbolTableRecord
100
AcDbLayerTableRecord
  2
Defpoints
 70
     0
 62
     7
  6
CONTINUOUS
290
     0
370
    -3
390
3
  0
ENDTAB
  0
TABLE
  2
STYLE
  5
F
330
0
100
AcDbSymbolTable
 70
     2
  0
STYLE
  5
13
330
F
100
AcDbSymbolTableRecord
100
AcDbTextStyleTableRecord
  2
STANDARD
 70
     0
 40
0.0
 41
1.0
 50
0.0
 71
     0
 42
7.2
  3
TXT
  4

  0
STYLE
  5
E
330
F
100
AcDbSymbolTableRecord
100
AcDbTextStyleTableRecord
  2
KANJI
 70
     0
 40
0.0
 41
1.0
 50
0.0
 71
     0
 42
12.0
  3
TXT
  4
BIGFONT
  0
ENDTAB
  0
TABLE
  2
VIEW
  5
24
330
0
100
AcDbSymbolTable
 70
     0
  0
ENDTAB
  0
TABLE
  2
UCS
  5
25
330
0
100
AcDbSymbolTable
 70
     0
  0
ENDTAB
  0
TABLE
  2
APPID
  5
9
330
0
100
AcDbSymbolTable
 70
     4
  0
APPID
  5
8
330
9
100
AcDbSymbolTableRecord
100
AcDbRegAppTableRecord
  2
ACAD
 70
     0
  0
APPID
  5
1F
330
9
100
AcDbSymbolTableRecord
100
AcDbRegAppTableRecord
  2
ACAD_PSEXT
 70
     0
  0
APPID
  5
4D2
330
9
100
AcDbSymbolTableRecord
100
AcDbRegAppTableRecord
  2
ACAD_MLEADERVER
 70
     0
  0
ENDTAB
  0
TABLE
  2
DIMSTYLE
  5
12
330
0
100
AcDbSymbolTable
 70
     1
100
AcDbDimStyleTable
  0
DIMSTYLE
105
11
330
12
100
AcDbSymbolTableRecord
100
AcDbDimStyleTableRecord
  2
STANDARD
 70
     0
178
     0
340
13
  0
ENDTAB
  0
TABLE
  2
BLOCK_RECORD
  5
16
330
0
100
AcDbSymbolTable
 70
     0
  0
BLOCK_RECORD
  5
17
102
{ACAD_XDICTIONARY
360
18
102
}
330
16
100
AcDbSymbolTableRecord
100
AcDbBlockTableRecord
  2
*MODEL_SPACE
340
1D
  0
BLOCK_RECORD
  5
20
330
16
100
AcDbSymbolTableRecord
100
AcDbBlockTableRecord
  2
*PAPER_SPACE
340
23
  0
ENDTAB
  0
ENDSEC
  0
SECTION
  2
BLOCKS
  0
BLOCK
  5
1A
330
17
100
AcDbEntity
  8
0
100
AcDbBlockBegin
  2
*MODEL_SPACE
 70
     0
 10
0.0
 20
0.0
 30
0.0
  3
*MODEL_SPACE
  1

  0
ENDBLK
  5
1C
330
17
100
AcDbEntity
  8
0
100
AcDbBlockEnd
  0
BLOCK
  5
21
330
20
100
AcDbEntity
 67
     1
  8
0
100
AcDbBlockBegin
  2
*PAPER_SPACE
 70
     0
 10
0.0
 20
0.0
 30
0.0
  3
*PAPER_SPACE
  1

  0
ENDBLK
  5
22
330
20
100
AcDbEntity
 67
     1
  8
0
100
AcDbBlockEnd
  0
ENDSEC
  0
SECTION
  2
ENTITIES
  0
LINE
  5
74
330
17
100
AcDbEntity
  8
4
100
AcDbLine
 10
661.1307595656876
 20
98.8555597887821
 30
0.0
 11
661.1307595656876
 21
59.8555597887821
 31
0.0
  0
ARC
  5
76
330
17
100
AcDbEntity
  8
4
100
AcDbCircle
 10
455.1307595656876
 20
265.8555597887821
 30
0.0
 40
193.999948
100
AcDbArc
 50
227.637541
 51
267.457923
  0
ARC
  5
77
330
17
100
AcDbEntity
  8
4
100
AcDbCircle
 10
455.1307595656876
 20
265.8555597887821
 30
0.0
 40
193.999976
100
AcDbArc
 50
272.54316
 51
312.3637869999999
  0
LINE
  5
78
330
17
100
AcDbEntity
  8
4
100
AcDbLine
 10
249.1307595656875
 20
98.8555597887821
 30
0.0
 11
249.1307595656875
 21
59.8555597887821
 31
0.0
  0
ARC
  5
79
330
17
100
AcDbEntity
  8
4
100
AcDbCircle
 10
455.1307595656876
 20
265.8555597887821
 30
0.0
 40
194.000016
100
AcDbArc
 50
332.8084279999998
 51
207.1927
  0
LINE
  5
7A
330
17
100
AcDbEntity
  8
L-CENTER
100
AcDbLine
 10
455.1307595656876
 20
525.2953797887822
 30
0.0
 11
455.1307595656876
 21
58.47579978878207
 31
0.0
  0
LINE
  5
83
330
17
100
AcDbEntity
  8
4
100
AcDbLine
 10
249.1307595656875
 20
59.8555597887821
 30
0.0
 11
364.1307595656876
 21
59.8555597887821
 31
0.0
  0
LINE
  5
84
330
17
100
AcDbEntity
  8
4
100
AcDbLine
 10
252.1307595656875
 20
84.8555597887821
 30
0.0
 11
361.1307595656876
 21
84.8555597887821
 31
0.0
  0
ARC
  5
AC
330
17
100
AcDbEntity
  8
4
100
AcDbCircle
 10
252.1307595656875
 20
81.8555597887821
 30
0.0
 40
3.0
100
AcDbArc
 50
90.0
 51
180.0
  0
LINE
  5
AD
330
17
100
AcDbEntity
  8
L-CENTER
100
AcDbLine
 10
295.1307595656875
 20
47.8555597887821
 30
0.0
 11
295.1307595656875
 21
96.8555597887821
 31
0.0
  0
LINE
  5
B4
330
17
100
AcDbEntity
  8
4
100
AcDbLine
 10
658.1307595656876
 20
84.8555597887821
 30
0.0
 11
549.1307595656876
 21
84.8555597887821
 31
0.0
  0
LINE
  5
B5
330
17
100
AcDbEntity
  8
4
100
AcDbLine
 10
661.1307595656876
 20
59.8555597887821
 30
0.0
 11
546.1307595656876
 21
59.8555597887821
 31
0.0
  0
LINE
  5
D6
330
17
100
AcDbEntity
  8
4
100
AcDbLine
 10
455.1307595656876
 20
67.8555597887821
 30
0.0
 11
541.1307595656876
 21
67.8555597887821
 31
0.0
  0
LINE
  5
D9
330
17
100
AcDbEntity
  8
4
100
AcDbLine
 10
455.1307595656876
 20
67.8555597887821
 30
0.0
 11
369.1307595656876
 21
67.8555597887821
 31
0.0
  0
LINE
  5
DB
330
17
100
AcDbEntity
  8
4
100
AcDbLine
 10
364.1307595656876
 20
59.8555597887821
 30
0.0
 11
364.1307595656876
 21
81.8555597887821
 31
0.0
  0
LINE
  5
DC
330
17
100
AcDbEntity
  8
4
100
AcDbLine
 10
344.1307595656876
 20
59.8555597887821
 30
0.0
 11
344.1307595656876
 21
81.8555597887821
 31
0.0
  0
ARC
  5
DD
330
17
100
AcDbEntity
  8
4
100
AcDbCircle
 10
369.1307595656876
 20
62.8555597887821
 30
0.0
 40
5.0
100
AcDbArc
 50
90.0
 51
180.0
  0
ARC
  5
DE
330
17
100
AcDbEntity
  8
4
100
AcDbCircle
 10
341.1307595656876
 20
81.8555597887821
 30
0.0
 40
3.0
100
AcDbArc
 50
0.0
 51
90.0
  0
ARC
  5
DF
330
17
100
AcDbEntity
  8
4
100
AcDbCircle
 10
361.1307595656876
 20
81.8555597887821
 30
0.0
 40
3.0
100
AcDbArc
 50
0.0
 51
90.0
  0
LINE
  5
E0
330
17
100
AcDbEntity
  8
L-CENTER
100
AcDbLine
 10
434.9583997919817
 20
87.8555597887821
 30
0.0
 11
475.3031193393936
 21
87.8555597887821
 31
0.0
  0
ARC
  5
E1
330
17
100
AcDbEntity
  8
4
100
AcDbCircle
 10
455.1307595656876
 20
87.8555597887821
 30
0.0
 40
18.0
100
AcDbArc
 50
241.4348649999997
 51
298.5649320000002
  0
LINE
  5
E2
330
17
100
AcDbEntity
  8
2
100
AcDbLine
 10
455.1307595656876
 20
93.20085978878205
 30
0.0
 11
450.5015915656875
 21
90.52820778878208
 31
0.0
  0
LINE
  5
E3
330
17
100
AcDbEntity
  8
2
100
AcDbLine
 10
455.1307595656876
 20
93.20085978878205
 30
0.0
 11
459.7599235656876
 21
90.52820778878208
 31
0.0
  0
LINE
  5
E4
330
17
100
AcDbEntity
  8
2
100
AcDbLine
 10
450.5015915656875
 20
85.18291178878212
 30
0.0
 11
455.1307595656876
 21
82.51025978878215
 31
0.0
  0
LINE
  5
E5
330
17
100
AcDbEntity
  8
2
100
AcDbLine
 10
459.7599235656876
 20
85.18291178878212
 30
0.0
 11
455.1307595656876
 21
82.51025978878215
 31
0.0
  0
CIRCLE
  5
E6
330
17
100
AcDbEntity
  8
2
100
AcDbCircle
 10
455.1307595656876
 20
87.8555597887821
 30
0.0
 40
6.5
  0
CIRCLE
  5
E7
330
17
100
AcDbEntity
  8
4
100
AcDbCircle
 10
455.1307595656876
 20
87.8555597887821
 30
0.0
 40
7.5
  0
LINE
  5
E8
330
17
100
AcDbEntity
  8
2
100
AcDbLine
 10
450.5015915656875
 20
90.52820778878208
 30
0.0
 11
450.5015915656875
 21
85.18291178878212
 31
0.0
  0
LINE
  5
E9
330
17
100
AcDbEntity
  8
2
100
AcDbLine
 10
459.7599235656876
 20
90.52820778878208
 30
0.0
 11
459.7599235656876
 21
85.18291178878212
 31
0.0
  0
LINE
  5
EC
330
17
100
AcDbEntity
  8
4
100
AcDbLine
 10
546.1307595656876
 20
59.8555597887821
 30
0.0
 11
546.1307595656876
 21
81.8555597887821
 31
0.0
  0
ARC
  5
ED
330
17
100
AcDbEntity
  8
4
100
AcDbCircle
 10
541.1307595656876
 20
62.8555597887821
 30
0.0
 40
5.0
100
AcDbArc
 50
0.0
 51
90.0
  0
ARC
  5
EE
330
17
100
AcDbEntity
  8
4
100
AcDbCircle
 10
549.1307595656876
 20
81.8555597887821
 30
0.0
 40
3.0
100
AcDbArc
 50
90.0
 51
180.0
  0
LINE
  5
EF
330
17
100
AcDbEntity
  8
4
100
AcDbLine
 10
566.1307595656876
 20
59.8555597887821
 30
0.0
 11
566.1307595656876
 21
81.8555597887821
 31
0.0
  0
ARC
  5
F0
330
17
100
AcDbEntity
  8
4
100
AcDbCircle
 10
569.1307595656876
 20
81.8555597887821
 30
0.0
 40
3.0
100
AcDbArc
 50
90.0
 51
180.0
  0
LINE
  5
F1
330
17
100
AcDbEntity
  8
L-CENTER
100
AcDbLine
 10
615.1307595656876
 20
96.8555597887821
 30
0.0
 11
615.1307595656876
 21
47.8555597887821
 31
0.0
  0
ARC
  5
F4
330
17
100
AcDbEntity
  8
4
100
AcDbCircle
 10
658.1307595656876
 20
81.8555597887821
 30
0.0
 40
3.0
100
AcDbArc
 50
0.0
 51
90.0
  0
CIRCLE
  5
F7
330
17
100
AcDbEntity
  8
4
100
AcDbCircle
 10
398.5079555656876
 20
262.8555597887821
 30
0.0
 40
70.0
  0
ARC
  5
F8
330
17
100
AcDbEntity
  8
4
100
AcDbCircle
 10
455.1307595656876
 20
-95.1444402112179
 30
0.0
 40
449.999996
100
AcDbArc
 50
69.297629
 51
110.702891
  0
ARC
  5
F9
330
17
100
AcDbEntity
  8
4
100
AcDbCircle
 10
455.1307595656876
 20
-234.1443202112177
 30
0.0
 40
699.99994
100
AcDbArc
 50
75.02985000000001
 51
104.970172
  0
LINE
  5
FA
330
17
100
AcDbEntity
  8
L-CENTER
100
AcDbLine
 10
480.5171639267778
 20
262.8555597887821
 30
0.0
 11
316.4987472045973
 21
262.8555597887821
 31
0.0
  0
LINE
  5
FB
330
17
100
AcDbEntity
  8
L-CENTER
100
AcDbLine
 10
669.5683195656875
 20
265.8555597887821
 30
0.0
 11
242.1826995656876
 21
265.8555597887821
 31
0.0
  0
LINE
  5
FC
330
17
100
AcDbEntity
  8
4
100
AcDbLine
 10
306.1307595656875
 20
458.9988717887823
 30
0.0
 11
344.1307595656876
 21
458.9988717887823
 31
0.0
  0
LINE
  5
FD
330
17
100
AcDbEntity
  8
4
100
AcDbLine
 10
351.4967235656875
 20
101.8555597887821
 30
0.0
 11
239.1307595656875
 21
101.8555597887821
 31
0.0
  0
LINE
  5
FE
330
17
100
AcDbEntity
  8
4
100
AcDbLine
 10
239.1307595656875
 20
105.7727957887821
 30
0.0
 11
345.5428675656876
 21
105.7727957887821
 31
0.0
  0
LINE
  5
FF
330
17
100
AcDbEntity
  8
L-CENTER
100
AcDbLine
 10
747.8082825010597
 20
149.8555597887821
 30
0.0
 11
232.2804420303703
 21
149.8555597887821
 31
0.0
  0
ARC
  5
100
330
17
100
AcDbEntity
  8
4
100
AcDbCircle
 10
455.1307595656876
 20
620.8555597887821
 30
0.0
 40
449.999964
100
AcDbArc
 50
249.684682
 51
267.709579
  0
ARC
  5
101
330
17
100
AcDbEntity
  8
4
100
AcDbCircle
 10
455.1307595656876
 20
265.8555597887821
 30
0.0
 40
170.000004
100
AcDbArc
 50
275.7419839999999
 51
264.2592599999999
  0
LINE
  5
103
330
17
100
AcDbEntity
  8
L-CENTER
100
AcDbLine
 10
325.1307595656875
 20
470.2358997887823
 30
0.0
 11
325.1307595656875
 21
437.8022261546536
 31
0.0
  0
ARC
  5
104
330
17
100
AcDbEntity
  8
4
100
AcDbCircle
 10
949.1307595656876
 20
265.8553157887823
 30
0.0
 40
699.999984
100
AcDbArc
 50
165.722034
 51
180.0004599994228
  0
LINE
  5
114
330
17
100
AcDbEntity
  8
4
100
AcDbLine
 10
239.1307595656875
 20
197.8555597887821
 30
0.0
 11
239.1307595656875
 21
101.8555597887821
 31
0.0
  0
LINE
  5
116
330
17
100
AcDbEntity
  8
4
100
AcDbLine
 10
238.1307595656875
 20
185.8555597887821
 30
0.0
 11
238.1307595656875
 21
113.8555597887821
 31
0.0
  0
LINE
  5
118
330
17
100
AcDbEntity
  8
4
100
AcDbLine
 10
239.1307595656875
 20
113.8555597887821
 30
0.0
 11
238.1307595656875
 21
113.8555597887821
 31
0.0
  0
ARC
  5
119
330
17
100
AcDbEntity
  8
4
100
AcDbCircle
 10
246.1307595656875
 20
98.8555597887821
 30
0.0
 40
3.0
100
AcDbArc
 50
0.0
 51
90.0
  0
LINE
  5
11C
330
17
100
AcDbEntity
  8
4
100
AcDbLine
 10
239.1307595656875
 20
185.8555597887821
 30
0.0
 11
238.1307595656875
 21
185.8555597887821
 31
0.0
  0
LINE
  5
11D
330
17
100
AcDbEntity
  8
4
100
AcDbLine
 10
273.4386195656875
 20
197.8555597887821
 30
0.0
 11
239.1307595656875
 21
197.8555597887821
 31
0.0
  0
LINE
  5
11E
330
17
100
AcDbEntity
  8
4
100
AcDbLine
 10
239.1307595656875
 20
193.9383237887821
 30
0.0
 11
274.9532675656876
 21
193.9383237887821
 31
0.0
  0
LINE
  5
11F
330
17
100
AcDbEntity
  8
4
100
AcDbLine
 10
249.1307595656875
 20
200.8555597887821
 30
0.0
 11
249.1307595656875
 21
265.8553157887823
 31
0.0
  0
ARC
  5
121
330
17
100
AcDbEntity
  8
4
100
AcDbCircle
 10
246.1307595656875
 20
200.8555597887821
 30
0.0
 40
3.0
100
AcDbArc
 50
270.0008590000004
 51
0.0
  0
ARC
  5
122
330
17
100
AcDbEntity
  8
4
100
AcDbCircle
 10
275.6007275656875
 20
437.2674237887823
 30
0.0
 40
5.0
100
AcDbArc
 50
104.9692640000005
 51
165.7217770000025
  0
LINE
  5
123
330
17
100
AcDbEntity
  8
4
100
AcDbLine
 10
312.6307595656875
 20
466.4988717887823
 30
0.0
 11
337.6307595656876
 21
466.4988717887823
 31
0.0
  0
LINE
  5
124
330
17
100
AcDbEntity
  8
4
100
AcDbLine
 10
312.6307595656875
 20
462.4988717887823
 30
0.0
 11
337.6307595656876
 21
462.4988717887823
 31
0.0
  0
LINE
  5
125
330
17
100
AcDbEntity
  8
4
100
AcDbLine
 10
312.6307595656875
 20
460.4988717887823
 30
0.0
 11
337.6307595656876
 21
460.4988717887823
 31
0.0
  0
LINE
  5
126
330
17
100
AcDbEntity
  8
4
100
AcDbLine
 10
318.8807595656875
 20
462.4988717887823
 30
0.0
 11
318.8807595656875
 21
466.4988717887823
 31
0.0
  0
LINE
  5
127
330
17
100
AcDbEntity
  8
4
100
AcDbLine
 10
313.6307595656875
 20
458.9988717887823
 30
0.0
 11
313.6307595656875
 21
460.4988717887823
 31
0.0
  0
LINE
  5
128
330
17
100
AcDbEntity
  8
4
100
AcDbLine
 10
306.1307595656875
 20
449.813811788782
 30
0.0
 11
306.1307595656875
 21
458.9988717887823
 31
0.0
  0
LINE
  5
129
330
17
100
AcDbEntity
  8
4
100
AcDbLine
 10
312.6307595656875
 20
460.4988717887823
 30
0.0
 11
312.6307595656875
 21
466.4988717887823
 31
0.0
  0
LINE
  5
12A
330
17
100
AcDbEntity
  8
4
100
AcDbLine
 10
331.3807595656876
 20
462.4988717887823
 30
0.0
 11
331.3807595656876
 21
466.4988717887823
 31
0.0
  0
LINE
  5
12B
330
17
100
AcDbEntity
  8
4
100
AcDbLine
 10
336.6307595656876
 20
458.9988717887823
 30
0.0
 11
336.6307595656876
 21
460.4988717887823
 31
0.0
  0
LINE
  5
12C
330
17
100
AcDbEntity
  8
4
100
AcDbLine
 10
337.6307595656876
 20
466.4988717887823
 30
0.0
 11
337.6307595656876
 21
460.4988717887823
 31
0.0
  0
LINE
  5
134
330
17
100
AcDbEntity
  8
4
100
AcDbLine
 10
467.6307595656876
 20
467.8555597887821
 30
0.0
 11
467.6307595656876
 21
476.8555597887821
 31
0.0
  0
LINE
  5
135
330
17
100
AcDbEntity
  8
4
100
AcDbLine
 10
442.6307595656876
 20
467.8555597887821
 30
0.0
 11
442.6307595656876
 21
476.8555597887821
 31
0.0
  0
LINE
  5
137
330
17
100
AcDbEntity
  8
4
100
AcDbLine
 10
558.7647915656876
 20
101.8555597887821
 30
0.0
 11
671.1307595656876
 21
101.8555597887821
 31
0.0
  0
LINE
  5
138
330
17
100
AcDbEntity
  8
4
100
AcDbLine
 10
564.7186475656877
 20
105.7727957887821
 30
0.0
 11
671.1307595656876
 21
105.7727957887821
 31
0.0
  0
LINE
  5
13B
330
17
100
AcDbEntity
  8
L-CENTER
100
AcDbLine
 10
531.1307595656876
 20
342.7553843839751
 30
0.0
 11
531.1307595656876
 21
202.9557351935891
 31
0.0
  0
CIRCLE
  5
13C
330
17
100
AcDbEntity
  8
4
100
AcDbCircle
 10
531.1307595656876
 20
272.8555597887821
 30
0.0
 40
36.0
  0
CIRCLE
  5
13D
330
17
100
AcDbEntity
  8
4
100
AcDbCircle
 10
398.5079555656876
 20
262.8555597887821
 30
0.0
 40
45.0
  0
CIRCLE
  5
13E
330
17
100
AcDbEntity
  8
4
100
AcDbCircle
 10
531.1307595656876
 20
272.8555597887821
 30
0.0
 40
57.5
  0
LINE
  5
13F
330
17
100
AcDbEntity
  8
L-CENTER
100
AcDbLine
 10
398.5079555656876
 20
180.8463514276918
 30
0.0
 11
398.5079555656876
 21
344.8647681498724
 31
0.0
  0
LINE
  5
140
330
17
100
AcDbEntity
  8
L-CENTER
100
AcDbLine
 10
601.0305841608806
 20
272.8555597887821
 30
0.0
 11
461.2309349704947
 21
272.8555597887821
 31
0.0
  0
LINE
  5
141
330
17
100
AcDbEntity
  8
L-CENTER
100
AcDbLine
 10
485.1141555656875
 20
171.8555597887821
 30
0.0
 11
425.1473595656876
 21
171.8555597887821
 31
0.0
  0
ARC
  5
142
330
17
100
AcDbEntity
  8
4
100
AcDbCircle
 10
455.1307595656876
 20
620.8555597887821
 30
0.0
 40
449.999992
100
AcDbArc
 50
272.2915089999999
 51
290.316646
  0
CIRCLE
  5
143
330
17
100
AcDbEntity
  8
4
100
AcDbCircle
 10
455.1307595656876
 20
171.8555597887821
 30
0.0
 40
18.0
  0
ARC
  5
144
330
17
100
AcDbEntity
  8
4
100
AcDbCircle
 10
455.1307595656876
 20
87.8555597887821
 30
0.0
 40
18.0
100
AcDbArc
 50
32.82914800000012
 51
147.1708540000002
  0
ARC
  5
145
330
17
100
AcDbEntity
  8
4
100
AcDbCircle
 10
438.3248475656876
 20
98.69833178878207
 30
0.0
 40
2.000028
100
AcDbArc
 50
264.2622699999977
 51
327.1731760000044
  0
ARC
  5
146
330
17
100
AcDbEntity
  8
4
100
AcDbCircle
 10
471.9366675656875
 20
98.69833178878207
 30
0.0
 40
2.000028
100
AcDbArc
 50
212.8268239999956
 51
275.7377300000023
  0
LINE
  5
147
330
17
100
AcDbEntity
  8
4
100
AcDbLine
 10
442.1402795656877
 20
164.3555597887821
 30
0.0
 11
455.1307595656876
 21
156.8555597887821
 31
0.0
  0
LINE
  5
148
330
17
100
AcDbEntity
  8
4
100
AcDbLine
 10
455.1307595656876
 20
186.8555597887821
 30
0.0
 11
442.1402795656877
 21
179.3555597887821
 31
0.0
  0
CIRCLE
  5
149
330
17
100
AcDbEntity
  8
4
100
AcDbCircle
 10
455.1307595656876
 20
171.8555597887821
 30
0.0
 40
15.0
  0
LINE
  5
14A
330
17
100
AcDbEntity
  8
4
100
AcDbLine
 10
442.1402795656877
 20
164.3555597887821
 30
0.0
 11
442.1402795656877
 21
179.3555597887821
 31
0.0
  0
LINE
  5
14B
330
17
100
AcDbEntity
  8
4
100
AcDbLine
 10
468.1209915656875
 20
164.3553157887823
 30
0.0
 11
468.1209915656875
 21
179.3555597887821
 31
0.0
  0
LINE
  5
14C
330
17
100
AcDbEntity
  8
4
100
AcDbLine
 10
455.1307595656876
 20
156.8555597887821
 30
0.0
 11
468.1209915656875
 21
164.3553157887823
 31
0.0
  0
LINE
  5
14D
330
17
100
AcDbEntity
  8
4
100
AcDbLine
 10
468.1209915656875
 20
179.3555597887821
 30
0.0
 11
455.1307595656876
 21
186.8555597887821
 31
0.0
  0
LINE
  5
151
330
17
100
AcDbEntity
  8
4
100
AcDbLine
 10
344.1307595656876
 20
456.9988717887823
 30
0.0
 11
344.1307595656876
 21
458.9988717887823
 31
0.0
  0
LINE
  5
152
330
17
100
AcDbEntity
  8
4
100
AcDbLine
 10
436.1307595656876
 20
467.8555597887821
 30
0.0
 11
474.1307595656876
 21
467.8555597887821
 31
0.0
  0
LINE
  5
153
330
17
100
AcDbEntity
  8
4
100
AcDbLine
 10
436.1307595656876
 20
465.5977477887818
 30
0.0
 11
436.1307595656876
 21
467.8555597887821
 31
0.0
  0
LINE
  5
154
330
17
100
AcDbEntity
  8
4
100
AcDbLine
 10
474.1307595656876
 20
465.5977477887818
 30
0.0
 11
474.1307595656876
 21
467.8555597887821
 31
0.0
  0
ARC
  5
156
330
17
100
AcDbEntity
  8
4
100
AcDbCircle
 10
-38.8690884343124
 20
265.8553157887823
 30
0.0
 40
700.0000679999999
100
AcDbArc
 50
0.0000200045560318
 51
14.27852100000001
  0
LINE
  5
15A
330
17
100
AcDbEntity
  8
4
100
AcDbLine
 10
671.1307595656874
 20
197.8555597887821
 30
0.0
 11
671.1307595656876
 21
101.8555597887821
 31
0.0
  0
LINE
  5
15B
330
17
100
AcDbEntity
  8
4
100
AcDbLine
 10
684.1307595656876
 20
163.3555597887821
 30
0.0
 11
743.1307595656876
 21
163.3555597887821
 31
0.0
  0
LINE
  5
15C
330
17
100
AcDbEntity
  8
4
100
AcDbLine
 10
684.1307595656876
 20
136.3555597887821
 30
0.0
 11
743.1307595656876
 21
136.3555597887821
 31
0.0
  0
LINE
  5
15D
330
17
100
AcDbEntity
  8
4
100
AcDbLine
 10
689.1307595656876
 20
166.3555597887821
 30
0.0
 11
744.1307595656876
 21
166.3555597887821
 31
0.0
  0
LINE
  5
15E
330
17
100
AcDbEntity
  8
4
100
AcDbLine
 10
684.1307595656876
 20
167.3555597887821
 30
0.0
 11
684.1307595656876
 21
132.3555597887821
 31
0.0
  0
LINE
  5
15F
330
17
100
AcDbEntity
  8
4
100
AcDbLine
 10
672.1307595656876
 20
185.8555597887821
 30
0.0
 11
672.1307595656876
 21
113.8555597887821
 31
0.0
  0
LINE
  5
160
330
17
100
AcDbEntity
  8
4
100
AcDbLine
 10
671.1307595656876
 20
113.8555597887821
 30
0.0
 11
672.1307595656876
 21
113.8555597887821
 31
0.0
  0
ARC
  5
161
330
17
100
AcDbEntity
  8
4
100
AcDbCircle
 10
664.1307595656876
 20
98.8555597887821
 30
0.0
 40
3.0
100
AcDbArc
 50
90.0
 51
180.0
  0
LINE
  5
162
330
17
100
AcDbEntity
  8
4
100
AcDbLine
 10
672.1307595656876
 20
132.3555597887821
 30
0.0
 11
684.1307595656876
 21
132.3555597887821
 31
0.0
  0
LINE
  5
163
330
17
100
AcDbEntity
  8
4
100
AcDbLine
 10
689.1307595656876
 20
166.3555597887821
 30
0.0
 11
689.1307595656876
 21
163.3555597887821
 31
0.0
  0
LINE
  5
164
330
17
100
AcDbEntity
  8
4
100
AcDbLine
 10
672.1307595656876
 20
167.3555597887821
 30
0.0
 11
684.1307595656876
 21
167.3555597887821
 31
0.0
  0
LINE
  5
165
330
17
100
AcDbEntity
  8
4
100
AcDbLine
 10
671.1307595656876
 20
185.8555597887821
 30
0.0
 11
672.1307595656876
 21
185.8555597887821
 31
0.0
  0
LINE
  5
166
330
17
100
AcDbEntity
  8
4
100
AcDbLine
 10
744.1307595656876
 20
166.3555597887821
 30
0.0
 11
744.1307595656876
 21
137.3555597887821
 31
0.0
  0
LINE
  5
167
330
17
100
AcDbEntity
  8
4
100
AcDbLine
 10
743.1307595656876
 20
163.3555597887821
 30
0.0
 11
743.1307595656876
 21
136.3555597887821
 31
0.0
  0
LINE
  5
168
330
17
100
AcDbEntity
  8
4
100
AcDbLine
 10
743.1307595656876
 20
136.3555597887821
 30
0.0
 11
744.1307595656876
 21
137.3555597887821
 31
0.0
  0
LINE
  5
169
330
17
100
AcDbEntity
  8
4
100
AcDbLine
 10
744.1307595656876
 20
162.3555597887821
 30
0.0
 11
743.1307595656876
 21
163.3555597887821
 31
0.0
  0
LINE
  5
16B
330
17
100
AcDbEntity
  8
4
100
AcDbLine
 10
661.1307595656876
 20
200.8555597887821
 30
0.0
 11
661.1307595656876
 21
265.8553157887823
 31
0.0
  0
LINE
  5
16C
330
17
100
AcDbEntity
  8
4
100
AcDbLine
 10
636.8228955656875
 20
197.8555597887821
 30
0.0
 11
671.1307595656874
 21
197.8555597887821
 31
0.0
  0
LINE
  5
16D
330
17
100
AcDbEntity
  8
4
100
AcDbLine
 10
635.3082475656875
 20
193.9383237887821
 30
0.0
 11
671.1307595656876
 21
193.9383237887821
 31
0.0
  0
ARC
  5
16F
330
17
100
AcDbEntity
  8
4
100
AcDbCircle
 10
664.1307595656876
 20
200.8555597887821
 30
0.0
 40
3.0
100
AcDbArc
 50
180.0
 51
270.0
  0
ARC
  5
179
330
17
100
AcDbEntity
  8
4
100
AcDbCircle
 10
634.6610315656876
 20
437.2674237887823
 30
0.0
 40
4.999956
100
AcDbArc
 50
14.27847999999762
 51
75.03073599999972
  0
ARC
  5
17E
330
17
100
AcDbEntity
  8
4
100
AcDbCircle
 10
455.1307595656876
 20
513.8555597887821
 30
0.0
 40
5.0
100
AcDbArc
 50
0.0
 51
180.0
  0
LINE
  5
17F
330
17
100
AcDbEntity
  8
L-CENTER
100
AcDbLine
 10
466.4460621723221
 20
493.8555597887821
 30
0.0
 11
443.8154569590532
 21
493.8555597887821
 31
0.0
  0
LINE
  5
180
330
17
100
AcDbEntity
  8
4
100
AcDbLine
 10
450.1307595656876
 20
478.055511788782
 30
0.0
 11
442.6307595656876
 21
476.8555597887821
 31
0.0
  0
LINE
  5
181
330
17
100
AcDbEntity
  8
4
100
AcDbLine
 10
442.6307595656876
 20
476.8555597887821
 30
0.0
 11
450.1307595656876
 21
476.8555597887821
 31
0.0
  0
LINE
  5
182
330
17
100
AcDbEntity
  8
4
100
AcDbLine
 10
460.1307595656876
 20
471.4117117887822
 30
0.0
 11
460.1307595656876
 21
513.8555597887821
 31
0.0
  0
LINE
  5
183
330
17
100
AcDbEntity
  8
4
100
AcDbLine
 10
450.1307595656876
 20
471.4117117887822
 30
0.0
 11
450.1307595656876
 21
513.8555597887821
 31
0.0
  0
LINE
  5
184
330
17
100
AcDbEntity
  8
4
100
AcDbLine
 10
460.1307595656876
 20
478.055511788782
 30
0.0
 11
467.6307595656876
 21
476.8555597887821
 31
0.0
  0
LINE
  5
185
330
17
100
AcDbEntity
  8
4
100
AcDbLine
 10
460.1307595656876
 20
476.8555597887821
 30
0.0
 11
467.6307595656876
 21
476.8555597887821
 31
0.0
  0
ARC
  5
194
330
17
100
AcDbEntity
  8
4
100
AcDbCircle
 10
1152.672144843984
 20
99.8555597887821
 30
0.0
 40
15.0
100
AcDbArc
 50
180.0
 51
270.000932
  0
ARC
  5
195
330
17
100
AcDbEntity
  8
4
100
AcDbCircle
 10
999.6721448439841
 20
99.8555597887821
 30
0.0
 40
15.0
100
AcDbArc
 50
270.000932
 51
0.0
  0
LINE
  5
196
330
17
100
AcDbEntity
  8
4
100
AcDbLine
 10
1000.672144843984
 20
122.5105877887822
 30
0.0
 11
1000.672144843984
 21
84.8555597887821
 31
0.0
  0
LINE
  5
197
330
17
100
AcDbEntity
  8
4
100
AcDbLine
 10
1156.072144843984
 20
457.8555597887821
 30
0.0
 11
1156.072144843984
 21
84.8555597887821
 31
0.0
  0
LINE
  5
198
330
17
100
AcDbEntity
  8
4
100
AcDbLine
 10
1139.672144843984
 20
459.8555597887821
 30
0.0
 11
1139.672144843984
 21
92.37215978878203
 31
0.0
  0
LINE
  5
199
330
17
100
AcDbEntity
  8
L-CENTER
100
AcDbLine
 10
1047.172144843984
 20
95.95443578878212
 30
0.0
 11
1047.172144843984
 21
203.7566837887821
 31
0.0
  0
LINE
  5
19A
330
17
100
AcDbEntity
  8
L-CENTER
100
AcDbLine
 10
1076.172144843984
 20
529.3140877887822
 30
0.0
 11
1076.172144843984
 21
51.37313578878206
 31
0.0
  0
LINE
  5
19D
330
17
100
AcDbEntity
  8
4
100
AcDbLine
 10
961.1721448439841
 20
59.8555597887821
 30
0.0
 11
1191.172144843984
 21
59.8555597887821
 31
0.0
  0
LINE
  5
19E
330
17
100
AcDbEntity
  8
4
100
AcDbLine
 10
964.1721448439841
 20
84.8555597887821
 30
0.0
 11
1188.172144843984
 21
84.8555597887821
 31
0.0
  0
LINE
  5
1A9
330
17
100
AcDbEntity
  8
L-CENTER
100
AcDbLine
 10
981.1721448439841
 20
96.8555597887821
 30
0.0
 11
981.1721448439841
 21
47.8555597887821
 31
0.0
  0
LINE
  5
1AA
330
17
100
AcDbEntity
  8
4
100
AcDbLine
 10
961.1721448439841
 20
59.8555597887821
 30
0.0
 11
961.1721448439841
 21
81.8555597887821
 31
0.0
  0
ARC
  5
1AB
330
17
100
AcDbEntity
  8
4
100
AcDbCircle
 10
964.1721448439841
 20
81.8555597887821
 30
0.0
 40
3.0
100
AcDbArc
 50
90.0
 51
180.0
  0
ARC
  5
1AF
330
17
100
AcDbEntity
  8
4
100
AcDbCircle
 10
1149.674096843984
 20
72.8741117887821
 30
0.0
 40
3.397468
100
AcDbArc
 50
297.3199919999981
 51
35.67744299999961
  0
ARC
  5
1B0
330
17
100
AcDbEntity
  8
4
100
AcDbCircle
 10
1149.674096843984
 20
72.8741117887821
 30
0.0
 40
3.397468
100
AcDbArc
 50
297.3199919999981
 51
35.67744299999961
  0
LINE
  5
1B1
330
17
100
AcDbEntity
  8
4
100
AcDbLine
 10
1162.172144843984
 20
84.8555597887821
 30
0.0
 11
1162.172144843984
 21
59.8555597887821
 31
0.0
  0
ARC
  5
1B2
330
17
100
AcDbEntity
  8
4
100
AcDbCircle
 10
1147.273220843984
 20
62.8741117887821
 30
0.0
 40
3.397468
100
AcDbArc
 50
297.3199919999981
 51
35.67744299999961
  0
ARC
  5
1B3
330
17
100
AcDbEntity
  8
4
100
AcDbCircle
 10
1147.273220843984
 20
62.8741117887821
 30
0.0
 40
3.397468
100
AcDbArc
 50
297.3199919999981
 51
35.67744299999961
  0
ARC
  5
1B4
330
17
100
AcDbEntity
  8
4
100
AcDbCircle
 10
1152.792748843984
 20
66.83700378878211
 30
0.0
 40
3.397468
100
AcDbArc
 50
117.3199849999992
 51
215.6774389999981
  0
ARC
  5
1B5
330
17
100
AcDbEntity
  8
4
100
AcDbCircle
 10
1152.792748843984
 20
66.83700378878211
 30
0.0
 40
3.397468
100
AcDbArc
 50
117.3199849999992
 51
215.6774389999981
  0
ARC
  5
1B6
330
17
100
AcDbEntity
  8
4
100
AcDbCircle
 10
1155.193628843984
 20
76.83700378878211
 30
0.0
 40
3.397468
100
AcDbArc
 50
117.3199849999992
 51
215.6774389999981
  0
ARC
  5
1B7
330
17
100
AcDbEntity
  8
4
100
AcDbCircle
 10
1155.193628843984
 20
76.83700378878211
 30
0.0
 40
3.397468
100
AcDbArc
 50
117.3199849999992
 51
215.6774389999981
  0
ARC
  5
1B8
330
17
100
AcDbEntity
  8
4
100
AcDbCircle
 10
1152.074976843984
 20
82.8741117887821
 30
0.0
 40
3.397468
100
AcDbArc
 50
297.3199919999981
 51
35.67744299999961
  0
ARC
  5
1B9
330
17
100
AcDbEntity
  8
4
100
AcDbCircle
 10
1152.074976843984
 20
82.8741117887821
 30
0.0
 40
3.397468
100
AcDbArc
 50
297.3199919999981
 51
35.67744299999961
  0
TEXT
  5
1BD
330
17
100
AcDbEntity
  8
3
100
AcDbText
 10
760.7049176806476
 20
15.80702746972452
 30
0.0
 40
11.90050216115753
  1
LD5-05
  7
KANJI
100
AcDbText
  0
LINE
  5
1C0
330
17
100
AcDbEntity
  8
L-CENTER
100
AcDbLine
 10
1171.172144843984
 20
96.8555597887821
 30
0.0
 11
1171.172144843984
 21
47.8555597887821
 31
0.0
  0
LINE
  5
1C3
330
17
100
AcDbEntity
  8
4
100
AcDbLine
 10
1191.172144843984
 20
59.8555597887821
 30
0.0
 11
1191.172144843984
 21
81.8555597887821
 31
0.0
  0
LINE
  5
1C4
330
17
100
AcDbEntity
  8
4
100
AcDbLine
 10
1180.172144843984
 20
84.8555597887821
 30
0.0
 11
1180.172144843984
 21
59.8555597887821
 31
0.0
  0
ARC
  5
1C6
330
17
100
AcDbEntity
  8
4
100
AcDbCircle
 10
1188.172144843984
 20
81.8555597887821
 30
0.0
 40
3.0
100
AcDbArc
 50
0.0
 51
90.0
  0
LINE
  5
1CC
330
17
100
AcDbEntity
  8
4
100
AcDbLine
 10
1088.672144843984
 20
467.8555597887821
 30
0.0
 11
1088.672144843984
 21
476.8555597887821
 31
0.0
  0
LINE
  5
1CD
330
17
100
AcDbEntity
  8
4
100
AcDbLine
 10
1063.672144843984
 20
467.8555597887821
 30
0.0
 11
1063.672144843984
 21
476.8555597887821
 31
0.0
  0
LINE
  5
1CE
330
17
100
AcDbEntity
  8
4
100
AcDbLine
 10
1135.672144843984
 20
465.8555597887821
 30
0.0
 11
1016.672144843984
 21
465.8555597887821
 31
0.0
  0
ARC
  5
1CF
330
17
100
AcDbEntity
  8
4
100
AcDbCircle
 10
1047.172144843984
 20
-52.1444402112179
 30
0.0
 40
250.000028
100
AcDbArc
 50
80.32980699999999
 51
99.67024800000002
  0
LINE
  5
1D0
330
17
100
AcDbEntity
  8
L-CENTER
100
AcDbLine
 10
1299.139929847842
 20
262.8555597887821
 30
0.0
 11
853.204359840126
 21
262.8555597887821
 31
0.0
  0
ARC
  5
1D1
330
17
100
AcDbEntity
  8
4
100
AcDbCircle
 10
1047.172144843984
 20
351.8555597887821
 30
0.0
 40
249.999968
100
AcDbArc
 50
260.330203
 51
279.670818
  0
LINE
  5
1D2
330
17
100
AcDbEntity
  8
L-CENTER
100
AcDbLine
 10
1101.073268843984
 20
149.8555597887821
 30
0.0
 11
993.2710208439842
 21
149.8555597887821
 31
0.0
  0
CIRCLE
  5
1D3
330
17
100
AcDbEntity
  8
4
100
AcDbCircle
 10
1047.172144843984
 20
149.8555597887821
 30
0.0
 40
36.0
  0
LINE
  5
1D4
330
17
100
AcDbEntity
  8
4
100
AcDbLine
 10
981.1721448439841
 20
192.8555597887821
 30
0.0
 11
981.1721448439841
 21
332.8555597887821
 31
0.0
  0
LINE
  5
1D5
330
17
100
AcDbEntity
  8
4
100
AcDbLine
 10
980.1721448439841
 20
217.8555597887821
 30
0.0
 11
980.1721448439841
 21
308.8555597887821
 31
0.0
  0
LINE
  5
1D6
330
17
100
AcDbEntity
  8
4
100
AcDbLine
 10
1014.672144843984
 20
463.8555597887821
 30
0.0
 11
1014.672144843984
 21
198.3526317887822
 31
0.0
  0
ARC
  5
1D7
330
17
100
AcDbEntity
  8
4
100
AcDbCircle
 10
3192.094020843984
 20
265.8555597887821
 30
0.0
 40
2200.000028
100
AcDbArc
 50
175.5685409999999
 51
184.4320970000001
  0
LINE
  5
1D8
330
17
100
AcDbEntity
  8
4
100
AcDbLine
 10
998.6721448439841
 20
435.8555597887821
 30
0.0
 11
998.6721448439841
 21
95.8555597887821
 31
0.0
  0
LINE
  5
1D9
330
17
100
AcDbEntity
  8
4
100
AcDbLine
 10
1000.672144843984
 20
457.8555597887821
 30
0.0
 11
1000.672144843984
 21
177.200527788782
 31
0.0
  0
ARC
  5
1E2
330
17
100
AcDbEntity
  8
4
100
AcDbCircle
 10
1249.172144843984
 20
149.8555597887821
 30
0.0
 40
250.000008
100
AcDbArc
 50
170.330203
 51
189.6705879999998
  0
LINE
  5
1E3
330
17
100
AcDbEntity
  8
4
100
AcDbLine
 10
991.1721448439841
 20
189.8555597887821
 30
0.0
 11
991.1721448439841
 21
153.8555597887821
 31
0.0
  0
LINE
  5
1E4
330
17
100
AcDbEntity
  8
4
100
AcDbLine
 10
998.6721448439841
 20
95.8555597887821
 30
0.0
 11
1000.672144843984
 21
95.8555597887821
 31
0.0
  0
ARC
  5
1E5
330
17
100
AcDbEntity
  8
4
100
AcDbCircle
 10
1005.681912843984
 20
108.365323788782
 30
0.0
 40
2.99994
100
AcDbArc
 50
189.6746519999985
 51
260.325326000002
  0
ARC
  5
1E6
330
17
100
AcDbEntity
  8
4
100
AcDbCircle
 10
1011.672144843984
 20
101.358487788782
 30
0.0
 40
2.999944
100
AcDbArc
 50
0.0
 51
81.93453100000163
  0
LINE
  5
1E7
330
17
100
AcDbEntity
  8
4
100
AcDbLine
 10
1014.672144843984
 20
101.358487788782
 30
0.0
 11
1014.672144843984
 21
99.8555597887821
 31
0.0
  0
LINE
  5
1E8
330
17
100
AcDbEntity
  8
L-CENTER
100
AcDbLine
 10
1005.52012320264
 20
171.8555597887821
 30
0.0
 11
979.6958888439842
 21
171.8555597887821
 31
0.0
  0
ARC
  5
1E9
330
17
100
AcDbEntity
  8
4
100
AcDbCircle
 10
993.0469008439841
 20
151.8555597887821
 30
0.0
 40
1.999996
100
AcDbArc
 50
2.966820000001987
 51
90.0
  0
LINE
  5
1EA
330
17
100
AcDbEntity
  8
4
100
AcDbLine
 10
991.1721448439841
 20
157.8555597887821
 30
0.0
 11
991.1721448439841
 21
185.8555597887821
 31
0.0
  0
LINE
  5
1EB
330
17
100
AcDbEntity
  8
4
100
AcDbLine
 10
989.6721448439841
 20
156.8555597887821
 30
0.0
 11
989.6721448439841
 21
186.8555597887821
 31
0.0
  0
LINE
  5
1EC
330
17
100
AcDbEntity
  8
4
100
AcDbLine
 10
987.6721448439841
 20
156.8555597887821
 30
0.0
 11
987.6721448439841
 21
186.8555597887821
 31
0.0
  0
LINE
  5
1ED
330
17
100
AcDbEntity
  8
4
100
AcDbLine
 10
982.6721448439841
 20
156.8555597887821
 30
0.0
 11
982.6721448439841
 21
186.8555597887821
 31
0.0
  0
LINE
  5
1EE
330
17
100
AcDbEntity
  8
4
100
AcDbLine
 10
987.6721448439841
 20
164.3553157887823
 30
0.0
 11
982.6721448439841
 21
164.3553157887823
 31
0.0
  0
LINE
  5
1EF
330
17
100
AcDbEntity
  8
4
100
AcDbLine
 10
993.0469008439841
 20
153.8555597887821
 30
0.0
 11
991.1721448439841
 21
153.8555597887821
 31
0.0
  0
LINE
  5
1F0
330
17
100
AcDbEntity
  8
4
100
AcDbLine
 10
989.6721448439841
 20
157.8555597887821
 30
0.0
 11
991.1721448439841
 21
157.8555597887821
 31
0.0
  0
LINE
  5
1F1
330
17
100
AcDbEntity
  8
4
100
AcDbLine
 10
989.6721448439841
 20
156.8555597887821
 30
0.0
 11
982.6721448439841
 21
156.8555597887821
 31
0.0
  0
LINE
  5
1F2
330
17
100
AcDbEntity
  8
4
100
AcDbLine
 10
989.6721448439841
 20
185.8555597887821
 30
0.0
 11
991.1721448439841
 21
185.8555597887821
 31
0.0
  0
LINE
  5
1F3
330
17
100
AcDbEntity
  8
4
100
AcDbLine
 10
982.6721448439841
 20
186.8555597887821
 30
0.0
 11
989.6721448439841
 21
186.8555597887821
 31
0.0
  0
LINE
  5
1F4
330
17
100
AcDbEntity
  8
4
100
AcDbLine
 10
987.6721448439841
 20
179.3555597887821
 30
0.0
 11
982.6721448439841
 21
179.3555597887821
 31
0.0
  0
ARC
  5
1F5
330
17
100
AcDbEntity
  8
4
100
AcDbCircle
 10
987.792504843984
 20
210.3555597887821
 30
0.0
 40
5.00006
100
AcDbArc
 50
1.44090099999927
 51
90.0
  0
ARC
  5
1F6
330
17
100
AcDbEntity
  8
4
100
AcDbCircle
 10
991.3376728439841
 20
191.8555597887821
 30
0.0
 40
1.999952
100
AcDbArc
 50
270.0
 51
1.923812999997458
  0
LINE
  5
1F7
330
17
100
AcDbEntity
  8
4
100
AcDbLine
 10
991.3376728439841
 20
189.8555597887821
 30
0.0
 11
991.1721448439841
 21
189.8555597887821
 31
0.0
  0
ARC
  5
1F8
330
17
100
AcDbEntity
  8
4
100
AcDbCircle
 10
988.4741488439843
 20
187.8555597887821
 30
0.0
 40
5.000016
100
AcDbArc
 50
31.15663500000237
 51
90.0
  0
LINE
  5
1F9
330
17
100
AcDbEntity
  8
4
100
AcDbLine
 10
988.4741488439843
 20
192.8555597887821
 30
0.0
 11
981.1721448439841
 21
192.8555597887821
 31
0.0
  0
LINE
  5
1FA
330
17
100
AcDbEntity
  8
4
100
AcDbLine
 10
987.792504843984
 20
215.3555597887821
 30
0.0
 11
981.1721448439841
 21
215.3555597887821
 31
0.0
  0
LINE
  5
1FB
330
17
100
AcDbEntity
  8
4
100
AcDbLine
 10
980.1721448439841
 20
217.8555597887821
 30
0.0
 11
981.1721448439841
 21
217.8555597887821
 31
0.0
  0
ARC
  5
1FC
330
17
100
AcDbEntity
  8
4
100
AcDbCircle
 10
1005.681912843984
 20
191.3457957887822
 30
0.0
 40
2.99994
100
AcDbArc
 50
99.67467399999803
 51
170.3253480000015
  0
ARC
  5
1FD
330
17
100
AcDbEntity
  8
4
100
AcDbCircle
 10
1011.672144843984
 20
198.3526317887822
 30
0.0
 40
2.999944
100
AcDbArc
 50
278.0654689999984
 51
0.0
  0
LINE
  5
1FE
330
17
100
AcDbEntity
  8
4
100
AcDbLine
 10
980.1721448439841
 20
236.8555597887821
 30
0.0
 11
981.1721448439841
 21
236.8555597887821
 31
0.0
  0
LINE
  5
200
330
17
100
AcDbEntity
  8
4
100
AcDbLine
 10
980.1721448439841
 20
307.8555597887821
 30
0.0
 11
981.1721448439841
 21
307.8555597887821
 31
0.0
  0
LINE
  5
201
330
17
100
AcDbEntity
  8
4
100
AcDbLine
 10
980.1721448439841
 20
308.8555597887821
 30
0.0
 11
981.1721448439841
 21
308.8555597887821
 31
0.0
  0
ARC
  5
202
330
17
100
AcDbEntity
  8
4
100
AcDbCircle
 10
988.2698008439841
 20
337.8555597887821
 30
0.0
 40
4.999992
100
AcDbArc
 50
270.0
 51
358.1280370000008
  0
ARC
  5
203
330
17
100
AcDbEntity
  8
4
100
AcDbCircle
 10
988.189480843984
 20
335.3555597887821
 30
0.0
 40
5.000024
100
AcDbArc
 50
270.0
 51
358.1924359999981
  0
LINE
  5
204
330
17
100
AcDbEntity
  8
4
100
AcDbLine
 10
988.2698008439841
 20
332.8555597887821
 30
0.0
 11
981.1721448439841
 21
332.8555597887821
 31
0.0
  0
LINE
  5
205
330
17
100
AcDbEntity
  8
4
100
AcDbLine
 10
988.189480843984
 20
330.3555597887821
 30
0.0
 11
981.1721448439841
 21
330.3555597887821
 31
0.0
  0
LINE
  5
206
330
17
100
AcDbEntity
  8
4
100
AcDbLine
 10
998.6721448439841
 20
435.8555597887821
 30
0.0
 11
1000.672144843984
 21
435.8555597887821
 31
0.0
  0
LINE
  5
207
330
17
100
AcDbEntity
  8
4
100
AcDbLine
 10
1002.672144843984
 20
459.8555597887821
 30
0.0
 11
1014.672144843984
 21
459.8555597887821
 31
0.0
  0
ARC
  5
208
330
17
100
AcDbEntity
  8
4
100
AcDbCircle
 10
1002.672144843984
 20
457.8555597887821
 30
0.0
 40
2.0
100
AcDbArc
 50
90.0
 51
180.0
  0
ARC
  5
209
330
17
100
AcDbEntity
  8
4
100
AcDbCircle
 10
1016.672144843984
 20
463.8555597887821
 30
0.0
 40
2.0
100
AcDbArc
 50
90.0
 51
180.0
  0
LINE
  5
20B
330
17
100
AcDbEntity
  8
4
100
AcDbLine
 10
1291.172144843984
 20
286.8555597887821
 30
0.0
 11
1291.172144843984
 21
238.8555597887821
 31
0.0
  0
LINE
  5
20C
330
17
100
AcDbEntity
  8
4
100
AcDbLine
 10
1292.172144843984
 20
290.3555597887821
 30
0.0
 11
1292.172144843984
 21
239.8555597887821
 31
0.0
  0
LINE
  5
20D
330
17
100
AcDbEntity
  8
4
100
AcDbLine
 10
1171.172144843984
 20
192.8555597887821
 30
0.0
 11
1171.172144843984
 21
332.8555597887821
 31
0.0
  0
LINE
  5
20E
330
17
100
AcDbEntity
  8
4
100
AcDbLine
 10
1192.172144843984
 20
287.8555597887821
 30
0.0
 11
1192.172144843984
 21
237.8555597887821
 31
0.0
  0
LINE
  5
20F
330
17
100
AcDbEntity
  8
4
100
AcDbLine
 10
1172.172144843984
 20
217.8555597887821
 30
0.0
 11
1172.172144843984
 21
308.8555597887821
 31
0.0
  0
ARC
  5
210
330
17
100
AcDbEntity
  8
4
100
AcDbCircle
 10
-1035.349731156016
 20
265.8555597887821
 30
0.0
 40
2199.999976
100
AcDbArc
 50
0.1770979999999609
 51
3.897785999999913
  0
LINE
  5
211
330
17
100
AcDbEntity
  8
4
100
AcDbLine
 10
1158.072144843984
 20
272.055511788782
 30
0.0
 11
1158.072144843984
 21
416.0042397887819
 31
0.0
  0
LINE
  5
212
330
17
100
AcDbEntity
  8
4
100
AcDbLine
 10
1137.672144843984
 20
463.8555597887821
 30
0.0
 11
1137.672144843984
 21
99.8555597887821
 31
0.0
  0
LINE
  5
213
330
17
100
AcDbEntity
  8
4
100
AcDbLine
 10
1168.951784843984
 20
215.3555597887821
 30
0.0
 11
1171.172144843984
 21
215.3555597887821
 31
0.0
  0
LINE
  5
214
330
17
100
AcDbEntity
  8
4
100
AcDbLine
 10
1171.005944843984
 20
215.3555597887821
 30
0.0
 11
1171.172144843984
 21
215.3555597887821
 31
0.0
  0
LINE
  5
215
330
17
100
AcDbEntity
  8
4
100
AcDbLine
 10
1168.270144843984
 20
192.8555597887821
 30
0.0
 11
1171.172144843984
 21
192.8555597887821
 31
0.0
  0
LINE
  5
216
330
17
100
AcDbEntity
  8
L-CENTER
100
AcDbLine
 10
1128.958764843984
 20
106.5069277887821
 30
0.0
 11
1172.982056843984
 21
106.5069277887821
 31
0.0
  0
ARC
  5
217
330
17
100
AcDbEntity
  8
4
100
AcDbCircle
 10
1168.270144843984
 20
187.8555597887821
 30
0.0
 40
4.999976
100
AcDbArc
 50
90.0
 51
177.9740720000001
  0
ARC
  5
218
330
17
100
AcDbEntity
  8
4
100
AcDbCircle
 10
845.1721448439841
 20
149.8555597887821
 30
0.0
 40
249.99998
100
AcDbArc
 50
350.330598
 51
9.670248
  0
ARC
  5
219
330
17
100
AcDbEntity
  8
4
100
AcDbCircle
 10
-1035.349731156016
 20
265.8555597887821
 30
0.0
 40
2200.000088
100
AcDbArc
 50
356.102348
 51
359.6667790000002
  0
LINE
  5
21A
330
17
100
AcDbEntity
  8
4
100
AcDbLine
 10
1158.072144843984
 20
115.7068757887821
 30
0.0
 11
1158.072144843984
 21
253.6556077887822
 31
0.0
  0
ARC
  5
21B
330
17
100
AcDbEntity
  8
4
100
AcDbCircle
 10
1047.172144843984
 20
149.8555597887821
 30
0.0
 40
13.499928
100
AcDbArc
 50
105.0261960000003
 51
74.97380399999976
  0
ARC
  5
21C
330
17
100
AcDbEntity
  8
4
100
AcDbCircle
 10
1088.662380843984
 20
108.365323788782
 30
0.0
 40
2.99994
100
AcDbArc
 50
279.674673999998
 51
350.3253480000018
  0
LINE
  5
21D
330
17
100
AcDbEntity
  8
4
100
AcDbLine
 10
1050.672144843984
 20
159.3555597887821
 30
0.0
 11
1050.672144843984
 21
166.3555597887821
 31
0.0
  0
LINE
  5
21E
330
17
100
AcDbEntity
  8
4
100
AcDbLine
 10
1043.672144843984
 20
166.3555597887821
 30
0.0
 11
1043.672144843984
 21
159.3555597887821
 31
0.0
  0
LINE
  5
21F
330
17
100
AcDbEntity
  8
4
100
AcDbLine
 10
1050.672144843984
 20
159.3555597887821
 30
0.0
 11
1043.672144843984
 21
159.3555597887821
 31
0.0
  0
LINE
  5
220
330
17
100
AcDbEntity
  8
4
100
AcDbLine
 10
1050.672144843984
 20
166.3555597887821
 30
0.0
 11
1043.672144843984
 21
166.3555597887821
 31
0.0
  0
LINE
  5
221
330
17
100
AcDbEntity
  8
4
100
AcDbLine
 10
1158.571900843984
 20
115.7068757887821
 30
0.0
 11
1156.071900843984
 21
115.7068757887821
 31
0.0
  0
LINE
  5
222
330
17
100
AcDbEntity
  8
4
100
AcDbLine
 10
1164.676880843984
 20
116.306975788782
 30
0.0
 11
1158.571900843984
 21
116.306975788782
 31
0.0
  0
LINE
  5
223
330
17
100
AcDbEntity
  8
4
100
AcDbLine
 10
1158.072144843984
 20
95.8555597887821
 30
0.0
 11
1156.072144843984
 21
95.8555597887821
 31
0.0
  0
LINE
  5
224
330
17
100
AcDbEntity
  8
4
100
AcDbLine
 10
1156.072144843984
 20
97.30697578878198
 30
0.0
 11
1158.572144843984
 21
97.30697578878198
 31
0.0
  0
LINE
  5
225
330
17
100
AcDbEntity
  8
4
100
AcDbLine
 10
1164.677124843984
 20
96.7068757887821
 30
0.0
 11
1158.572144843984
 21
96.7068757887821
 31
0.0
  0
LINE
  5
226
330
17
100
AcDbEntity
  8
4
100
AcDbLine
 10
1158.571900843984
 20
111.414395788782
 30
0.0
 11
1164.676880843984
 21
111.414395788782
 31
0.0
  0
LINE
  5
227
330
17
100
AcDbEntity
  8
4
100
AcDbLine
 10
1158.572144843984
 20
101.5994557887821
 30
0.0
 11
1164.677124843984
 21
101.5994557887821
 31
0.0
  0
ARC
  5
228
330
17
100
AcDbEntity
  8
4
100
AcDbCircle
 10
1151.668580843984
 20
106.5069277887821
 30
0.0
 40
13.90362
100
AcDbArc
 50
339.3323240000001
 51
20.66861300000016
  0
ARC
  5
229
330
17
100
AcDbEntity
  8
4
100
AcDbCircle
 10
1161.781128843984
 20
99.15316778878196
 30
0.0
 40
3.79102
100
AcDbArc
 50
319.814133999999
 51
40.18825600000022
  0
LINE
  5
22A
330
17
100
AcDbEntity
  8
4
100
AcDbLine
 10
1158.072144843984
 20
95.8555597887821
 30
0.0
 11
1158.072144843984
 21
97.30697578878198
 31
0.0
  0
LINE
  5
22B
330
17
100
AcDbEntity
  8
4
100
AcDbLine
 10
1158.571900843984
 20
116.306975788782
 30
0.0
 11
1158.572144843984
 21
96.7068757887821
 31
0.0
  0
LINE
  5
22C
330
17
100
AcDbEntity
  8
4
100
AcDbLine
 10
1156.071900843984
 20
115.7068757887821
 30
0.0
 11
1156.072144843984
 21
97.30697578878198
 31
0.0
  0
ARC
  5
22D
330
17
100
AcDbEntity
  8
4
100
AcDbCircle
 10
1161.780884843984
 20
113.8606877887821
 30
0.0
 40
3.790928
100
AcDbArc
 50
319.8117330000013
 51
40.18825599999942
  0
LINE
  5
22E
330
17
100
AcDbEntity
  8
4
100
AcDbLine
 10
1165.571900843984
 20
113.8606877887821
 30
0.0
 11
1165.572144843984
 21
99.15316778878196
 31
0.0
  0
ARC
  5
22F
330
17
100
AcDbEntity
  8
4
100
AcDbCircle
 10
1088.662380843984
 20
191.3457957887822
 30
0.0
 40
2.99994
100
AcDbArc
 50
9.67465199999817
 51
80.32532600000197
  0
ARC
  5
230
330
17
100
AcDbEntity
  8
4
100
AcDbCircle
 10
1168.951784843984
 20
210.3555597887821
 30
0.0
 40
5.00006
100
AcDbArc
 50
90.0
 51
178.5590990000007
  0
LINE
  5
231
330
17
100
AcDbEntity
  8
4
100
AcDbLine
 10
1158.571900843984
 20
272.6556077887822
 30
0.0
 11
1158.572144843984
 21
253.055511788782
 31
0.0
  0
LINE
  5
232
330
17
100
AcDbEntity
  8
4
100
AcDbLine
 10
1156.071900843984
 20
272.055511788782
 30
0.0
 11
1156.072144843984
 21
253.6556077887822
 31
0.0
  0
ARC
  5
233
330
17
100
AcDbEntity
  8
4
100
AcDbCircle
 10
1151.668580843984
 20
262.8555597887821
 30
0.0
 40
13.90362
100
AcDbArc
 50
339.3323239999993
 51
20.66861300000016
  0
LINE
  5
234
330
17
100
AcDbEntity
  8
4
100
AcDbLine
 10
1165.571900843984
 20
270.2093197887821
 30
0.0
 11
1165.572144843984
 21
255.5017997887821
 31
0.0
  0
LINE
  5
235
330
17
100
AcDbEntity
  8
4
100
AcDbLine
 10
1156.072144843984
 20
253.6556077887822
 30
0.0
 11
1158.572144843984
 21
253.6556077887822
 31
0.0
  0
LINE
  5
236
330
17
100
AcDbEntity
  8
4
100
AcDbLine
 10
1164.677124843984
 20
253.055511788782
 30
0.0
 11
1158.572144843984
 21
253.055511788782
 31
0.0
  0
LINE
  5
237
330
17
100
AcDbEntity
  8
4
100
AcDbLine
 10
1158.572144843984
 20
257.9480877887822
 30
0.0
 11
1164.677124843984
 21
257.9480877887822
 31
0.0
  0
ARC
  5
238
330
17
100
AcDbEntity
  8
4
100
AcDbCircle
 10
1161.781128843984
 20
255.5017997887821
 30
0.0
 40
3.79102
100
AcDbArc
 50
319.814133999999
 51
40.18825600000022
  0
LINE
  5
239
330
17
100
AcDbEntity
  8
4
100
AcDbLine
 10
1158.571900843984
 20
272.055511788782
 30
0.0
 11
1156.071900843984
 21
272.055511788782
 31
0.0
  0
LINE
  5
23A
330
17
100
AcDbEntity
  8
4
100
AcDbLine
 10
1164.676880843984
 20
272.6556077887822
 30
0.0
 11
1158.571900843984
 21
272.6556077887822
 31
0.0
  0
LINE
  5
23B
330
17
100
AcDbEntity
  8
4
100
AcDbLine
 10
1158.571900843984
 20
267.763031788782
 30
0.0
 11
1164.676880843984
 21
267.763031788782
 31
0.0
  0
ARC
  5
23C
330
17
100
AcDbEntity
  8
4
100
AcDbCircle
 10
1161.780884843984
 20
270.2093197887821
 30
0.0
 40
3.790928
100
AcDbArc
 50
319.8117439999993
 51
40.18825600000074
  0
LINE
  5
23E
330
17
100
AcDbEntity
  8
4
100
AcDbLine
 10
1192.172144843984
 20
238.8555597887821
 30
0.0
 11
1291.172144843984
 21
238.8555597887821
 31
0.0
  0
LINE
  5
23F
330
17
100
AcDbEntity
  8
4
100
AcDbLine
 10
1172.172144843984
 20
217.8555597887821
 30
0.0
 11
1171.172144843984
 21
217.8555597887821
 31
0.0
  0
LINE
  5
240
330
17
100
AcDbEntity
  8
4
100
AcDbLine
 10
1172.172144843984
 20
237.8555597887821
 30
0.0
 11
1192.172144843984
 21
237.8555597887821
 31
0.0
  0
LINE
  5
241
330
17
100
AcDbEntity
  8
4
100
AcDbLine
 10
1172.172144843984
 20
236.8555597887821
 30
0.0
 11
1171.172144843984
 21
236.8555597887821
 31
0.0
  0
LINE
  5
242
330
17
100
AcDbEntity
  8
4
100
AcDbLine
 10
1291.172144843984
 20
238.8555597887821
 30
0.0
 11
1292.172144843984
 21
239.8555597887821
 31
0.0
  0
LINE
  5
243
330
17
100
AcDbEntity
  8
L-CENTER
100
AcDbLine
 10
1127.753932843984
 20
425.2041917887818
 30
0.0
 11
1171.996216843984
 21
425.2041917887818
 31
0.0
  0
LINE
  5
244
330
17
100
AcDbEntity
  8
4
100
AcDbLine
 10
1168.474488843984
 20
332.8555597887821
 30
0.0
 11
1171.172144843984
 21
332.8555597887821
 31
0.0
  0
LINE
  5
245
330
17
100
AcDbEntity
  8
4
100
AcDbLine
 10
1168.554812843984
 20
330.3555597887821
 30
0.0
 11
1171.172144843984
 21
330.3555597887821
 31
0.0
  0
ARC
  5
24A
330
17
100
AcDbEntity
  8
4
100
AcDbCircle
 10
1168.474488843984
 20
337.8555597887821
 30
0.0
 40
4.999992
100
AcDbArc
 50
181.8719629999996
 51
270.0
  0
ARC
  5
24B
330
17
100
AcDbEntity
  8
4
100
AcDbCircle
 10
1168.554812843984
 20
335.3555597887821
 30
0.0
 40
5.000024
100
AcDbArc
 50
181.8075640000019
 51
270.0
  0
LINE
  5
24C
330
17
100
AcDbEntity
  8
4
100
AcDbLine
 10
1047.172144843984
 20
467.8555597887821
 30
0.0
 11
1105.172144843984
 21
467.8555597887821
 31
0.0
  0
LINE
  5
24D
330
17
100
AcDbEntity
  8
4
100
AcDbLine
 10
1063.672144843984
 20
467.8555597887821
 30
0.0
 11
1088.672144843984
 21
467.8555597887821
 31
0.0
  0
LINE
  5
24E
330
17
100
AcDbEntity
  8
4
100
AcDbLine
 10
1034.672144843984
 20
466.4988717887823
 30
0.0
 11
1047.172144843984
 21
466.4988717887823
 31
0.0
  0
LINE
  5
24F
330
17
100
AcDbEntity
  8
4
100
AcDbLine
 10
1034.672144843984
 20
466.4988717887823
 30
0.0
 11
1034.672144843984
 21
465.8555597887821
 31
0.0
  0
LINE
  5
250
330
17
100
AcDbEntity
  8
4
100
AcDbLine
 10
1047.172144843984
 20
465.8555597887821
 30
0.0
 11
1047.172144843984
 21
467.8555597887821
 31
0.0
  0
LINE
  5
251
330
17
100
AcDbEntity
  8
4
100
AcDbLine
 10
1158.571900843984
 20
435.0042397887819
 30
0.0
 11
1158.572144843984
 21
415.4041437887822
 31
0.0
  0
LINE
  5
252
330
17
100
AcDbEntity
  8
4
100
AcDbLine
 10
1156.071900843984
 20
434.4041437887822
 30
0.0
 11
1156.072144843984
 21
416.0042397887819
 31
0.0
  0
ARC
  5
253
330
17
100
AcDbEntity
  8
4
100
AcDbCircle
 10
1151.668580843984
 20
425.2041917887818
 30
0.0
 40
13.90362
100
AcDbArc
 50
339.3323279999999
 51
20.66861700000157
  0
LINE
  5
254
330
17
100
AcDbEntity
  8
4
100
AcDbLine
 10
1165.571900843984
 20
432.5579517887822
 30
0.0
 11
1165.572144843984
 21
417.8504317887819
 31
0.0
  0
LINE
  5
255
330
17
100
AcDbEntity
  8
4
100
AcDbLine
 10
1156.072144843984
 20
416.0042397887819
 30
0.0
 11
1158.572144843984
 21
416.0042397887819
 31
0.0
  0
LINE
  5
256
330
17
100
AcDbEntity
  8
4
100
AcDbLine
 10
1164.677124843984
 20
415.4041437887822
 30
0.0
 11
1158.572144843984
 21
415.4041437887822
 31
0.0
  0
LINE
  5
257
330
17
100
AcDbEntity
  8
4
100
AcDbLine
 10
1158.572144843984
 20
420.2967237887824
 30
0.0
 11
1164.677124843984
 21
420.2967237887824
 31
0.0
  0
ARC
  5
258
330
17
100
AcDbEntity
  8
4
100
AcDbCircle
 10
1161.781128843984
 20
417.8504317887819
 30
0.0
 40
3.79102
100
AcDbArc
 50
319.814133999999
 51
40.18825600000022
  0
LINE
  5
259
330
17
100
AcDbEntity
  8
4
100
AcDbLine
 10
1105.172144843984
 20
465.8555597887821
 30
0.0
 11
1105.172144843984
 21
467.8555597887821
 31
0.0
  0
LINE
  5
25A
330
17
100
AcDbEntity
  8
4
100
AcDbLine
 10
1158.072144843984
 20
435.8555597887821
 30
0.0
 11
1156.072144843984
 21
435.8555597887821
 31
0.0
  0
LINE
  5
25B
330
17
100
AcDbEntity
  8
4
100
AcDbLine
 10
1158.571900843984
 20
434.4041437887822
 30
0.0
 11
1156.071900843984
 21
434.4041437887822
 31
0.0
  0
LINE
  5
25C
330
17
100
AcDbEntity
  8
4
100
AcDbLine
 10
1164.676880843984
 20
435.0042397887819
 30
0.0
 11
1158.571900843984
 21
435.0042397887819
 31
0.0
  0
LINE
  5
25D
330
17
100
AcDbEntity
  8
4
100
AcDbLine
 10
1158.571900843984
 20
430.1116637887822
 30
0.0
 11
1164.676880843984
 21
430.1116637887822
 31
0.0
  0
ARC
  5
25E
330
17
100
AcDbEntity
  8
4
100
AcDbCircle
 10
1161.780884843984
 20
432.5579517887822
 30
0.0
 40
3.790928
100
AcDbArc
 50
319.8117439999993
 51
40.18825600000074
  0
LINE
  5
25F
330
17
100
AcDbEntity
  8
4
100
AcDbLine
 10
1158.072144843984
 20
434.4041437887822
 30
0.0
 11
1158.072144843984
 21
435.8555597887821
 31
0.0
  0
LINE
  5
260
330
17
100
AcDbEntity
  8
4
100
AcDbLine
 10
1154.072144843984
 20
459.8555597887821
 30
0.0
 11
1137.672144843984
 21
459.8555597887821
 31
0.0
  0
ARC
  5
261
330
17
100
AcDbEntity
  8
4
100
AcDbCircle
 10
1135.672144843984
 20
463.8555597887821
 30
0.0
 40
2.0
100
AcDbArc
 50
0.0
 51
90.0
  0
ARC
  5
262
330
17
100
AcDbEntity
  8
4
100
AcDbCircle
 10
1154.072144843984
 20
457.8555597887821
 30
0.0
 40
2.0
100
AcDbArc
 50
0.0
 51
90.0
  0
LINE
  5
265
330
17
100
AcDbEntity
  8
4
100
AcDbLine
 10
1292.172144843984
 20
290.3555597887821
 30
0.0
 11
1202.172144843984
 21
290.3555597887821
 31
0.0
  0
LINE
  5
266
330
17
100
AcDbEntity
  8
4
100
AcDbLine
 10
1192.172144843984
 20
286.8555597887821
 30
0.0
 11
1291.172144843984
 21
286.8555597887821
 31
0.0
  0
LINE
  5
268
330
17
100
AcDbEntity
  8
4
100
AcDbLine
 10
1192.172144843984
 20
287.8555597887821
 30
0.0
 11
1172.172144843984
 21
287.8555597887821
 31
0.0
  0
LINE
  5
269
330
17
100
AcDbEntity
  8
4
100
AcDbLine
 10
1202.172144843984
 20
290.3555597887821
 30
0.0
 11
1202.172144843984
 21
286.8555597887821
 31
0.0
  0
LINE
  5
26A
330
17
100
AcDbEntity
  8
4
100
AcDbLine
 10
1172.172144843984
 20
307.8555597887821
 30
0.0
 11
1171.172144843984
 21
307.8555597887821
 31
0.0
  0
LINE
  5
26B
330
17
100
AcDbEntity
  8
4
100
AcDbLine
 10
1172.172144843984
 20
308.8555597887821
 30
0.0
 11
1171.172144843984
 21
308.8555597887821
 31
0.0
  0
LINE
  5
26E
330
17
100
AcDbEntity
  8
4
100
AcDbLine
 10
1292.172144843984
 20
285.8555597887821
 30
0.0
 11
1291.172144843984
 21
286.8555597887821
 31
0.0
  0
ARC
  5
276
330
17
100
AcDbEntity
  8
4
100
AcDbCircle
 10
1076.172144843984
 20
493.8555597887821
 30
0.0
 40
25.000056
100
AcDbArc
 50
301.7706930000003
 51
240.0000000000001
  0
LINE
  5
277
330
17
100
AcDbEntity
  8
L-CENTER
100
AcDbLine
 10
1111.630672843984
 20
493.8555597887821
 30
0.0
 11
1040.713616843984
 21
493.8555597887821
 31
0.0
  0
CIRCLE
  5
278
330
17
100
AcDbEntity
  8
4
100
AcDbCircle
 10
1076.172144843984
 20
493.8555597887821
 30
0.0
 40
15.0
  0
LINE
  5
279
330
17
100
AcDbEntity
  8
4
100
AcDbLine
 10
1088.672144843984
 20
476.8555597887821
 30
0.0
 11
1063.672144843984
 21
476.8555597887821
 31
0.0
  0
LINE
  5
27A
330
17
100
AcDbEntity
  8
4
100
AcDbLine
 10
1063.672144843984
 20
476.8555597887821
 30
0.0
 11
1076.172144843984
 21
478.8555597887821
 31
0.0
  0
ARC
  5
27B
330
17
100
AcDbEntity
  8
4
100
AcDbCircle
 10
1062.272244843984
 20
471.4112237887821
 30
0.0
 40
1.399916
100
AcDbArc
 50
0.0
 51
58.23081800000507
  0
LINE
  5
27C
330
17
100
AcDbEntity
  8
4
100
AcDbLine
 10
1076.172144843984
 20
478.8555597887821
 30
0.0
 11
1088.672144843984
 21
476.8555597887821
 31
0.0
  0
ARC
  5
27D
330
17
100
AcDbEntity
  8
4
100
AcDbCircle
 10
1090.072292843984
 20
471.4112237887821
 30
0.0
 40
1.399916
100
AcDbArc
 50
121.7691819999949
 51
180.0
  0
ARC
  5
3D3
330
17
100
AcDbEntity
  8
4
100
AcDbCircle
 10
455.1307595656881
 20
-1166.547910752168
 30
0.0
 40
2200.0
100
AcDbArc
 50
92.65256890078113
 51
93.53166980767172
  0
ARC
  5
3D4
330
17
100
AcDbEntity
  8
4
100
AcDbCircle
 10
455.1307595656881
 20
-1166.547910752168
 30
0.0
 40
2202.0
100
AcDbArc
 50
92.65015794433586
 51
94.2929425652674
  0
LINE
  5
3D5
330
17
100
AcDbEntity
  8
L-CENTER
100
AcDbLine
 10
271.1307595656876
 20
1003.160512816665
 30
0.0
 11
271.1307595656876
 21
1041.642051526462
 31
0.0
  0
ARC
  5
3D6
330
17
100
AcDbEntity
  8
4
100
AcDbCircle
 10
263.7695436335202
 20
1034.990459342823
 30
0.0
 40
3.783613929059507
100
AcDbArc
 50
49.57010315516856
 51
130.4298968448253
  0
ARC
  5
3D7
330
17
100
AcDbEntity
  8
4
100
AcDbCircle
 10
271.1307595656876
 20
1024.994907974422
 30
0.0
 40
13.77916529745958
100
AcDbArc
 50
69.13593563607996
 51
110.8640643639201
  0
ARC
  5
3D8
330
17
100
AcDbEntity
  8
4
100
AcDbCircle
 10
278.4919754978555
 20
1034.990459342823
 30
0.0
 40
3.783613929059507
100
AcDbArc
 50
49.57010315516856
 51
130.4298968448253
  0
LINE
  5
3D9
330
17
100
AcDbEntity
  8
4
100
AcDbLine
 10
280.9457141419116
 20
1031.774073271882
 30
0.0
 11
261.3158049894641
 21
1031.774073271882
 31
0.0
  0
LINE
  5
3DA
330
17
100
AcDbEntity
  8
4
100
AcDbLine
 10
280.9457141419116
 20
1029.274073271882
 30
0.0
 11
261.3158049894641
 21
1029.274073271882
 31
0.0
  0
LINE
  5
3DB
330
17
100
AcDbEntity
  8
4
100
AcDbLine
 10
280.9457141419116
 20
1037.870546326029
 30
0.0
 11
280.9457141419116
 21
1029.274073271882
 31
0.0
  0
LINE
  5
3DC
330
17
100
AcDbEntity
  8
4
100
AcDbLine
 10
266.2232822775759
 20
1037.870546326029
 30
0.0
 11
266.2232822775759
 21
1031.774073271882
 31
0.0
  0
LINE
  5
3DD
330
17
100
AcDbEntity
  8
4
100
AcDbLine
 10
261.3158049894641
 20
1029.274073271882
 30
0.0
 11
261.3158049894641
 21
1037.870546326029
 31
0.0
  0
LINE
  5
3DE
330
17
100
AcDbEntity
  8
4
100
AcDbLine
 10
276.0382368537998
 20
1037.870546326029
 30
0.0
 11
276.0382368537998
 21
1031.774073271882
 31
0.0
  0
LINE
  5
3DF
330
17
100
AcDbEntity
  8
4
100
AcDbLine
 10
263.7695436335202
 20
1038.774073271882
 30
0.0
 11
278.4919754978555
 21
1038.774073271882
 31
0.0
  0
LINE
  5
3E0
330
17
100
AcDbEntity
  8
L-CENTER
100
AcDbLine
 10
363.1307595656876
 20
1003.160512816665
 30
0.0
 11
363.1307595656876
 21
1041.642051526462
 31
0.0
  0
ARC
  5
3E1
330
17
100
AcDbEntity
  8
4
100
AcDbCircle
 10
355.7695436335202
 20
1034.990459342823
 30
0.0
 40
3.783613929059507
100
AcDbArc
 50
49.57010315516856
 51
130.4298968448253
  0
ARC
  5
3E2
330
17
100
AcDbEntity
  8
4
100
AcDbCircle
 10
363.1307595656876
 20
1024.994907974422
 30
0.0
 40
13.77916529745958
100
AcDbArc
 50
69.13593563607996
 51
110.8640643639201
  0
ARC
  5
3E3
330
17
100
AcDbEntity
  8
4
100
AcDbCircle
 10
370.4919754978555
 20
1034.990459342823
 30
0.0
 40
3.783613929059507
100
AcDbArc
 50
49.57010315516856
 51
130.4298968448253
  0
LINE
  5
3E4
330
17
100
AcDbEntity
  8
4
100
AcDbLine
 10
372.9457141419116
 20
1031.774073271882
 30
0.0
 11
353.3158049894641
 21
1031.774073271882
 31
0.0
  0
LINE
  5
3E5
330
17
100
AcDbEntity
  8
4
100
AcDbLine
 10
372.9457141419116
 20
1029.274073271882
 30
0.0
 11
353.3158049894641
 21
1029.274073271882
 31
0.0
  0
LINE
  5
3E6
330
17
100
AcDbEntity
  8
4
100
AcDbLine
 10
372.9457141419116
 20
1037.870546326029
 30
0.0
 11
372.9457141419116
 21
1029.274073271882
 31
0.0
  0
LINE
  5
3E7
330
17
100
AcDbEntity
  8
4
100
AcDbLine
 10
358.2232822775759
 20
1037.870546326029
 30
0.0
 11
358.2232822775759
 21
1031.774073271882
 31
0.0
  0
LINE
  5
3E8
330
17
100
AcDbEntity
  8
4
100
AcDbLine
 10
353.3158049894641
 20
1029.274073271882
 30
0.0
 11
353.3158049894641
 21
1037.870546326029
 31
0.0
  0
LINE
  5
3E9
330
17
100
AcDbEntity
  8
4
100
AcDbLine
 10
368.0382368537998
 20
1037.870546326029
 30
0.0
 11
368.0382368537998
 21
1031.774073271882
 31
0.0
  0
LINE
  5
3EA
330
17
100
AcDbEntity
  8
4
100
AcDbLine
 10
355.7695436335202
 20
1038.774073271882
 30
0.0
 11
370.4919754978555
 21
1038.774073271882
 31
0.0
  0
ARC
  5
3EB
330
17
100
AcDbEntity
  8
4
100
AcDbCircle
 10
455.1307595656881
 20
-1166.547910752168
 30
0.0
 40
2200.0
100
AcDbArc
 50
87.8591126554834
 51
92.14088734451661
  0
ARC
  5
3EC
330
17
100
AcDbEntity
  8
4
100
AcDbCircle
 10
455.1307595656881
 20
-1166.547910752168
 30
0.0
 40
2202.0
100
AcDbArc
 50
87.86105805321202
 51
92.13894194678798
  0
LINE
  5
3ED
330
17
100
AcDbEntity
  8
4
100
AcDbLine
 10
554.491975497855
 20
1038.774073271882
 30
0.0
 11
539.7695436335198
 21
1038.774073271882
 31
0.0
  0
LINE
  5
3EE
330
17
100
AcDbEntity
  8
4
100
AcDbLine
 10
542.2232822775754
 20
1037.870546326029
 30
0.0
 11
542.2232822775754
 21
1031.774073271882
 31
0.0
  0
LINE
  5
3EF
330
17
100
AcDbEntity
  8
4
100
AcDbLine
 10
556.9457141419111
 20
1029.274073271882
 30
0.0
 11
556.9457141419111
 21
1037.870546326029
 31
0.0
  0
LINE
  5
3F0
330
17
100
AcDbEntity
  8
4
100
AcDbLine
 10
552.0382368537994
 20
1037.870546326029
 30
0.0
 11
552.0382368537994
 21
1031.774073271882
 31
0.0
  0
LINE
  5
3F1
330
17
100
AcDbEntity
  8
4
100
AcDbLine
 10
537.3158049894637
 20
1037.870546326029
 30
0.0
 11
537.3158049894637
 21
1029.274073271882
 31
0.0
  0
LINE
  5
3F2
330
17
100
AcDbEntity
  8
4
100
AcDbLine
 10
537.3158049894637
 20
1029.274073271882
 30
0.0
 11
556.9457141419111
 21
1029.274073271882
 31
0.0
  0
LINE
  5
3F3
330
17
100
AcDbEntity
  8
4
100
AcDbLine
 10
537.3158049894637
 20
1031.774073271882
 30
0.0
 11
556.9457141419111
 21
1031.774073271882
 31
0.0
  0
ARC
  5
3F4
330
17
100
AcDbEntity
  8
4
100
AcDbCircle
 10
539.7695436335198
 20
1034.990459342823
 30
0.0
 40
3.783613929059507
100
AcDbArc
 50
49.57010315517471
 51
130.4298968448315
  0
ARC
  5
3F5
330
17
100
AcDbEntity
  8
4
100
AcDbCircle
 10
547.1307595656876
 20
1024.994907974422
 30
0.0
 40
13.77916529745958
100
AcDbArc
 50
69.13593563608042
 51
110.8640643639196
  0
ARC
  5
3F6
330
17
100
AcDbEntity
  8
4
100
AcDbCircle
 10
554.491975497855
 20
1034.990459342823
 30
0.0
 40
3.783613929059507
100
AcDbArc
 50
49.57010315517471
 51
130.4298968448315
  0
LINE
  5
3F7
330
17
100
AcDbEntity
  8
L-CENTER
100
AcDbLine
 10
547.1307595656876
 20
1003.160512816665
 30
0.0
 11
547.1307595656876
 21
1041.642051526462
 31
0.0
  0
LINE
  5
3F8
330
17
100
AcDbEntity
  8
4
100
AcDbLine
 10
646.491975497855
 20
1038.774073271882
 30
0.0
 11
631.7695436335198
 21
1038.774073271882
 31
0.0
  0
LINE
  5
3F9
330
17
100
AcDbEntity
  8
4
100
AcDbLine
 10
634.2232822775754
 20
1037.870546326029
 30
0.0
 11
634.2232822775754
 21
1031.774073271882
 31
0.0
  0
LINE
  5
3FA
330
17
100
AcDbEntity
  8
4
100
AcDbLine
 10
648.9457141419111
 20
1029.274073271882
 30
0.0
 11
648.9457141419111
 21
1037.870546326029
 31
0.0
  0
LINE
  5
3FB
330
17
100
AcDbEntity
  8
4
100
AcDbLine
 10
644.0382368537994
 20
1037.870546326029
 30
0.0
 11
644.0382368537994
 21
1031.774073271882
 31
0.0
  0
LINE
  5
3FC
330
17
100
AcDbEntity
  8
4
100
AcDbLine
 10
629.3158049894637
 20
1037.870546326029
 30
0.0
 11
629.3158049894637
 21
1029.274073271882
 31
0.0
  0
LINE
  5
3FD
330
17
100
AcDbEntity
  8
4
100
AcDbLine
 10
629.3158049894637
 20
1029.274073271882
 30
0.0
 11
648.9457141419111
 21
1029.274073271882
 31
0.0
  0
LINE
  5
3FE
330
17
100
AcDbEntity
  8
4
100
AcDbLine
 10
629.3158049894637
 20
1031.774073271882
 30
0.0
 11
648.9457141419111
 21
1031.774073271882
 31
0.0
  0
ARC
  5
3FF
330
17
100
AcDbEntity
  8
4
100
AcDbCircle
 10
631.7695436335198
 20
1034.990459342823
 30
0.0
 40
3.783613929059507
100
AcDbArc
 50
49.57010315517471
 51
130.4298968448315
  0
ARC
  5
400
330
17
100
AcDbEntity
  8
4
100
AcDbCircle
 10
639.1307595656876
 20
1024.994907974422
 30
0.0
 40
13.77916529745958
100
AcDbArc
 50
69.13593563608042
 51
110.8640643639196
  0
ARC
  5
401
330
17
100
AcDbEntity
  8
4
100
AcDbCircle
 10
646.491975497855
 20
1034.990459342823
 30
0.0
 40
3.783613929059507
100
AcDbArc
 50
49.57010315517471
 51
130.4298968448315
  0
LINE
  5
402
330
17
100
AcDbEntity
  8
L-CENTER
100
AcDbLine
 10
639.1307595656876
 20
1003.160512816665
 30
0.0
 11
639.1307595656876
 21
1041.642051526462
 31
0.0
  0
ARC
  5
403
330
17
100
AcDbEntity
  8
4
100
AcDbCircle
 10
455.1307595656876
 20
949.3740732718816
 30
0.0
 40
11.0
100
AcDbArc
 50
117.0356917894128
 51
242.964308210587
  0
ARC
  5
404
330
17
100
AcDbEntity
  8
4
100
AcDbCircle
 10
455.1307595656876
 20
949.3740732718816
 30
0.0
 40
12.5
100
AcDbArc
 50
113.578178478202
 51
246.4218215217978
  0
ARC
  5
405
330
17
100
AcDbEntity
  8
4
100
AcDbCircle
 10
455.1307595656876
 20
949.3740732718816
 30
0.0
 40
12.5
100
AcDbArc
 50
293.5781784782031
 51
66.42182152179686
  0
ARC
  5
406
330
17
100
AcDbEntity
  8
4
100
AcDbCircle
 10
455.1307595656876
 20
969.3740732718816
 30
0.0
 40
5.0
100
AcDbArc
 50
0.0
 51
180.0
  0
LINE
  5
407
330
17
100
AcDbEntity
  8
4
100
AcDbLine
 10
460.1307595656876
 20
929.3740732718816
 30
0.0
 11
460.1307595656876
 21
969.3740732718816
 31
0.0
  0
LINE
  5
408
330
17
100
AcDbEntity
  8
4
100
AcDbLine
 10
450.1307595656876
 20
929.3740732718816
 30
0.0
 11
450.1307595656876
 21
969.3740732718816
 31
0.0
  0
ARC
  5
409
330
17
100
AcDbEntity
  8
4
100
AcDbCircle
 10
455.1307595656876
 20
949.3740732718816
 30
0.0
 40
11.0
100
AcDbArc
 50
297.0356917894154
 51
62.96430821058461
  0
ARC
  5
40A
330
17
100
AcDbEntity
  8
4
100
AcDbCircle
 10
455.1307595656876
 20
929.3740732718816
 30
0.0
 40
5.0
100
AcDbArc
 50
180.0
 51
0.0
  0
LWPOLYLINE
  5
40B
330
17
100
AcDbEntity
  8
4
100
AcDbPolyline
 90
        6
 70
     1
 43
0.0
 10
337.6307595656876
 20
949.3740732718816
 10
331.3807595656876
 20
960.1993908191871
 10
318.8807595656876
 20
960.1993908191871
 10
312.6307595656876
 20
949.3740732718816
 10
318.8807595656876
 20
938.548755724576
 10
331.3807595656876
 20
938.548755724576
  0
CIRCLE
  5
40C
330
17
100
AcDbEntity
  8
4
100
AcDbCircle
 10
325.1307595656876
 20
949.3740732718816
 30
0.0
 40
12.5
  0
LINE
  5
40D
330
17
100
AcDbEntity
  8
L-CENTER
100
AcDbLine
 10
325.1307595656876
 20
917.8740732718816
 30
0.0
 11
325.1307595656876
 21
980.3740732718816
 31
0.0
  0
CIRCLE
  5
40E
330
17
100
AcDbEntity
  8
4
100
AcDbCircle
 10
325.1307595656876
 20
949.3740732718816
 30
0.0
 40
19.0
  0
ARC
  5
40F
330
17
100
AcDbEntity
  8
4
100
AcDbCircle
 10
439.1307595656876
 20
975.3740732718816
 30
0.0
 40
3.0
100
AcDbArc
 50
90.0
 51
180.0
  0
ARC
  5
410
330
17
100
AcDbEntity
  8
4
100
AcDbCircle
 10
471.1307595656876
 20
975.3740732718816
 30
0.0
 40
3.0
100
AcDbArc
 50
0.0
 51
90.0
  0
LINE
  5
411
330
17
100
AcDbEntity
  8
4
100
AcDbLine
 10
439.1307595656876
 20
978.3740732718816
 30
0.0
 11
471.1307595656876
 21
978.3740732718816
 31
0.0
  0
ARC
  5
412
330
17
100
AcDbEntity
  8
4
100
AcDbCircle
 10
471.1307595656876
 20
923.3740732718816
 30
0.0
 40
3.0
100
AcDbArc
 50
270.0
 51
0.0
  0
LINE
  5
413
330
17
100
AcDbEntity
  8
4
100
AcDbLine
 10
474.1307595656876
 20
923.3740732718816
 30
0.0
 11
474.1307595656876
 21
975.3740732718816
 31
0.0
  0
ARC
  5
414
330
17
100
AcDbEntity
  8
4
100
AcDbCircle
 10
439.1307595656876
 20
923.3740732718816
 30
0.0
 40
3.0
100
AcDbArc
 50
180.0
 51
270.0
  0
LINE
  5
415
330
17
100
AcDbEntity
  8
4
100
AcDbLine
 10
436.1307595656876
 20
923.3740732718816
 30
0.0
 11
436.1307595656876
 21
975.3740732718816
 31
0.0
  0
LINE
  5
416
330
17
100
AcDbEntity
  8
4
100
AcDbLine
 10
439.1307595656876
 20
920.3740732718816
 30
0.0
 11
471.1307595656876
 21
920.3740732718816
 31
0.0
  0
LINE
  5
417
330
17
100
AcDbEntity
  8
4
100
AcDbLine
 10
423.5072322411588
 20
1065.374073271882
 30
0.0
 11
423.5072322411588
 21
1045.374073271882
 31
0.0
  0
LINE
  5
418
330
17
100
AcDbEntity
  8
4
100
AcDbLine
 10
373.5072322411588
 20
1065.374073271882
 30
0.0
 11
373.5072322411588
 21
1045.374073271882
 31
0.0
  0
LINE
  5
419
330
17
100
AcDbEntity
  8
4
100
AcDbLine
 10
374.5072322411588
 20
1164.374073271882
 30
0.0
 11
375.5072322411588
 21
1165.374073271882
 31
0.0
  0
POINT
  5
41A
330
17
100
AcDbEntity
  8
Defpoints
  6
ByBlock
 62
     0
100
AcDbPoint
 10
375.5072322411588
 20
1165.374073271882
 30
0.0
  0
LINE
  5
41C
330
17
100
AcDbEntity
  8
4
100
AcDbLine
 10
374.5072322411588
 20
1164.374073271882
 30
0.0
 11
392.5072322411588
 21
1164.374073271882
 31
0.0
  0
ARC
  5
41D
330
17
100
AcDbEntity
  8
4
100
AcDbCircle
 10
398.5072322411588
 20
1081.374073271882
 30
0.0
 40
6.0
100
AcDbArc
 50
180.0
 51
270.0
  0
LINE
  5
41E
330
17
100
AcDbEntity
  8
4
100
AcDbLine
 10
398.5072322411588
 20
1075.374073271882
 30
0.0
 11
398.5072322411588
 21
1075.374073271882
 31
0.0
  0
ARC
  5
41F
330
17
100
AcDbEntity
  8
4
100
AcDbCircle
 10
373.5072322411588
 20
1066.374073271882
 30
0.0
 40
1.0
100
AcDbArc
 50
270.0
 51
0.0
  0
LINE
  5
420
330
17
100
AcDbEntity
  8
4
100
AcDbLine
 10
404.5072322411588
 20
1081.374073271882
 30
0.0
 11
404.5072322411588
 21
1165.374073271882
 31
0.0
  0
LINE
  5
421
330
17
100
AcDbEntity
  8
4
100
AcDbLine
 10
392.5072322411588
 20
1081.374073271882
 30
0.0
 11
392.5072322411588
 21
1165.374073271882
 31
0.0
  0
LINE
  5
422
330
17
100
AcDbEntity
  8
4
100
AcDbLine
 10
374.5072322411588
 20
1164.374073271882
 30
0.0
 11
374.5072322411588
 21
1066.374073271882
 31
0.0
  0
LINE
  5
423
330
17
100
AcDbEntity
  8
4
100
AcDbLine
 10
422.5072322411588
 20
1164.374073271882
 30
0.0
 11
421.5072322411588
 21
1165.374073271882
 31
0.0
  0
ARC
  5
424
330
17
100
AcDbEntity
  8
4
100
AcDbCircle
 10
423.5072322411588
 20
1066.374073271881
 30
0.0
 40
1.0
100
AcDbArc
 50
180.0
 51
270.0
  0
LINE
  5
425
330
17
100
AcDbEntity
  8
4
100
AcDbLine
 10
422.5072322411588
 20
1164.374073271882
 30
0.0
 11
422.5072322411588
 21
1066.374073271881
 31
0.0
  0
LINE
  5
426
330
17
100
AcDbEntity
  8
4
100
AcDbLine
 10
373.5072322411588
 20
1065.374073271882
 30
0.0
 11
423.5072322411588
 21
1065.374073271882
 31
0.0
  0
ARC
  5
427
330
17
100
AcDbEntity
  8
4
100
AcDbCircle
 10
398.5072322411588
 20
1081.374073271882
 30
0.0
 40
6.0
100
AcDbArc
 50
270.0
 51
0.0
  0
LINE
  5
428
330
17
100
AcDbEntity
  8
4
100
AcDbLine
 10
404.5072322411588
 20
1164.374073271882
 30
0.0
 11
422.5072322411588
 21
1164.374073271882
 31
0.0
  0
LINE
  5
429
330
17
100
AcDbEntity
  8
4
100
AcDbLine
 10
375.5072322411588
 20
1165.374073271882
 30
0.0
 11
421.5072322411588
 21
1165.374073271882
 31
0.0
  0
LINE
  5
42A
330
17
100
AcDbEntity
  8
4
100
AcDbLine
 10
684.1307595656876
 20
902.8740732718816
 30
0.0
 11
672.1307595656876
 21
902.8740732718816
 31
0.0
  0
LINE
  5
42B
330
17
100
AcDbEntity
  8
4
100
AcDbLine
 10
684.1307595656876
 20
937.8740732718816
 30
0.0
 11
672.1307595656876
 21
937.8740732718816
 31
0.0
  0
LINE
  5
42C
330
17
100
AcDbEntity
  8
4
100
AcDbLine
 10
743.1307595656876
 20
933.8740732718816
 30
0.0
 11
744.1307595656876
 21
932.8740732718816
 31
0.0
  0
LINE
  5
42D
330
17
100
AcDbEntity
  8
4
100
AcDbLine
 10
743.1307595656876
 20
933.8740732718816
 30
0.0
 11
743.1307595656876
 21
923.8740732718816
 31
0.0
  0
LINE
  5
42E
330
17
100
AcDbEntity
  8
4
100
AcDbLine
 10
744.1307595656876
 20
907.8740732718816
 30
0.0
 11
743.1307595656876
 21
906.8740732718816
 31
0.0
  0
LINE
  5
42F
330
17
100
AcDbEntity
  8
4
100
AcDbLine
 10
743.1307595656876
 20
916.8740732718816
 30
0.0
 11
743.1307595656876
 21
906.8740732718816
 31
0.0
  0
LINE
  5
430
330
17
100
AcDbEntity
  8
4
100
AcDbLine
 10
744.1307595656876
 20
932.8740732718816
 30
0.0
 11
744.1307595656876
 21
907.8740732718816
 31
0.0
  0
ARC
  5
431
330
17
100
AcDbEntity
  8
4
100
AcDbCircle
 10
692.6307595656876
 20
920.3740732718816
 30
0.0
 40
3.5
100
AcDbArc
 50
90.0
 51
180.0
  0
ARC
  5
432
330
17
100
AcDbEntity
  8
4
100
AcDbCircle
 10
692.6307595656876
 20
920.3740732718816
 30
0.0
 40
3.5
100
AcDbArc
 50
180.0
 51
270.0
  0
LINE
  5
433
330
17
100
AcDbEntity
  8
4
100
AcDbLine
 10
689.1307595656876
 20
920.3740732718816
 30
0.0
 11
689.1307595656876
 21
920.3740732718816
 31
0.0
  0
ARC
  5
434
330
17
100
AcDbEntity
  8
4
100
AcDbCircle
 10
685.6307595656876
 20
935.3740732718816
 30
0.0
 40
1.5
100
AcDbArc
 50
180.0
 51
270.0
  0
ARC
  5
435
330
17
100
AcDbEntity
  8
4
100
AcDbCircle
 10
685.6307595656876
 20
905.3740732718816
 30
0.0
 40
1.5
100
AcDbArc
 50
90.0
 51
180.0
  0
LINE
  5
436
330
17
100
AcDbEntity
  8
4
100
AcDbLine
 10
684.1307595656876
 20
902.8740732718816
 30
0.0
 11
684.1307595656876
 21
937.8740732718816
 31
0.0
  0
LINE
  5
437
330
17
100
AcDbEntity
  8
4
100
AcDbLine
 10
744.1307595656876
 20
923.8740732718816
 30
0.0
 11
692.6307595656876
 21
923.8740732718816
 31
0.0
  0
LINE
  5
438
330
17
100
AcDbEntity
  8
4
100
AcDbLine
 10
744.1307595656876
 20
916.8740732718816
 30
0.0
 11
692.6307595656876
 21
916.8740732718816
 31
0.0
  0
LINE
  5
439
330
17
100
AcDbEntity
  8
4
100
AcDbLine
 10
685.6307595656876
 20
906.8740732718816
 30
0.0
 11
743.1307595656876
 21
906.8740732718816
 31
0.0
  0
LINE
  5
43A
330
17
100
AcDbEntity
  8
4
100
AcDbLine
 10
685.6307595656876
 20
933.8740732718816
 30
0.0
 11
743.1307595656876
 21
933.8740732718816
 31
0.0
  0
LINE
  5
43B
330
17
100
AcDbEntity
  8
4
100
AcDbLine
 10
671.1307595656876
 20
956.3740732718816
 30
0.0
 11
672.1307595656876
 21
956.3740732718816
 31
0.0
  0
LINE
  5
43C
330
17
100
AcDbEntity
  8
4
100
AcDbLine
 10
671.1307595656876
 20
884.3740732718816
 30
0.0
 11
672.1307595656876
 21
884.3740732718816
 31
0.0
  0
LINE
  5
43D
330
17
100
AcDbEntity
  8
4
100
AcDbLine
 10
672.1307595656876
 20
956.3740732718816
 30
0.0
 11
672.1307595656876
 21
884.3740732718816
 31
0.0
  0
LINE
  5
43E
330
17
100
AcDbEntity
  8
4
100
AcDbLine
 10
239.1307595656876
 20
956.3740732718816
 30
0.0
 11
238.1307595656876
 21
956.3740732718816
 31
0.0
  0
LINE
  5
43F
330
17
100
AcDbEntity
  8
4
100
AcDbLine
 10
239.1307595656876
 20
884.3740732718816
 30
0.0
 11
238.1307595656876
 21
884.3740732718816
 31
0.0
  0
LINE
  5
440
330
17
100
AcDbEntity
  8
4
100
AcDbLine
 10
238.1307595656876
 20
956.3740732718816
 30
0.0
 11
238.1307595656876
 21
884.3740732718816
 31
0.0
  0
LINE
  5
441
330
17
100
AcDbEntity
  8
L-CENTER
100
AcDbLine
 10
232.2804420303703
 20
920.3740732718816
 30
0.0
 11
747.8082825010597
 21
920.3740732718816
 31
0.0
  0
LINE
  5
442
330
17
100
AcDbEntity
  8
L-CENTER
100
AcDbLine
 10
531.1307595656876
 20
1049.332476765154
 30
0.0
 11
531.1307595656876
 21
846.3013164600793
 31
0.0
  0
LINE
  5
443
330
17
100
AcDbEntity
  8
L-CENTER
100
AcDbLine
 10
398.5072322411588
 20
1172.34185827574
 30
0.0
 11
398.5072322411588
 21
726.4062882680234
 31
0.0
  0
ARC
  5
444
330
17
100
AcDbEntity
  8
4
100
AcDbCircle
 10
647.1307595656876
 20
1027.274073271882
 30
0.0
 40
2.0
100
AcDbArc
 50
0.0
 51
90.0
  0
LINE
  5
445
330
17
100
AcDbEntity
  8
4
100
AcDbLine
 10
649.1307595656872
 20
1027.274073271882
 30
0.0
 11
649.1307595656872
 21
1013.274073271882
 31
0.0
  0
LINE
  5
446
330
17
100
AcDbEntity
  8
4
100
AcDbLine
 10
567.1307595656872
 20
1044.374073271882
 30
0.0
 11
567.1307595656872
 21
1045.374073271883
 31
0.0
  0
LINE
  5
447
330
17
100
AcDbEntity
  8
4
100
AcDbLine
 10
588.6307595656876
 20
1044.374073271883
 30
0.0
 11
588.6307595656876
 21
1036.102027390524
 31
0.0
  0
ARC
  5
448
330
17
100
AcDbEntity
  8
4
100
AcDbCircle
 10
593.6307595656881
 20
1036.102027390524
 30
0.0
 40
5.0
100
AcDbArc
 50
180.0
 51
266.4020465540941
  0
LINE
  5
449
330
17
100
AcDbEntity
  8
4
100
AcDbLine
 10
495.1307595656881
 20
1044.374073271882
 30
0.0
 11
495.1307595656876
 21
1045.374073271882
 31
0.0
  0
LINE
  5
44A
330
17
100
AcDbEntity
  8
4
100
AcDbLine
 10
443.5072322411588
 20
1044.374073271882
 30
0.0
 11
443.5072322411588
 21
1045.374073271882
 31
0.0
  0
LINE
  5
44B
330
17
100
AcDbEntity
  8
4
100
AcDbLine
 10
353.5072322411588
 20
1044.374073271882
 30
0.0
 11
353.5072322411588
 21
1045.374073271882
 31
0.0
  0
ARC
  5
44C
330
17
100
AcDbEntity
  8
4
100
AcDbCircle
 10
323.5072322411588
 20
1036.523637576358
 30
0.0
 40
5.0
100
AcDbArc
 50
273.4190984985325
 51
0.0
  0
LINE
  5
44D
330
17
100
AcDbEntity
  8
4
100
AcDbLine
 10
328.5072322411588
 20
1044.374073271882
 30
0.0
 11
328.5072322411588
 21
1036.523637576358
 31
0.0
  0
ARC
  5
44E
330
17
100
AcDbEntity
  8
4
100
AcDbCircle
 10
263.1307595656881
 20
1027.274073271882
 30
0.0
 40
2.0
100
AcDbArc
 50
90.0
 51
180.0
  0
LINE
  5
44F
330
17
100
AcDbEntity
  8
4
100
AcDbLine
 10
261.1307595656876
 20
1027.274073271882
 30
0.0
 11
261.1307595656876
 21
1013.274073271882
 31
0.0
  0
LINE
  5
450
330
17
100
AcDbEntity
  8
4
100
AcDbLine
 10
353.5072322411588
 20
1045.374073271882
 30
0.0
 11
443.5072322411588
 21
1045.374073271882
 31
0.0
  0
LINE
  5
451
330
17
100
AcDbEntity
  8
4
100
AcDbLine
 10
328.5072322411588
 20
1044.374073271882
 30
0.0
 11
588.6307595656876
 21
1044.374073271883
 31
0.0
  0
LINE
  5
452
330
17
100
AcDbEntity
  8
4
100
AcDbLine
 10
263.1307595656876
 20
1029.274073271882
 30
0.0
 11
647.1307595656876
 21
1029.274073271882
 31
0.0
  0
LINE
  5
453
330
17
100
AcDbEntity
  8
4
100
AcDbLine
 10
261.1307595656876
 20
1013.274073271882
 30
0.0
 11
649.1307595656872
 21
1013.274073271882
 31
0.0
  0
ARC
  5
454
330
17
100
AcDbEntity
  8
4
100
AcDbCircle
 10
455.1307595656881
 20
-1166.547910752168
 30
0.0
 40
2202.0
100
AcDbArc
 50
85.70705743473252
 51
87.34984205566417
  0
ARC
  5
455
330
17
100
AcDbEntity
  8
4
100
AcDbCircle
 10
455.1307595656881
 20
-1166.547910752168
 30
0.0
 40
2200.0
100
AcDbArc
 50
86.46833019232822
 51
87.3474310992189
  0
LINE
  5
456
330
17
100
AcDbEntity
  8
4
100
AcDbLine
 10
495.1307595656876
 20
1045.374073271882
 30
0.0
 11
567.1307595656872
 21
1045.374073271882
 31
0.0
  0
LINE
  5
457
330
17
100
AcDbEntity
  8
4
100
AcDbLine
 10
495.1307595656876
 20
853.3740732718813
 30
0.0
 11
567.1307595656876
 21
853.3740732718813
 31
0.0
  0
LINE
  5
458
330
17
100
AcDbEntity
  8
4
100
AcDbLine
 10
353.5072322411588
 20
853.3740732718816
 30
0.0
 11
443.5072322411588
 21
853.3740732718818
 31
0.0
  0
LINE
  5
459
330
17
100
AcDbEntity
  8
L-CENTER
100
AcDbLine
 10
231.1307595656881
 20
949.3740732718816
 30
0.0
 11
681.1307595656872
 21
949.3740732718816
 31
0.0
  0
ARC
  5
45A
330
17
100
AcDbEntity
  8
4
100
AcDbCircle
 10
656.1307595656872
 20
1059.374073271882
 30
0.0
 40
5.0
100
AcDbArc
 50
0.0
 51
90.0
  0
ARC
  5
45B
330
17
100
AcDbEntity
  8
4
100
AcDbCircle
 10
569.5995548751739
 20
1059.374073271882
 30
0.0
 40
5.0
100
AcDbArc
 50
90.0
 51
159.502659451999
  0
LINE
  5
45C
330
17
100
AcDbEntity
  8
4
100
AcDbLine
 10
656.1307595656872
 20
1064.374073271882
 30
0.0
 11
569.5995548751739
 21
1064.374073271882
 31
0.0
  0
ARC
  5
45D
330
17
100
AcDbEntity
  8
4
100
AcDbCircle
 10
659.1307595656872
 20
1008.874073271882
 30
0.0
 40
2.0
100
AcDbArc
 50
0.0
 51
90.0
  0
LINE
  5
45E
330
17
100
AcDbEntity
  8
4
100
AcDbLine
 10
649.1307595656876
 20
1012.874073271882
 30
0.0
 11
649.1307595656876
 21
1010.874073271882
 31
0.0
  0
LINE
  5
45F
330
17
100
AcDbEntity
  8
4
100
AcDbLine
 10
664.1307595656872
 20
968.3740732718816
 30
0.0
 11
671.1307595656876
 21
968.3740732718813
 31
0.0
  0
ARC
  5
460
330
17
100
AcDbEntity
  8
4
100
AcDbCircle
 10
664.1307595656872
 20
971.3740732718816
 30
0.0
 40
3.0
100
AcDbArc
 50
180.0
 51
270.0
  0
LINE
  5
461
330
17
100
AcDbEntity
  8
L-CENTER
100
AcDbLine
 10
595.1307595656867
 20
1044.374073271882
 30
0.0
 11
635.1307595656895
 21
1044.374073271882
 31
0.0
  0
ARC
  5
462
330
17
100
AcDbEntity
  8
4
100
AcDbCircle
 10
647.1307595656876
 20
875.8740732718811
 30
0.0
 40
2.0
100
AcDbArc
 50
270.0
 51
0.0
  0
LINE
  5
463
330
17
100
AcDbEntity
  8
4
100
AcDbLine
 10
649.1307595656876
 20
875.8740732718811
 30
0.0
 11
649.1307595656876
 21
884.8740732718811
 31
0.0
  0
ARC
  5
464
330
17
100
AcDbEntity
  8
4
100
AcDbCircle
 10
664.1307595656872
 20
869.3740732718816
 30
0.0
 40
3.0
100
AcDbArc
 50
90.0
 51
180.0
  0
ARC
  5
465
330
17
100
AcDbEntity
  8
4
100
AcDbCircle
 10
659.1307595656872
 20
889.8740732718811
 30
0.0
 40
2.0
100
AcDbArc
 50
270.0
 51
0.0
  0
ARC
  5
466
330
17
100
AcDbEntity
  8
4
100
AcDbCircle
 10
652.1307595656876
 20
884.8740732718811
 30
0.0
 40
3.0
100
AcDbArc
 50
90.0
 51
180.0
  0
LINE
  5
467
330
17
100
AcDbEntity
  8
4
100
AcDbLine
 10
625.1307595656876
 20
873.8740732718811
 30
0.0
 11
625.1307595656876
 21
869.8680807956775
 31
0.0
  0
LINE
  5
468
330
17
100
AcDbEntity
  8
4
100
AcDbLine
 10
625.1307595656876
 20
872.3740732718816
 30
0.0
 11
671.1307595656876
 21
872.3740732718816
 31
0.0
  0
LINE
  5
469
330
17
100
AcDbEntity
  8
4
100
AcDbLine
 10
671.1307595656876
 20
872.3740732718816
 30
0.0
 11
671.1307595656876
 21
968.3740732718813
 31
0.0
  0
LINE
  5
46A
330
17
100
AcDbEntity
  8
4
100
AcDbLine
 10
661.1307595656876
 20
889.8740732718811
 30
0.0
 11
661.1307595656872
 21
1059.374073271882
 31
0.0
  0
CIRCLE
  5
46B
330
17
100
AcDbEntity
  8
4
100
AcDbCircle
 10
615.1307595656876
 20
1044.374073271882
 30
0.0
 40
9.0
  0
LINE
  5
46C
330
17
100
AcDbEntity
  8
L-CENTER
100
AcDbLine
 10
615.1307595656876
 20
1064.374073271883
 30
0.0
 11
615.1307595656876
 21
1024.374073271881
 31
0.0
  0
LINE
  5
46D
330
17
100
AcDbEntity
  8
4
100
AcDbLine
 10
559.0279558273696
 20
1045.374073271882
 30
0.0
 11
564.9161126575086
 21
1061.124892792504
 31
0.0
  0
ARC
  5
46E
330
17
100
AcDbEntity
  8
4
100
AcDbCircle
 10
340.6619642562005
 20
1059.374073271882
 30
0.0
 40
5.0
100
AcDbArc
 50
20.49734054800096
 51
90.0
  0
ARC
  5
46F
330
17
100
AcDbEntity
  8
4
100
AcDbCircle
 10
254.1307595656872
 20
1059.374073271882
 30
0.0
 40
5.0
100
AcDbArc
 50
90.0
 51
180.0
  0
LINE
  5
470
330
17
100
AcDbEntity
  8
4
100
AcDbLine
 10
340.6619642562005
 20
1064.374073271882
 30
0.0
 11
254.1307595656872
 21
1064.374073271882
 31
0.0
  0
LINE
  5
471
330
17
100
AcDbEntity
  8
4
100
AcDbLine
 10
261.1307595656876
 20
1012.874073271882
 30
0.0
 11
261.1307595656876
 21
1010.874073271882
 31
0.0
  0
ARC
  5
472
330
17
100
AcDbEntity
  8
4
100
AcDbCircle
 10
251.1307595656881
 20
1008.874073271882
 30
0.0
 40
2.0
100
AcDbArc
 50
90.0
 51
180.0
  0
LINE
  5
473
330
17
100
AcDbEntity
  8
4
100
AcDbLine
 10
251.1307595656881
 20
1010.874073271882
 30
0.0
 11
659.1307595656872
 21
1010.874073271882
 31
0.0
  0
ARC
  5
474
330
17
100
AcDbEntity
  8
4
100
AcDbCircle
 10
246.1307595656876
 20
971.3740732718816
 30
0.0
 40
3.0
100
AcDbArc
 50
270.0
 51
0.0
  0
LINE
  5
475
330
17
100
AcDbEntity
  8
4
100
AcDbLine
 10
246.1307595656876
 20
968.3740732718816
 30
0.0
 11
239.1307595656876
 21
968.3740732718816
 31
0.0
  0
LINE
  5
476
330
17
100
AcDbEntity
  8
4
100
AcDbLine
 10
285.1307595656876
 20
873.8740732718811
 30
0.0
 11
285.1307595656876
 21
869.8680807956775
 31
0.0
  0
ARC
  5
477
330
17
100
AcDbEntity
  8
4
100
AcDbCircle
 10
263.1307595656876
 20
875.8740732718811
 30
0.0
 40
2.0
100
AcDbArc
 50
180.0
 51
270.0
  0
LINE
  5
478
330
17
100
AcDbEntity
  8
4
100
AcDbLine
 10
261.1307595656876
 20
875.8740732718811
 30
0.0
 11
261.1307595656876
 21
884.8740732718811
 31
0.0
  0
LINE
  5
479
330
17
100
AcDbEntity
  8
4
100
AcDbLine
 10
647.1307595656876
 20
873.8740732718811
 30
0.0
 11
263.1307595656876
 21
873.8740732718811
 31
0.0
  0
ARC
  5
47A
330
17
100
AcDbEntity
  8
4
100
AcDbCircle
 10
258.1307595656876
 20
884.8740732718811
 30
0.0
 40
3.0
100
AcDbArc
 50
0.0
 51
90.0
  0
ARC
  5
47B
330
17
100
AcDbEntity
  8
4
100
AcDbCircle
 10
246.1307595656876
 20
869.3740732718816
 30
0.0
 40
3.0
100
AcDbArc
 50
0.0
 51
90.0
  0
ARC
  5
47C
330
17
100
AcDbEntity
  8
4
100
AcDbCircle
 10
251.1307595656881
 20
889.8740732718811
 30
0.0
 40
2.0
100
AcDbArc
 50
180.0
 51
270.0
  0
LINE
  5
47D
330
17
100
AcDbEntity
  8
4
100
AcDbLine
 10
285.1307595656876
 20
872.3740732718816
 30
0.0
 11
239.1307595656876
 21
872.3740732718816
 31
0.0
  0
LINE
  5
47E
330
17
100
AcDbEntity
  8
4
100
AcDbLine
 10
659.1307595656872
 20
887.8740732718809
 30
0.0
 11
251.1307595656881
 21
887.8740732718811
 31
0.0
  0
LINE
  5
47F
330
17
100
AcDbEntity
  8
4
100
AcDbLine
 10
239.1307595656876
 20
872.3740732718816
 30
0.0
 11
239.1307595656876
 21
968.3740732718816
 31
0.0
  0
ARC
  5
480
330
17
100
AcDbEntity
  8
4
100
AcDbCircle
 10
455.1307595656876
 20
3065.296057295931
 30
0.0
 40
2202.0
100
AcDbArc
 50
265.5722142207156
 51
274.4277857792844
  0
LINE
  5
481
330
17
100
AcDbEntity
  8
L-CENTER
100
AcDbLine
 10
315.1307595656885
 20
1044.374073271882
 30
0.0
 11
275.1307595656858
 21
1044.374073271882
 31
0.0
  0
LINE
  5
482
330
17
100
AcDbEntity
  8
4
100
AcDbLine
 10
249.1307595656876
 20
889.8740732718811
 30
0.0
 11
249.1307595656872
 21
1059.374073271882
 31
0.0
  0
CIRCLE
  5
483
330
17
100
AcDbEntity
  8
4
100
AcDbCircle
 10
295.1307595656876
 20
1044.374073271882
 30
0.0
 40
9.0
  0
LINE
  5
484
330
17
100
AcDbEntity
  8
4
100
AcDbLine
 10
351.6073950797058
 20
1044.374073271882
 30
0.0
 11
345.3454064738658
 21
1061.124892792504
 31
0.0
  0
LINE
  5
485
330
17
100
AcDbEntity
  8
L-CENTER
100
AcDbLine
 10
295.1307595656876
 20
1064.374073271883
 30
0.0
 11
295.1307595656876
 21
1024.374073271881
 31
0.0
  0
ARC
  5
486
330
17
100
AcDbEntity
  8
4
100
AcDbCircle
 10
455.1307595656876
 20
3065.296057295931
 30
0.0
 40
2200.0
100
AcDbArc
 50
265.5681809176313
 51
274.4318190823687
  0
LINE
  5
487
330
17
100
AcDbEntity
  8
4
100
AcDbLine
 10
261.1307595656876
 20
1012.874073271882
 30
0.0
 11
649.1307595656876
 21
1012.874073271881
 31
0.0
  0
ARC
  5
488
330
17
100
AcDbEntity
  8
4
100
AcDbCircle
 10
656.1307595656876
 20
839.3740732718816
 30
0.0
 40
5.0
100
AcDbArc
 50
270.0
 51
0.0
  0
LINE
  5
489
330
17
100
AcDbEntity
  8
4
100
AcDbLine
 10
588.6307595656876
 20
862.6461191532403
 30
0.0
 11
588.6307595656876
 21
854.3740732718813
 31
0.0
  0
CIRCLE
  5
48A
330
17
100
AcDbEntity
  8
4
100
AcDbCircle
 10
615.1307595656876
 20
854.3740732718816
 30
0.0
 40
9.0
  0
LINE
  5
48B
330
17
100
AcDbEntity
  8
L-CENTER
100
AcDbLine
 10
595.1307595656872
 20
854.3740732718816
 30
0.0
 11
635.1307595656876
 21
854.3740732718816
 31
0.0
  0
LINE
  5
48C
330
17
100
AcDbEntity
  8
4
100
AcDbLine
 10
567.1307595656872
 20
854.3740732718811
 30
0.0
 11
567.1307595656876
 21
853.3740732718811
 31
0.0
  0
ARC
  5
48D
330
17
100
AcDbEntity
  8
4
100
AcDbCircle
 10
569.5995548751748
 20
839.3740732718816
 30
0.0
 40
5.0
100
AcDbArc
 50
200.4973405480009
 51
270.0
  0
LINE
  5
48E
330
17
100
AcDbEntity
  8
4
100
AcDbLine
 10
559.0279558273705
 20
853.3740732718813
 30
0.0
 11
564.9161126575095
 21
837.6232537512592
 31
0.0
  0
LINE
  5
48F
330
17
100
AcDbEntity
  8
4
100
AcDbLine
 10
495.1307595656876
 20
854.3740732718813
 30
0.0
 11
495.1307595656876
 21
853.3740732718811
 31
0.0
  0
LINE
  5
490
330
17
100
AcDbEntity
  8
4
100
AcDbLine
 10
656.1307595656876
 20
834.3740732718816
 30
0.0
 11
569.5995548751748
 21
834.3740732718816
 31
0.0
  0
LINE
  5
491
330
17
100
AcDbEntity
  8
4
100
AcDbLine
 10
328.5072322411588
 20
862.2245089674052
 30
0.0
 11
328.5072322411588
 21
854.3740732718816
 31
0.0
  0
ARC
  5
492
330
17
100
AcDbEntity
  8
4
100
AcDbCircle
 10
340.6619642562014
 20
839.3740732718818
 30
0.0
 40
5.0
100
AcDbArc
 50
270.0
 51
339.5026594519991
  0
LINE
  5
493
330
17
100
AcDbEntity
  8
4
100
AcDbLine
 10
351.6073950797063
 20
854.3740732718816
 30
0.0
 11
345.3454064738662
 21
837.6232537512594
 31
0.0
  0
ARC
  5
494
330
17
100
AcDbEntity
  8
4
100
AcDbCircle
 10
254.1307595656876
 20
839.3740732718818
 30
0.0
 40
5.0
100
AcDbArc
 50
180.0
 51
270.0
  0
LINE
  5
495
330
17
100
AcDbEntity
  8
L-CENTER
100
AcDbLine
 10
315.1307595656881
 20
854.3740732718816
 30
0.0
 11
275.1307595656876
 21
854.3740732718816
 31
0.0
  0
LINE
  5
496
330
17
100
AcDbEntity
  8
4
100
AcDbLine
 10
340.6619642562014
 20
834.3740732718818
 30
0.0
 11
254.1307595656876
 21
834.3740732718818
 31
0.0
  0
CIRCLE
  5
497
330
17
100
AcDbEntity
  8
4
100
AcDbCircle
 10
295.1307595656876
 20
854.3740732718816
 30
0.0
 40
9.0
  0
LINE
  5
498
330
17
100
AcDbEntity
  8
4
100
AcDbLine
 10
328.5072322411588
 20
854.3740732718816
 30
0.0
 11
588.6307595656876
 21
854.3740732718813
 31
0.0
  0
LINE
  5
499
330
17
100
AcDbEntity
  8
L-CENTER
100
AcDbLine
 10
455.1307595656876
 20
844.3740732718816
 30
0.0
 11
455.1307595656876
 21
1050.4768710622
 31
0.0
  0
LINE
  5
49A
330
17
100
AcDbEntity
  8
4
100
AcDbLine
 10
249.1307595656876
 20
839.3740732718818
 30
0.0
 11
249.1307595656876
 21
869.3740732718816
 31
0.0
  0
LINE
  5
49B
330
17
100
AcDbEntity
  8
L-CENTER
100
AcDbLine
 10
295.1307595656876
 20
834.3740732718813
 30
0.0
 11
295.1307595656876
 21
874.374073271882
 31
0.0
  0
ARC
  5
49C
330
17
100
AcDbEntity
  8
4
100
AcDbCircle
 10
323.5072322411588
 20
862.2245089674052
 30
0.0
 40
5.0
100
AcDbArc
 50
0.0
 51
86.58090150147265
  0
LINE
  5
49D
330
17
100
AcDbEntity
  8
4
100
AcDbLine
 10
353.5072322411588
 20
854.3740732718813
 30
0.0
 11
353.5072322411588
 21
853.3740732718813
 31
0.0
  0
LINE
  5
49E
330
17
100
AcDbEntity
  8
4
100
AcDbLine
 10
443.5072322411588
 20
854.3740732718813
 30
0.0
 11
443.5072322411588
 21
853.3740732718813
 31
0.0
  0
LINE
  5
49F
330
17
100
AcDbEntity
  8
4
100
AcDbLine
 10
661.1307595656876
 20
839.3740732718816
 30
0.0
 11
661.1307595656876
 21
869.3740732718816
 31
0.0
  0
LINE
  5
4A0
330
17
100
AcDbEntity
  8
L-CENTER
100
AcDbLine
 10
615.1307595656876
 20
834.3740732718813
 30
0.0
 11
615.1307595656876
 21
874.374073271882
 31
0.0
  0
ARC
  5
4A1
330
17
100
AcDbEntity
  8
4
100
AcDbCircle
 10
593.6307595656876
 20
862.6461191532403
 30
0.0
 40
5.0
100
AcDbArc
 50
93.59795344590587
 51
180.0
  0
LINE
  5
4D6
330
17
100
AcDbEntity
  8
4
100
AcDbLine
 10
423.5072322411588
 20
833.3740732718816
 30
0.0
 11
423.5072322411588
 21
853.3740732718809
 31
0.0
  0
LINE
  5
4D7
330
17
100
AcDbEntity
  8
4
100
AcDbLine
 10
373.5072322411588
 20
833.3740732718816
 30
0.0
 11
373.5072322411588
 21
853.3740732718811
 31
0.0
  0
LINE
  5
4D8
330
17
100
AcDbEntity
  8
4
100
AcDbLine
 10
374.5072322411588
 20
734.3740732718816
 30
0.0
 11
375.5072322411588
 21
733.3740732718816
 31
0.0
  0
POINT
  5
4D9
330
17
100
AcDbEntity
  8
Defpoints
  6
ByBlock
 62
     0
100
AcDbPoint
 10
375.5072322411588
 20
733.3740732718816
 30
0.0
  0
LINE
  5
4DA
330
17
100
AcDbEntity
  8
4
100
AcDbLine
 10
374.5072322411588
 20
734.3740732718816
 30
0.0
 11
392.5072322411588
 21
734.3740732718816
 31
0.0
  0
ARC
  5
4DB
330
17
100
AcDbEntity
  8
4
100
AcDbCircle
 10
398.5072322411588
 20
817.3740732718813
 30
0.0
 40
6.0
100
AcDbArc
 50
90.0
 51
180.0
  0
LINE
  5
4DC
330
17
100
AcDbEntity
  8
4
100
AcDbLine
 10
398.5072322411588
 20
823.3740732718816
 30
0.0
 11
398.5072322411588
 21
823.3740732718816
 31
0.0
  0
ARC
  5
4DD
330
17
100
AcDbEntity
  8
4
100
AcDbCircle
 10
373.5072322411588
 20
832.3740732718813
 30
0.0
 40
1.0
100
AcDbArc
 50
0.0
 51
90.0
  0
LINE
  5
4DE
330
17
100
AcDbEntity
  8
4
100
AcDbLine
 10
404.5072322411588
 20
817.3740732718816
 30
0.0
 11
404.5072322411588
 21
733.3740732718816
 31
0.0
  0
LINE
  5
4DF
330
17
100
AcDbEntity
  8
4
100
AcDbLine
 10
392.5072322411588
 20
817.3740732718816
 30
0.0
 11
392.5072322411588
 21
733.3740732718816
 31
0.0
  0
LINE
  5
4E0
330
17
100
AcDbEntity
  8
4
100
AcDbLine
 10
374.5072322411588
 20
734.3740732718816
 30
0.0
 11
374.5072322411588
 21
832.3740732718816
 31
0.0
  0
LINE
  5
4E1
330
17
100
AcDbEntity
  8
4
100
AcDbLine
 10
422.5072322411588
 20
734.3740732718816
 30
0.0
 11
421.5072322411588
 21
733.3740732718816
 31
0.0
  0
ARC
  5
4E2
330
17
100
AcDbEntity
  8
4
100
AcDbCircle
 10
423.5072322411588
 20
832.3740732718818
 30
0.0
 40
1.0
100
AcDbArc
 50
90.0
 51
180.0
  0
LINE
  5
4E3
330
17
100
AcDbEntity
  8
4
100
AcDbLine
 10
422.5072322411588
 20
734.3740732718816
 30
0.0
 11
422.5072322411588
 21
832.374073271882
 31
0.0
  0
LINE
  5
4E4
330
17
100
AcDbEntity
  8
4
100
AcDbLine
 10
373.5072322411588
 20
833.3740732718816
 30
0.0
 11
423.5072322411588
 21
833.3740732718816
 31
0.0
  0
ARC
  5
4E5
330
17
100
AcDbEntity
  8
4
100
AcDbCircle
 10
398.5072322411588
 20
817.3740732718813
 30
0.0
 40
6.0
100
AcDbArc
 50
0.0
 51
90.0
  0
LINE
  5
4E6
330
17
100
AcDbEntity
  8
4
100
AcDbLine
 10
404.5072322411588
 20
734.3740732718816
 30
0.0
 11
422.5072322411588
 21
734.3740732718816
 31
0.0
  0
LINE
  5
4E7
330
17
100
AcDbEntity
  8
4
100
AcDbLine
 10
375.5072322411588
 20
733.3740732718816
 30
0.0
 11
421.5072322411588
 21
733.3740732718816
 31
0.0
  0
ARC
  5
4E9
330
17
100
AcDbEntity
  8
4
100
AcDbCircle
 10
398.5079555656876
 20
262.8555597887821
 30
0.0
 40
23.999948
100
AcDbArc
 50
104.4775439999999
 51
75.52242399999983
  0
LINE
  5
4EA
330
17
100
AcDbEntity
  8
4
100
AcDbLine
 10
392.5079555656876
 20
290.3555597887821
 30
0.0
 11
404.5079555656876
 21
290.3555597887821
 31
0.0
  0
LINE
  5
4EB
330
17
100
AcDbEntity
  8
4
100
AcDbLine
 10
404.5079555656876
 20
282.3555597887821
 30
0.0
 11
392.5079555656876
 21
282.3555597887821
 31
0.0
  0
LINE
  5
4EC
330
17
100
AcDbEntity
  8
4
100
AcDbLine
 10
392.5079555656876
 20
290.3555597887821
 30
0.0
 11
392.5079555656876
 21
282.3555597887821
 31
0.0
  0
LINE
  5
4ED
330
17
100
AcDbEntity
  8
4
100
AcDbLine
 10
404.5079555656876
 20
290.3555597887821
 30
0.0
 11
404.5079555656876
 21
282.3555597887821
 31
0.0
  0
LINE
  5
4F0
330
17
100
AcDbEntity
  8
4
100
AcDbLine
 10
861.1721448439841
 20
286.8555597887821
 30
0.0
 11
861.1721448439841
 21
238.8555597887821
 31
0.0
  0
LINE
  5
4F1
330
17
100
AcDbEntity
  8
4
100
AcDbLine
 10
860.1721448439841
 20
290.3555597887821
 30
0.0
 11
860.1721448439841
 21
239.8555597887821
 31
0.0
  0
LINE
  5
4F2
330
17
100
AcDbEntity
  8
4
100
AcDbLine
 10
960.1721448439841
 20
287.8555597887821
 30
0.0
 11
960.1721448439841
 21
237.8555597887821
 31
0.0
  0
LINE
  5
4F3
330
17
100
AcDbEntity
  8
4
100
AcDbLine
 10
960.1721448439841
 20
238.8555597887821
 30
0.0
 11
861.1721448439841
 21
238.8555597887821
 31
0.0
  0
LINE
  5
4F4
330
17
100
AcDbEntity
  8
4
100
AcDbLine
 10
980.1721448439841
 20
237.8555597887821
 30
0.0
 11
960.1721448439841
 21
237.8555597887821
 31
0.0
  0
LINE
  5
4F5
330
17
100
AcDbEntity
  8
4
100
AcDbLine
 10
861.1721448439841
 20
238.8555597887821
 30
0.0
 11
860.1721448439841
 21
239.8555597887821
 31
0.0
  0
LINE
  5
4F6
330
17
100
AcDbEntity
  8
4
100
AcDbLine
 10
860.1721448439841
 20
290.3555597887821
 30
0.0
 11
950.1721448439841
 21
290.3555597887821
 31
0.0
  0
LINE
  5
4F7
330
17
100
AcDbEntity
  8
4
100
AcDbLine
 10
960.1721448439841
 20
286.8555597887821
 30
0.0
 11
861.1721448439841
 21
286.8555597887821
 31
0.0
  0
LINE
  5
4F8
330
17
100
AcDbEntity
  8
4
100
AcDbLine
 10
960.1721448439841
 20
287.8555597887821
 30
0.0
 11
980.1721448439841
 21
287.8555597887821
 31
0.0
  0
LINE
  5
4F9
330
17
100
AcDbEntity
  8
4
100
AcDbLine
 10
950.1721448439841
 20
290.3555597887821
 30
0.0
 11
950.1721448439841
 21
286.8555597887821
 31
0.0
  0
LINE
  5
4FA
330
17
100
AcDbEntity
  8
4
100
AcDbLine
 10
860.1721448439841
 20
285.8555597887821
 30
0.0
 11
861.1721448439841
 21
286.8555597887821
 31
0.0
  0
ENDSEC
  0
SECTION
  2
OBJECTS
  0
DICTIONARY
  5
5
330
0
100
AcDbDictionary
281
     1
  3
ACAD_COLOR
350
29
  3
ACAD_GROUP
350
27
  3
ACAD_LAYOUT
350
1E
  3
ACAD_MATERIAL
350
7
  3
ACAD_MLEADERSTYLE
350
4B6
  3
ACAD_MLINESTYLE
350
15
  3
ACAD_PLOTSETTINGS
350
28
  3
ACAD_PLOTSTYLENAME
350
4
  3
ACAD_SCALELIST
350
2D
  3
ACAD_TABLESTYLE
350
4B5
  3
ACAD_VISUALSTYLE
350
2A
  3
ACDBHEADERROUNDTRIPXREC
350
564
  3
AcDbVariableDictionary
350
4B3
  3
DWGPROPS
350
567
  0
DICTIONARY
  5
568
330
26
100
AcDbDictionary
280
     1
281
     1
  3
ACAD_XREC_ROUNDTRIP
360
569
  0
DICTIONARY
  5
18
330
17
100
AcDbDictionary
280
     1
281
     1
  3
ACAD_SORTENTS
360
19
  0
DICTIONARY
  5
29
102
{ACAD_REACTORS
330
5
102
}
330
5
100
AcDbDictionary
281
     1
  0
DICTIONARY
  5
27
102
{ACAD_REACTORS
330
5
102
}
330
5
100
AcDbDictionary
281
     1
  0
DICTIONARY
  5
1E
102
{ACAD_REACTORS
330
5
102
}
330
5
100
AcDbDictionary
281
     1
  3
Model
350
1D
  3
ﾚｲｱｳﾄ1
350
23
  0
DICTIONARY
  5
7
102
{ACAD_REACTORS
330
5
102
}
330
5
100
AcDbDictionary
281
     1
  3
ByBlock
350
70
  3
ByLayer
350
10
  3
Global
350
6
  0
DICTIONARY
  5
4B6
102
{ACAD_REACTORS
330
5
102
}
330
5
100
AcDbDictionary
281
     1
  3
Standard
350
4D1
  0
DICTIONARY
  5
15
102
{ACAD_REACTORS
330
5
102
}
330
5
100
AcDbDictionary
281
     1
  3
STANDARD
350
14
  0
DICTIONARY
  5
28
102
{ACAD_REACTORS
330
5
102
}
330
5
100
AcDbDictionary
281
     1
  0
ACDBDICTIONARYWDFLT
  5
4
102
{ACAD_REACTORS
330
5
102
}
330
5
100
AcDbDictionary
281
     1
  3
Normal
350
3
100
AcDbDictionaryWithDefault
340
3
  0
DICTIONARY
  5
2D
102
{ACAD_REACTORS
330
5
102
}
330
5
100
AcDbDictionary
281
     1
  3
*A1
350
4F
  3
*A10
350
58
  3
*A11
350
59
  3
*A12
350
5A
  3
*A13
350
5B
  3
*A14
350
5C
  3
*A15
350
5D
  3
*A16
350
5E
  3
*A17
350
5F
  3
*A18
350
60
  3
*A19
350
61
  3
*A2
350
50
  3
*A20
350
62
  3
*A21
350
63
  3
*A22
350
64
  3
*A23
350
65
  3
*A24
350
66
  3
*A25
350
67
  3
*A26
350
68
  3
*A27
350
69
  3
*A28
350
6A
  3
*A29
350
6B
  3
*A3
350
51
  3
*A30
350
6C
  3
*A31
350
6D
  3
*A32
350
6E
  3
*A33
350
6F
  3
*A4
350
52
  3
*A5
350
53
  3
*A6
350
54
  3
*A7
350
55
  3
*A8
350
56
  3
*A9
350
57
  0
DICTIONARY
  5
4B5
102
{ACAD_REACTORS
330
5
102
}
330
5
100
AcDbDictionary
281
     1
  3
Standard
350
520
  0
DICTIONARY
  5
2A
102
{ACAD_REACTORS
330
5
102
}
330
5
100
AcDbDictionary
281
     1
  3
2dWireframe
350
4BD
  3
Basic
350
4C0
  3
Brighten
350
4C4
  3
ColorChange
350
4C8
  3
Conceptual
350
4C2
  3
Dim
350
4C3
  3
EdgeColorOff
350
4CB
  3
Facepattern
350
4C7
  3
Flat
350
4B9
  3
FlatWithEdges
350
4BA
  3
Gouraud
350
4BB
  3
GouraudWithEdges
350
4BC
  3
Hidden
350
4BF
  3
JitterOff
350
4C9
  3
Linepattern
350
4C6
  3
OverhangOff
350
4CA
  3
Realistic
350
4C1
  3
Shaded
350
4D0
  3
Shaded with edges
350
4CF
  3
Shades of Gray
350
4CC
  3
Sketchy
350
4CD
  3
Thicken
350
4C5
  3
Wireframe
350
4BE
  3
X-Ray
350
4CE
  0
DICTIONARY
  5
564
102
{ACAD_REACTORS
330
5
102
}
330
5
100
AcDbDictionary
281
     1
  3
COLORDICT
350
565
  3
MATERIALDICT
350
566
  0
DICTIONARY
  5
4B3
102
{ACAD_REACTORS
330
5
102
}
330
5
100
AcDbDictionary
281
     1
  3
CANNOSCALE
350
4B4
  3
CMLEADERSTYLE
350
4D3
  3
CTABLESTYLE
350
521
  3
DIMASSOC
350
522
  3
HIDETEXT
350
524
  3
MSLTSCALE
350
52B
  3
XCLIPFRAME
350
523
  0
XRECORD
  5
567
102
{ACAD_REACTORS
330
5
102
}
330
5
100
AcDbXrecord
280
     1
  1
DWGPROPS COOKIE
  2

  3

  4

  6

  7

  8
sg-d03
  9

300
=
301
=
302
=
303
=
304
=
305
=
306
=
307
=
308
=
309
=
 40
0.0
 41
2457161.078607801
 42
2458109.118693368
  1

 90
        0
  0
XRECORD
  5
569
102
{ACAD_REACTORS
330
568
102
}
330
568
100
AcDbXrecord
280
     1
102
VTR_0.000_0.000_1.000_1.000_GRIDDISPLAY
 70
     3
102
VTR_0.000_0.000_1.000_1.000_GRIDMAJOR
 70
     5
102
VTR_0.000_0.000_1.000_1.000_DEFAULTLIGHTING
280
     1
102
VTR_0.000_0.000_1.000_1.000_DEFAULTLIGHTINGTYPE
 70
     1
102
VTR_0.000_0.000_1.000_1.000_BRIGHTNESS
141
0.0
102
VTR_0.000_0.000_1.000_1.000_CONTRAST
142
0.0
  0
SORTENTSTABLE
  5
19
102
{ACAD_REACTORS
330
18
102
}
330
18
100
AcDbSortentsTable
330
17
  0
LAYOUT
  5
1D
102
{ACAD_REACTORS
330
1E
102
}
330
1E
100
AcDbPlotSettings
  1

  2
Brother MFC-J6973CDW Printer
  4
A3
  6

 40
2.9
 41
3.0
 42
2.9
 43
2.9
 44
296.8
 45
419.9
 46
10.0
 47
25.0
 48
79.99999987333331
 49
0.0
140
1607.999996373333
141
1089.999997456666
142
1.0
143
4.0
 70
 11936
 72
     1
 73
     3
 74
     4
  7
monochrome.ctb
 75
    18
147
0.25
148
-79.99999987333331
149
0.0
100
AcDbLayout
  1
Model
 70
     0
 71
     0
 10
0.0
 20
0.0
 11
12.0
 21
9.0
 12
0.0
 22
0.0
 32
0.0
 14
231.1307595656881
 24
15.80702746972452
 34
0.0
 15
1299.139929847842
 25
1172.34185827574
 35
0.0
146
0.0
 13
0.0
 23
0.0
 33
0.0
 16
1.0
 26
0.0
 36
0.0
 17
0.0
 27
1.0
 37
0.0
 76
     0
330
17
331
2B
1001
ACAD_PSEXT
1000
Brother MFC-J6973CDW Printer
1000
Brother MFC-J6973CDW Printer
1000
WSD-bb6f4dc8-7bce-4547-b5cd-9cd218bb8f72.0069
1000

1070
     0
  0
LAYOUT
  5
23
102
{ACAD_REACTORS
330
1E
102
}
330
1E
100
AcDbPlotSettings
  1

  2
SR-LP8300F
  4

  6

 40
0.0
 41
0.0
 42
0.0
 43
0.0
 44
0.0
 45
0.0
 46
0.0
 47
0.0
 48
0.0
 49
0.0
140
0.0
141
0.0
142
1.0
143
1.0
 70
   688
 72
     0
 73
     0
 74
     5
  7
monochrome.ctb
 75
    16
147
1.0
148
0.0
149
0.0
100
AcDbLayout
  1
ﾚｲｱｳﾄ1
 70
     0
 71
     1
 10
0.0
 20
0.0
 11
12.0
 21
9.0
 12
0.0
 22
0.0
 32
0.0
 14
1000000000000000E+20
 24
1000000000000000E+20
 34
1000000000000000E+20
 15
-1000000000000000E+20
 25
-1000000000000000E+20
 35
-1000000000000000E+20
146
0.0
 13
0.0
 23
0.0
 33
0.0
 16
1.0
 26
0.0
 36
0.0
 17
0.0
 27
1.0
 37
0.0
 76
     0
330
20
  0
MATERIAL
  5
70
102
{ACAD_REACTORS
330
7
102
}
102
{ACAD_XDICTIONARY
360
56E
102
}
330
7
100
AcDbMaterial
  1
ByBlock
  0
MATERIAL
  5
10
102
{ACAD_REACTORS
330
7
102
}
102
{ACAD_XDICTIONARY
360
56A
102
}
330
7
100
AcDbMaterial
  1
ByLayer
  0
MATERIAL
  5
6
102
{ACAD_REACTORS
330
7
102
}
102
{ACAD_XDICTIONARY
360
56C
102
}
330
7
100
AcDbMaterial
  1
Global
1001
ACAD
1070
    -1
1070
     3
1070
     0
1000

1071
        0
  0
MLEADERSTYLE
  5
4D1
102
{ACAD_REACTORS
330
4B6
102
}
102
{ACAD_XDICTIONARY
360
5A0
102
}
330
4B6
100
AcDbMLeaderStyle
170
     2
171
     1
172
     0
 90
        2
 40
0.0
 41
0.0
173
     1
 91
-1056964608
340
D
 92
       -2
290
     1
 42
0.09
291
     1
 43
0.36
  3
Standard
341
0
 44
0.18
300

342
E
174
     1
178
     6
175
     1
176
     0
 93
-1056964608
 45
0.18
292
     0
297
     0
 46
0.18
343
0
 94
-1056964608
 47
1.0
 49
1.0
140
1.0
293
     1
141
0.0
294
     1
177
     0
142
1.0
295
     0
296
     0
143
0.125
1001
ACAD_MLEADERVER
1070
     2
  0
MLINESTYLE
  5
14
102
{ACAD_REACTORS
330
15
102
}
330
15
100
AcDbMlineStyle
  2
STANDARD
 70
     0
  3

 62
     0
 51
90.0
 52
90.0
 71
     2
 49
0.5
 62
   256
  6
BYLAYER
 49
-0.5
 62
   256
  6
BYLAYER
  0
ACDBPLACEHOLDER
  5
3
102
{ACAD_REACTORS
330
4
102
}
330
4
  0
SCALE
  5
4F
102
{ACAD_REACTORS
330
2D
102
}
330
2D
100
AcDbScale
 70
     0
300
1:1
140
1.0
141
1.0
290
     1
  0
SCALE
  5
58
102
{ACAD_REACTORS
330
2D
102
}
330
2D
100
AcDbScale
 70
     0
300
1:40
140
1.0
141
40.0
290
     0
  0
SCALE
  5
59
102
{ACAD_REACTORS
330
2D
102
}
330
2D
100
AcDbScale
 70
     0
300
1:50
140
1.0
141
50.0
290
     0
  0
SCALE
  5
5A
102
{ACAD_REACTORS
330
2D
102
}
330
2D
100
AcDbScale
 70
     0
300
1:100
140
1.0
141
100.0
290
     0
  0
SCALE
  5
5B
102
{ACAD_REACTORS
330
2D
102
}
330
2D
100
AcDbScale
 70
     0
300
2:1
140
2.0
141
1.0
290
     0
  0
SCALE
  5
5C
102
{ACAD_REACTORS
330
2D
102
}
330
2D
100
AcDbScale
 70
     0
300
4:1
140
4.0
141
1.0
290
     0
  0
SCALE
  5
5D
102
{ACAD_REACTORS
330
2D
102
}
330
2D
100
AcDbScale
 70
     0
300
8:1
140
8.0
141
1.0
290
     0
  0
SCALE
  5
5E
102
{ACAD_REACTORS
330
2D
102
}
330
2D
100
AcDbScale
 70
     0
300
10:1
140
10.0
141
1.0
290
     0
  0
SCALE
  5
5F
102
{ACAD_REACTORS
330
2D
102
}
330
2D
100
AcDbScale
 70
     0
300
100:1
140
100.0
141
1.0
290
     0
  0
SCALE
  5
60
102
{ACAD_REACTORS
330
2D
102
}
330
2D
100
AcDbScale
 70
     0
300
1/128" = 1'-0"
140
0.0078125
141
12.0
290
     0
  0
SCALE
  5
61
102
{ACAD_REACTORS
330
2D
102
}
330
2D
100
AcDbScale
 70
     0
300
1/64" = 1'-0"
140
0.015625
141
12.0
290
     0
  0
SCALE
  5
50
102
{ACAD_REACTORS
330
2D
102
}
330
2D
100
AcDbScale
 70
     0
300
1:2
140
1.0
141
2.0
290
     0
  0
SCALE
  5
62
102
{ACAD_REACTORS
330
2D
102
}
330
2D
100
AcDbScale
 70
     0
300
1/32" = 1'-0"
140
0.03125
141
12.0
290
     0
  0
SCALE
  5
63
102
{ACAD_REACTORS
330
2D
102
}
330
2D
100
AcDbScale
 70
     0
300
1/16" = 1'-0"
140
0.0625
141
12.0
290
     0
  0
SCALE
  5
64
102
{ACAD_REACTORS
330
2D
102
}
330
2D
100
AcDbScale
 70
     0
300
3/32" = 1'-0"
140
0.09375
141
12.0
290
     0
  0
SCALE
  5
65
102
{ACAD_REACTORS
330
2D
102
}
330
2D
100
AcDbScale
 70
     0
300
1/8" = 1'-0"
140
0.125
141
12.0
290
     0
  0
SCALE
  5
66
102
{ACAD_REACTORS
330
2D
102
}
330
2D
100
AcDbScale
 70
     0
300
3/16" = 1'-0"
140
0.1875
141
12.0
290
     0
  0
SCALE
  5
67
102
{ACAD_REACTORS
330
2D
102
}
330
2D
100
AcDbScale
 70
     0
300
1/4" = 1'-0"
140
0.25
141
12.0
290
     0
  0
SCALE
  5
68
102
{ACAD_REACTORS
330
2D
102
}
330
2D
100
AcDbScale
 70
     0
300
3/8" = 1'-0"
140
0.375
141
12.0
290
     0
  0
SCALE
  5
69
102
{ACAD_REACTORS
330
2D
102
}
330
2D
100
AcDbScale
 70
     0
300
1/2" = 1'-0"
140
0.5
141
12.0
290
     0
  0
SCALE
  5
6A
102
{ACAD_REACTORS
330
2D
102
}
330
2D
100
AcDbScale
 70
     0
300
3/4" = 1'-0"
140
0.75
141
12.0
290
     0
  0
SCALE
  5
6B
102
{ACAD_REACTORS
330
2D
102
}
330
2D
100
AcDbScale
 70
     0
300
1" = 1'-0"
140
1.0
141
12.0
290
     0
  0
SCALE
  5
51
102
{ACAD_REACTORS
330
2D
102
}
330
2D
100
AcDbScale
 70
     0
300
1:4
140
1.0
141
4.0
290
     0
  0
SCALE
  5
6C
102
{ACAD_REACTORS
330
2D
102
}
330
2D
100
AcDbScale
 70
     0
300
1-1/2" = 1'-0"
140
1.5
141
12.0
290
     0
  0
SCALE
  5
6D
102
{ACAD_REACTORS
330
2D
102
}
330
2D
100
AcDbScale
 70
     0
300
3" = 1'-0"
140
3.0
141
12.0
290
     0
  0
SCALE
  5
6E
102
{ACAD_REACTORS
330
2D
102
}
330
2D
100
AcDbScale
 70
     0
300
6" = 1'-0"
140
6.0
141
12.0
290
     0
  0
SCALE
  5
6F
102
{ACAD_REACTORS
330
2D
102
}
330
2D
100
AcDbScale
 70
     0
300
1'-0" = 1'-0"
140
12.0
141
12.0
290
     0
  0
SCALE
  5
52
102
{ACAD_REACTORS
330
2D
102
}
330
2D
100
AcDbScale
 70
     0
300
1:5
140
1.0
141
5.0
290
     0
  0
SCALE
  5
53
102
{ACAD_REACTORS
330
2D
102
}
330
2D
100
AcDbScale
 70
     0
300
1:8
140
1.0
141
8.0
290
     0
  0
SCALE
  5
54
102
{ACAD_REACTORS
330
2D
102
}
330
2D
100
AcDbScale
 70
     0
300
1:10
140
1.0
141
10.0
290
     0
  0
SCALE
  5
55
102
{ACAD_REACTORS
330
2D
102
}
330
2D
100
AcDbScale
 70
     0
300
1:16
140
1.0
141
16.0
290
     0
  0
SCALE
  5
56
102
{ACAD_REACTORS
330
2D
102
}
330
2D
100
AcDbScale
 70
     0
300
1:20
140
1.0
141
20.0
290
     0
  0
SCALE
  5
57
102
{ACAD_REACTORS
330
2D
102
}
330
2D
100
AcDbScale
 70
     0
300
1:30
140
1.0
141
30.0
290
     0
  0
TABLESTYLE
  5
520
102
{ACAD_REACTORS
330
4B5
102
}
330
4B5
100
AcDbTableStyle
  3
Standard
 70
     0
 71
     0
 40
0.06
 41
0.06
280
     0
281
     0
  7
STANDARD
140
0.18
170
     2
 62
     0
 63
   257
283
     0
274
    -2
284
     1
 64
     0
275
    -2
285
     1
 65
     0
276
    -2
286
     1
 66
     0
277
    -2
287
     1
 67
     0
278
    -2
288
     1
 68
     0
279
    -2
289
     1
 69
     0
  7
STANDARD
140
0.25
170
     5
 62
     0
 63
   257
283
     0
274
    -2
284
     1
 64
     0
275
    -2
285
     1
 65
     0
276
    -2
286
     1
 66
     0
277
    -2
287
     1
 67
     0
278
    -2
288
     1
 68
     0
279
    -2
289
     1
 69
     0
  7
STANDARD
140
0.18
170
     5
 62
     0
 63
   257
283
     0
274
    -2
284
     1
 64
     0
275
    -2
285
     1
 65
     0
276
    -2
286
     1
 66
     0
277
    -2
287
     1
 67
     0
278
    -2
288
     1
 68
     0
279
    -2
289
     1
 69
     0
  0
VISUALSTYLE
  5
4BD
102
{ACAD_REACTORS
330
2A
102
}
102
{ACAD_XDICTIONARY
360
578
102
}
330
2A
100
AcDbVisualStyle
  2
2dWireframe
 70
     4
 71
     0
 72
     2
 73
     0
 90
        0
 40
0.6
 41
30.0
 62
     5
 63
     7
 74
     1
 91
        4
 64
     7
 65
   257
 75
     1
175
     1
 42
1.0
 92
        0
 66
   257
 43
1.0
 76
     1
 77
     6
 78
     2
 67
     7
 79
     5
170
     0
171
     0
290
     0
174
     0
 93
        1
 44
0.0
173
     0
291
     0
 45
0.0
1001
ACAD
1000
AcDbSavedByObjectVersion
1070
     0
  0
VISUALSTYLE
  5
4C0
102
{ACAD_REACTORS
330
2A
102
}
102
{ACAD_XDICTIONARY
360
57E
102
}
330
2A
100
AcDbVisualStyle
  2
Basic
 70
     7
 71
     1
 72
     0
 73
     1
 90
        0
 40
0.6
 41
30.0
 62
     5
 63
     7
 74
     0
 91
        4
 64
     7
 65
   257
 75
     1
175
     1
 42
1.0
 92
        8
 66
     7
 43
1.0
 76
     1
 77
     6
 78
     2
 67
     7
 79
     5
170
     0
171
     0
290
     0
174
     0
 93
        1
 44
0.0
173
     0
291
     1
 45
0.0
1001
ACAD
1000
AcDbSavedByObjectVersion
1070
     0
  0
VISUALSTYLE
  5
4C4
102
{ACAD_REACTORS
330
2A
102
}
102
{ACAD_XDICTIONARY
360
586
102
}
330
2A
100
AcDbVisualStyle
  2
Brighten
 70
    12
 71
     2
 72
     2
 73
     0
 90
        0
 40
0.6
 41
30.0
 62
     5
 63
     7
 74
     1
 91
        4
 64
     7
 65
   257
 75
     1
175
     1
 42
1.0
 92
        8
 66
     7
 43
1.0
 76
     1
 77
     6
 78
     2
 67
     7
 79
     5
170
     0
171
     0
290
     0
174
     0
 93
        1
 44
50.0
173
     0
291
     1
 45
0.0
1001
ACAD
1000
AcDbSavedByObjectVersion
1070
     0
  0
VISUALSTYLE
  5
4C8
102
{ACAD_REACTORS
330
2A
102
}
102
{ACAD_XDICTIONARY
360
58E
102
}
330
2A
100
AcDbVisualStyle
  2
ColorChange
 70
    16
 71
     2
 72
     2
 73
     3
 90
        0
 40
0.6
 41
30.0
 62
     5
 63
     8
 74
     1
 91
        4
 64
     7
 65
   257
 75
     1
175
     1
 42
1.0
 92
        8
 66
     8
 43
1.0
 76
     1
 77
     6
 78
     2
 67
     7
 79
     5
170
     0
171
     0
290
     0
174
     0
 93
        1
 44
0.0
173
     0
291
     1
 45
0.0
1001
ACAD
1000
AcDbSavedByObjectVersion
1070
     0
  0
VISUALSTYLE
  5
4C2
102
{ACAD_REACTORS
330
2A
102
}
102
{ACAD_XDICTIONARY
360
582
102
}
330
2A
100
AcDbVisualStyle
  2
Conceptual
 70
     9
 71
     3
 72
     2
 73
     0
 90
        0
 40
0.6
 41
30.0
 62
     5
 63
     7
 74
     2
 91
        2
 64
     7
 65
   257
 75
     1
175
     1
 42
40.0
 92
        8
 66
     7
 43
1.0
 76
     1
 77
     6
 78
     2
 67
     7
 79
     3
170
     0
171
     0
290
     0
174
     0
 93
        1
 44
0.0
173
     0
291
     0
 45
0.0
1001
ACAD
1000
AcDbSavedByObjectVersion
1070
     0
  0
VISUALSTYLE
  5
4C3
102
{ACAD_REACTORS
330
2A
102
}
102
{ACAD_XDICTIONARY
360
584
102
}
330
2A
100
AcDbVisualStyle
  2
Dim
 70
    11
 71
     2
 72
     2
 73
     0
 90
        0
 40
0.6
 41
30.0
 62
     5
 63
     7
 74
     1
 91
        4
 64
     7
 65
   257
 75
     1
175
     1
 42
1.0
 92
        8
 66
     7
 43
1.0
 76
     1
 77
     6
 78
     2
 67
     7
 79
     5
170
     0
171
     0
290
     0
174
     0
 93
        1
 44
-50.0
173
     0
291
     1
 45
0.0
1001
ACAD
1000
AcDbSavedByObjectVersion
1070
     0
  0
VISUALSTYLE
  5
4CB
102
{ACAD_REACTORS
330
2A
102
}
102
{ACAD_XDICTIONARY
360
594
102
}
330
2A
100
AcDbVisualStyle
  2
EdgeColorOff
 70
    22
 71
     2
 72
     2
 73
     0
 90
        0
 40
0.6
 41
30.0
 62
     5
 63
     7
 74
     1
 91
        4
 64
     7
 65
   257
 75
     1
175
     1
 42
1.0
 92
        8
 66
     7
 43
1.0
 76
     1
 77
     6
 78
     2
 67
     7
 79
     5
170
     0
171
     0
290
     0
174
     0
 93
        1
 44
0.0
173
     0
291
     1
 45
0.0
1001
ACAD
1000
AcDbSavedByObjectVersion
1070
     0
  0
VISUALSTYLE
  5
4C7
102
{ACAD_REACTORS
330
2A
102
}
102
{ACAD_XDICTIONARY
360
58C
102
}
330
2A
100
AcDbVisualStyle
  2
Facepattern
 70
    15
 71
     2
 72
     2
 73
     0
 90
        0
 40
0.6
 41
30.0
 62
     5
 63
     7
 74
     1
 91
        4
 64
     7
 65
   257
 75
     1
175
     1
 42
1.0
 92
        8
 66
     7
 43
1.0
 76
     1
 77
     6
 78
     2
 67
     7
 79
     5
170
     0
171
     0
290
     0
174
     0
 93
        1
 44
0.0
173
     0
291
     1
 45
0.0
1001
ACAD
1000
AcDbSavedByObjectVersion
1070
     0
  0
VISUALSTYLE
  5
4B9
102
{ACAD_REACTORS
330
2A
102
}
102
{ACAD_XDICTIONARY
360
570
102
}
330
2A
100
AcDbVisualStyle
  2
Flat
 70
     0
 71
     2
 72
     1
 73
     1
 90
        2
 40
0.6
 41
30.0
 62
     5
 63
     7
 74
     0
 91
        4
 64
     7
 65
   257
 75
     1
175
     1
 42
1.0
 92
        8
 66
     7
 43
1.0
 76
     1
 77
     6
 78
     2
 67
     7
 79
     5
170
     0
171
     0
290
     0
174
     0
 93
       13
 44
0.0
173
     0
291
     1
 45
0.0
1001
ACAD
1000
AcDbSavedByObjectVersion
1070
     0
  0
VISUALSTYLE
  5
4BA
102
{ACAD_REACTORS
330
2A
102
}
102
{ACAD_XDICTIONARY
360
572
102
}
330
2A
100
AcDbVisualStyle
  2
FlatWithEdges
 70
     1
 71
     2
 72
     1
 73
     1
 90
        2
 40
0.6
 41
30.0
 62
     5
 63
     7
 74
     1
 91
        4
 64
     7
 65
   257
 75
     1
175
     1
 42
1.0
 92
        0
 66
   257
 43
1.0
 76
     1
 77
     6
 78
     2
 67
     7
 79
     5
170
     0
171
     0
290
     0
174
     0
 93
       13
 44
0.0
173
     0
291
     1
 45
0.0
1001
ACAD
1000
AcDbSavedByObjectVersion
1070
     0
  0
VISUALSTYLE
  5
4BB
102
{ACAD_REACTORS
330
2A
102
}
102
{ACAD_XDICTIONARY
360
574
102
}
330
2A
100
AcDbVisualStyle
  2
Gouraud
 70
     2
 71
     2
 72
     2
 73
     1
 90
        2
 40
0.6
 41
30.0
 62
     5
 63
     7
 74
     0
 91
        4
 64
     7
 65
   257
 75
     1
175
     1
 42
1.0
 92
        0
 66
     7
 43
1.0
 76
     1
 77
     6
 78
     2
 67
     7
 79
     5
170
     0
171
     0
290
     0
174
     0
 93
       13
 44
0.0
173
     0
291
     1
 45
0.0
1001
ACAD
1000
AcDbSavedByObjectVersion
1070
     0
  0
VISUALSTYLE
  5
4BC
102
{ACAD_REACTORS
330
2A
102
}
102
{ACAD_XDICTIONARY
360
576
102
}
330
2A
100
AcDbVisualStyle
  2
GouraudWithEdges
 70
     3
 71
     2
 72
     2
 73
     1
 90
        2
 40
0.6
 41
30.0
 62
     5
 63
     7
 74
     1
 91
        4
 64
     7
 65
   257
 75
     1
175
     1
 42
1.0
 92
        0
 66
   257
 43
1.0
 76
     1
 77
     6
 78
     2
 67
     7
 79
     5
170
     0
171
     0
290
     0
174
     0
 93
       13
 44
0.0
173
     0
291
     1
 45
0.0
1001
ACAD
1000
AcDbSavedByObjectVersion
1070
     0
  0
VISUALSTYLE
  5
4BF
102
{ACAD_REACTORS
330
2A
102
}
102
{ACAD_XDICTIONARY
360
57C
102
}
330
2A
100
AcDbVisualStyle
  2
Hidden
 70
     6
 71
     1
 72
     2
 73
     2
 90
        0
 40
0.6
 41
30.0
 62
     5
 63
     7
 74
     2
 91
        2
 64
     7
 65
   257
 75
     2
175
     1
 42
40.0
 92
        0
 66
   257
 43
1.0
 76
     1
 77
     6
 78
     2
 67
     7
 79
     3
170
     0
171
     0
290
     0
174
     0
 93
        1
 44
0.0
173
     0
291
     0
 45
0.0
1001
ACAD
1000
AcDbSavedByObjectVersion
1070
     0
  0
VISUALSTYLE
  5
4C9
102
{ACAD_REACTORS
330
2A
102
}
102
{ACAD_XDICTIONARY
360
590
102
}
330
2A
100
AcDbVisualStyle
  2
JitterOff
 70
    20
 71
     2
 72
     2
 73
     0
 90
        0
 40
0.6
 41
30.0
 62
     5
 63
     7
 74
     1
 91
        4
 64
     7
 65
   257
 75
     1
175
     1
 42
1.0
 92
       10
 66
     7
 43
1.0
 76
     1
 77
     6
 78
     2
 67
     7
 79
     5
170
     0
171
     0
290
     0
174
     0
 93
        1
 44
0.0
173
     0
291
     1
 45
0.0
1001
ACAD
1000
AcDbSavedByObjectVersion
1070
     0
  0
VISUALSTYLE
  5
4C6
102
{ACAD_REACTORS
330
2A
102
}
102
{ACAD_XDICTIONARY
360
58A
102
}
330
2A
100
AcDbVisualStyle
  2
Linepattern
 70
    14
 71
     2
 72
     2
 73
     0
 90
        0
 40
0.6
 41
30.0
 62
     5
 63
     7
 74
     1
 91
        4
 64
     7
 65
   257
 75
     7
175
     7
 42
1.0
 92
        8
 66
     7
 43
1.0
 76
     1
 77
     6
 78
     2
 67
     7
 79
     5
170
     0
171
     0
290
     0
174
     0
 93
        1
 44
0.0
173
     0
291
     1
 45
0.0
1001
ACAD
1000
AcDbSavedByObjectVersion
1070
     0
  0
VISUALSTYLE
  5
4CA
102
{ACAD_REACTORS
330
2A
102
}
102
{ACAD_XDICTIONARY
360
592
102
}
330
2A
100
AcDbVisualStyle
  2
OverhangOff
 70
    21
 71
     2
 72
     2
 73
     0
 90
        0
 40
0.6
 41
30.0
 62
     5
 63
     7
 74
     1
 91
        4
 64
     7
 65
   257
 75
     1
175
     1
 42
1.0
 92
        9
 66
     7
 43
1.0
 76
     1
 77
     6
 78
     2
 67
     7
 79
     5
170
     0
171
     0
290
     0
174
     0
 93
        1
 44
0.0
173
     0
291
     1
 45
0.0
1001
ACAD
1000
AcDbSavedByObjectVersion
1070
     0
  0
VISUALSTYLE
  5
4C1
102
{ACAD_REACTORS
330
2A
102
}
102
{ACAD_XDICTIONARY
360
580
102
}
330
2A
100
AcDbVisualStyle
  2
Realistic
 70
     8
 71
     2
 72
     3
 73
     0
 90
        2
 40
0.6
 41
30.0
 62
     5
 63
     7
 74
     0
 91
        0
 64
     7
 65
   257
 75
     1
175
     1
 42
1.0
 92
        8
 66
   257
 43
1.0
 76
     1
 77
     6
 78
     2
 67
     7
 79
     3
170
     0
171
     0
290
     0
174
     0
 93
       13
 44
0.0
173
     0
291
     0
 45
0.0
1001
ACAD
1000
AcDbSavedByObjectVersion
1070
     0
  0
VISUALSTYLE
  5
4D0
102
{ACAD_REACTORS
330
2A
102
}
102
{ACAD_XDICTIONARY
360
59E
102
}
330
2A
100
AcDbVisualStyle
  2
Shaded
 70
    27
 71
     2
 72
     2
 73
     1
 90
        2
 40
0.6
 41
30.0
 62
     5
 63
     7
 74
     0
 91
        4
 64
     7
 65
   257
 75
     1
175
     1
 42
1.0
 92
        8
 66
   257
 43
1.0
 76
     1
 77
     6
 78
     2
 67
   251
 79
     3
170
     0
171
     0
290
     0
174
     0
 93
        5
 44
0.0
173
     0
291
     0
 45
0.0
1001
ACAD
1000
AcDbSavedByObjectVersion
1070
     0
  0
VISUALSTYLE
  5
4CF
102
{ACAD_REACTORS
330
2A
102
}
102
{ACAD_XDICTIONARY
360
59C
102
}
330
2A
100
AcDbVisualStyle
  2
Shaded with edges
 70
    26
 71
     2
 72
     2
 73
     1
 90
        2
 40
0.6
 41
30.0
 62
     5
 63
     7
 74
     1
 91
       10
 64
     7
 65
   257
 75
     2
175
     1
 42
1.0
 92
        8
 66
   257
 43
1.0
 76
     1
 77
     6
 78
     2
 67
     7
 79
     3
170
     0
171
     0
290
     0
174
     0
 93
        5
 44
0.0
173
     0
291
     0
 45
0.0
1001
ACAD
1000
AcDbSavedByObjectVersion
1070
     0
  0
VISUALSTYLE
  5
4CC
102
{ACAD_REACTORS
330
2A
102
}
102
{ACAD_XDICTIONARY
360
596
102
}
330
2A
100
AcDbVisualStyle
  2
Shades of Gray
 70
    23
 71
     2
 72
     2
 73
     3
 90
        0
 40
0.6
 41
30.0
 62
     5
 63
     7
 74
     2
 91
        2
 64
     7
 65
     7
 75
     1
175
     1
 42
40.0
 92
        8
 66
     7
 43
1.0
 76
     1
 77
     6
 78
     2
 67
     7
 79
     3
170
     0
171
     0
290
     0
174
     0
 93
        1
 44
0.0
173
     0
291
     0
 45
0.0
1001
ACAD
1000
AcDbSavedByObjectVersion
1070
     0
  0
VISUALSTYLE
  5
4CD
102
{ACAD_REACTORS
330
2A
102
}
102
{ACAD_XDICTIONARY
360
598
102
}
330
2A
100
AcDbVisualStyle
  2
Sketchy
 70
    24
 71
     1
 72
     2
 73
     2
 90
        0
 40
0.6
 41
30.0
 62
     5
 63
     7
 74
     2
 91
        2
 64
     7
 65
     7
 75
     1
175
     1
 42
40.0
 92
       11
 66
     7
 43
1.0
 76
     1
 77
     6
 78
     2
 67
     7
 79
     6
170
     0
171
     0
290
     0
174
     0
 93
        1
 44
0.0
173
     0
291
     0
 45
0.0
1001
ACAD
1000
AcDbSavedByObjectVersion
1070
     0
  0
VISUALSTYLE
  5
4C5
102
{ACAD_REACTORS
330
2A
102
}
102
{ACAD_XDICTIONARY
360
588
102
}
330
2A
100
AcDbVisualStyle
  2
Thicken
 70
    13
 71
     2
 72
     2
 73
     0
 90
        0
 40
0.6
 41
30.0
 62
     5
 63
     7
 74
     1
 91
        4
 64
     7
 65
   257
 75
     1
175
     1
 42
1.0
 92
       12
 66
     7
 43
1.0
 76
     1
 77
     6
 78
     2
 67
     7
 79
     5
170
     0
171
     0
290
     0
174
     0
 93
        1
 44
0.0
173
     0
291
     1
 45
0.0
1001
ACAD
1000
AcDbSavedByObjectVersion
1070
     0
  0
VISUALSTYLE
  5
4BE
102
{ACAD_REACTORS
330
2A
102
}
102
{ACAD_XDICTIONARY
360
57A
102
}
330
2A
100
AcDbVisualStyle
  2
Wireframe
 70
     5
 71
     0
 72
     2
 73
     0
 90
        0
 40
0.6
 41
30.0
 62
     5
 63
     7
 74
     1
 91
        4
 64
     7
 65
   257
 75
     1
175
     1
 42
1.0
 92
        0
 66
   257
 43
1.0
 76
     1
 77
     6
 78
     2
 67
     7
 79
     5
170
     0
171
     0
290
     0
174
     0
 93
        1
 44
0.0
173
     0
291
     0
 45
0.0
1001
ACAD
1000
AcDbSavedByObjectVersion
1070
     0
  0
VISUALSTYLE
  5
4CE
102
{ACAD_REACTORS
330
2A
102
}
102
{ACAD_XDICTIONARY
360
59A
102
}
330
2A
100
AcDbVisualStyle
  2
X-Ray
 70
    25
 71
     2
 72
     2
 73
     1
 90
        1
 40
0.5
 41
30.0
 62
     5
 63
     7
 74
     1
 91
        0
 64
     7
 65
   257
 75
     1
175
     1
 42
1.0
 92
        8
 66
     7
 43
1.0
 76
     1
 77
     6
 78
     2
 67
     7
 79
     3
170
     0
171
     0
290
     0
174
     0
 93
       13
 44
0.0
173
     0
291
     0
 45
0.0
1001
ACAD
1000
AcDbSavedByObjectVersion
1070
     0
  0
XRECORD
  5
565
102
{ACAD_REACTORS
330
564
102
}
330
564
100
AcDbXrecord
280
     1
340
29
  0
XRECORD
  5
566
102
{ACAD_REACTORS
330
564
102
}
330
564
100
AcDbXrecord
280
     1
340
7
  0
DICTIONARYVAR
  5
4B4
102
{ACAD_REACTORS
330
4B3
102
}
330
4B3
100
DictionaryVariables
280
     0
  1
1:1
  0
DICTIONARYVAR
  5
4D3
102
{ACAD_REACTORS
330
4B3
102
}
330
4B3
100
DictionaryVariables
280
     0
  1
Standard
  0
DICTIONARYVAR
  5
521
102
{ACAD_REACTORS
330
4B3
102
}
330
4B3
100
DictionaryVariables
280
     0
  1
Standard
  0
DICTIONARYVAR
  5
522
102
{ACAD_REACTORS
330
4B3
102
}
330
4B3
100
DictionaryVariables
280
     0
  1
0
  0
DICTIONARYVAR
  5
524
102
{ACAD_REACTORS
330
4B3
102
}
330
4B3
100
DictionaryVariables
280
     0
  1
1
  0
DICTIONARYVAR
  5
52B
102
{ACAD_REACTORS
330
4B3
102
}
330
4B3
100
DictionaryVariables
280
     0
  1
1
  0
DICTIONARYVAR
  5
523
102
{ACAD_REACTORS
330
4B3
102
}
330
4B3
100
DictionaryVariables
280
     0
  1
0
  0
DICTIONARY
  5
56E
330
70
100
AcDbDictionary
280
     1
281
     1
  3
ACAD_XREC_ROUNDTRIP
360
56F
  0
DICTIONARY
  5
56A
330
10
100
AcDbDictionary
280
     1
281
     1
  3
ACAD_XREC_ROUNDTRIP
360
56B
  0
DICTIONARY
  5
56C
330
6
100
AcDbDictionary
280
     1
281
     1
  3
ACAD_XREC_ROUNDTRIP
360
56D
  0
DICTIONARY
  5
5A0
330
4D1
100
AcDbDictionary
280
     1
281
     1
  3
ACAD_XREC_ROUNDTRIP
360
5A1
  0
DICTIONARY
  5
578
330
4BD
100
AcDbDictionary
280
     1
281
     1
  3
ACAD_XREC_ROUNDTRIP
360
579
  0
DICTIONARY
  5
57E
330
4C0
100
AcDbDictionary
280
     1
281
     1
  3
ACAD_XREC_ROUNDTRIP
360
57F
  0
DICTIONARY
  5
586
330
4C4
100
AcDbDictionary
280
     1
281
     1
  3
ACAD_XREC_ROUNDTRIP
360
587
  0
DICTIONARY
  5
58E
330
4C8
100
AcDbDictionary
280
     1
281
     1
  3
ACAD_XREC_ROUNDTRIP
360
58F
  0
DICTIONARY
  5
582
330
4C2
100
AcDbDictionary
280
     1
281
     1
  3
ACAD_XREC_ROUNDTRIP
360
583
  0
DICTIONARY
  5
584
330
4C3
100
AcDbDictionary
280
     1
281
     1
  3
ACAD_XREC_ROUNDTRIP
360
585
  0
DICTIONARY
  5
594
330
4CB
100
AcDbDictionary
280
     1
281
     1
  3
ACAD_XREC_ROUNDTRIP
360
595
  0
DICTIONARY
  5
58C
330
4C7
100
AcDbDictionary
280
     1
281
     1
  3
ACAD_XREC_ROUNDTRIP
360
58D
  0
DICTIONARY
  5
570
330
4B9
100
AcDbDictionary
280
     1
281
     1
  3
ACAD_XREC_ROUNDTRIP
360
571
  0
DICTIONARY
  5
572
330
4BA
100
AcDbDictionary
280
     1
281
     1
  3
ACAD_XREC_ROUNDTRIP
360
573
  0
DICTIONARY
  5
574
330
4BB
100
AcDbDictionary
280
     1
281
     1
  3
ACAD_XREC_ROUNDTRIP
360
575
  0
DICTIONARY
  5
576
330
4BC
100
AcDbDictionary
280
     1
281
     1
  3
ACAD_XREC_ROUNDTRIP
360
577
  0
DICTIONARY
  5
57C
330
4BF
100
AcDbDictionary
280
     1
281
     1
  3
ACAD_XREC_ROUNDTRIP
360
57D
  0
DICTIONARY
  5
590
330
4C9
100
AcDbDictionary
280
     1
281
     1
  3
ACAD_XREC_ROUNDTRIP
360
591
  0
DICTIONARY
  5
58A
330
4C6
100
AcDbDictionary
280
     1
281
     1
  3
ACAD_XREC_ROUNDTRIP
360
58B
  0
DICTIONARY
  5
592
330
4CA
100
AcDbDictionary
280
     1
281
     1
  3
ACAD_XREC_ROUNDTRIP
360
593
  0
DICTIONARY
  5
580
330
4C1
100
AcDbDictionary
280
     1
281
     1
  3
ACAD_XREC_ROUNDTRIP
360
581
  0
DICTIONARY
  5
59E
330
4D0
100
AcDbDictionary
280
     1
281
     1
  3
ACAD_XREC_ROUNDTRIP
360
59F
  0
DICTIONARY
  5
59C
330
4CF
100
AcDbDictionary
280
     1
281
     1
  3
ACAD_XREC_ROUNDTRIP
360
59D
  0
DICTIONARY
  5
596
330
4CC
100
AcDbDictionary
280
     1
281
     1
  3
ACAD_XREC_ROUNDTRIP
360
597
  0
DICTIONARY
  5
598
330
4CD
100
AcDbDictionary
280
     1
281
     1
  3
ACAD_XREC_ROUNDTRIP
360
599
  0
DICTIONARY
  5
588
330
4C5
100
AcDbDictionary
280
     1
281
     1
  3
ACAD_XREC_ROUNDTRIP
360
589
  0
DICTIONARY
  5
57A
330
4BE
100
AcDbDictionary
280
     1
281
     1
  3
ACAD_XREC_ROUNDTRIP
360
57B
  0
DICTIONARY
  5
59A
330
4CE
100
AcDbDictionary
280
     1
281
     1
  3
ACAD_XREC_ROUNDTRIP
360
59B
  0
XRECORD
  5
56F
102
{ACAD_REACTORS
330
56E
102
}
330
56E
100
AcDbXrecord
280
     1
102
MATERIAL
148
0.0
149
0.0
149
0.0
 93
        0
 94
      127
282
     0
 72
     1
 77
     1
171
     1
175
     1
179
     1
273
     0
  0
XRECORD
  5
56B
102
{ACAD_REACTORS
330
56A
102
}
330
56A
100
AcDbXrecord
280
     1
102
MATERIAL
148
0.0
149
0.0
149
0.0
 93
        0
 94
      127
282
     0
 72
     1
 77
     1
171
     1
175
     1
179
     1
273
     0
  0
XRECORD
  5
56D
102
{ACAD_REACTORS
330
56C
102
}
330
56C
100
AcDbXrecord
280
     1
102
MATERIAL
148
0.0
149
0.0
149
0.0
 93
        0
 94
      127
282
     0
 72
     1
 77
     1
171
     1
175
     1
179
     1
273
     0
  0
XRECORD
  5
5A1
102
{ACAD_REACTORS
330
5A0
102
}
330
5A0
100
AcDbXrecord
280
     1
102
ACAD_ROUNDTRIP_2010_MLEADER_STYLE
  0
XRECORD
  5
579
102
{ACAD_REACTORS
330
578
102
}
330
578
100
AcDbXrecord
280
     1
102
RTVSPropertyOp0
 70
     1
102
RTVSPropertyOp1
 70
     1
102
RTVSPropertyOp2
 70
     1
102
RTVSPropertyOp3
 70
     1
102
RTVSPropertyOp4
 70
     1
102
RTVSPropertyOp5
 70
     1
102
RTVSPropertyOp6
 70
     1
102
RTVSPropertyOp7
 70
     1
102
RTVSPropertyOp8
 70
     1
102
RTVSPropertyOp9
 70
     1
102
RTVSPropertyOp10
 70
     1
102
RTVSPropertyOp11
 70
     1
102
RTVSPropertyOp12
 70
     1
102
RTVSPropertyOp13
 70
     1
102
RTVSPropertyOp14
 70
     1
102
RTVSPropertyOp15
 70
     1
102
RTVSPropertyOp16
 70
     1
102
RTVSPropertyOp17
 70
     1
102
RTVSPropertyOp18
 70
     1
102
RTVSPropertyOp19
 70
     1
102
RTVSPropertyOp20
 70
     1
102
RTVSPropertyOp21
 70
     1
102
RTVSPropertyOp22
 70
     1
102
RTVSPropertyOp23
 70
     1
102
RTVSPropertyOp24
 70
     1
102
RTVSPropertyOp25
 70
     1
102
RTVSPropertyOp26
 70
     1
102
RTVSPropertyOp27
 70
     1
102
RTVSPropertyOp28
 70
     1
102
RTVSPropertyOp29
 70
     1
102
RTVSPropertyOp30
 70
     1
102
RTVSPropertyOp31
 70
     1
102
RTVSPropertyOp32
 70
     1
102
RTVSPropertyOp33
 70
     1
102
RTVSPropertyOp34
 70
     1
102
RTVSPropertyOp35
 70
     1
102
RTVSPropertyOp36
 70
     1
102
RTVSPropertyOp37
 70
     1
102
RTVSPropertyOp38
 70
     1
102
RTVSPropertyOp39
 70
     1
102
RTVSPropertyOp40
 70
     1
102
RTVSPropertyOp41
 70
     1
102
RTVSPropertyOp42
 70
     1
102
RTVSPropertyOp43
 70
     1
102
RTVSPropertyOp44
 70
     1
102
RTVSPropertyOp45
 70
     1
102
RTVSPropertyOp46
 70
     1
102
RTVSPropertyOp47
 70
     1
102
RTVSPropertyOp48
 70
     1
102
RTVSPropertyOp49
 70
     1
102
RTVSPropertyOp50
 70
     1
102
RTVSPropertyOp51
 70
     0
102
RTVSPropertyOp52
 70
     0
102
RTVSPropertyOp53
 70
     1
102
RTVSPropertyOp54
 70
     1
102
RTVSPropertyOp55
 70
     1
102
RTVSPropertyOp56
 70
     1
102
RTVSPropertyOp57
 70
     1
102
RTVSPost2010Prop28
280
     1
102
RTVSPost2010PropOp28
 70
     1
102
RTVSPost2010Prop29
280
     1
102
RTVSPost2010PropOp29
 70
     1
102
RTVSPost2010Prop30
280
     0
102
RTVSPost2010PropOp30
 70
     1
102
RTVSPost2010Prop31
280
     0
102
RTVSPost2010PropOp31
 70
     1
102
RTVSPost2010Prop32
280
     0
102
RTVSPost2010PropOp32
 70
     1
102
RTVSPost2010Prop33
280
     0
102
RTVSPost2010PropOp33
 70
     1
102
RTVSPost2010Prop34
280
     0
102
RTVSPost2010PropOp34
 70
     1
102
RTVSPost2010Prop35
280
     0
102
RTVSPost2010PropOp35
 70
     1
102
RTVSPost2010Prop36
280
     0
102
RTVSPost2010PropOp36
 70
     1
102
RTVSPost2010Prop37
 90
       50
102
RTVSPost2010PropOp37
 70
     1
102
RTVSPost2010Prop38
140
0.0
102
RTVSPost2010PropOp38
 70
     1
102
RTVSPost2010Prop39
140
1.0
102
RTVSPost2010PropOp39
 70
     1
102
RTVSPost2010Prop40
 90
        0
102
RTVSPost2010PropOp40
 70
     1
102
RTVSPost2010Prop41ColorIndex
 90
       18
102
RTVSPost2010Prop41ColorRGB
 90
        0
102
RTVSPost2010PropOp41
 70
     1
102
RTVSPost2010Prop42
 90
       50
102
RTVSPost2010PropOp42
 70
     1
102
RTVSPost2010Prop43
 90
        3
102
RTVSPost2010PropOp43
 70
     1
102
RTVSPost2010Prop44ColorIndex
 90
        5
102
RTVSPost2010Prop44ColorRGB
 90
      255
102
RTVSPost2010PropOp44
 70
     1
102
RTVSPost2010Prop45
280
     0
102
RTVSPost2010PropOp45
 70
     1
102
RTVSPost2010Prop46
 90
       50
102
RTVSPost2010PropOp46
 70
     1
102
RTVSPost2010Prop47
 90
       50
102
RTVSPost2010PropOp47
 70
     1
102
RTVSPost2010Prop48
 90
       50
102
RTVSPost2010PropOp48
 70
     1
102
RTVSPost2010Prop49
280
     0
102
RTVSPost2010PropOp49
 70
     1
102
RTVSPost2010Prop50
 90
       50
102
RTVSPost2010PropOp50
 70
     1
102
RTVSPost2010Prop51ColorIndex
 90
      256
102
RTVSPost2010Prop51ColorRGB
 90
-16777216
102
RTVSPost2010PropOp51
 70
     0
102
RTVSPost2010Prop52
140
1.0
102
RTVSPost2010PropOp52
 70
     0
102
RTVSPost2010Prop53
 90
        2
102
RTVSPost2010PropOp53
 70
     1
102
RTVSPost2010Prop54
  1
strokes_ogs.tif
102
RTVSPost2010PropOp54
 70
     1
102
RTVSPost2010Prop55
280
     0
102
RTVSPost2010PropOp55
 70
     1
102
RTVSPost2010Prop56
140
1.0
102
RTVSPost2010PropOp56
 70
     1
102
RTVSPost2010Prop57
140
1.0
102
RTVSPost2010PropOp57
 70
     1
  0
XRECORD
  5
57F
102
{ACAD_REACTORS
330
57E
102
}
330
57E
100
AcDbXrecord
280
     1
102
RTVSPropertyOp0
 70
     1
102
RTVSPropertyOp1
 70
     1
102
RTVSPropertyOp2
 70
     1
102
RTVSPropertyOp3
 70
     1
102
RTVSPropertyOp4
 70
     1
102
RTVSPropertyOp5
 70
     1
102
RTVSPropertyOp6
 70
     1
102
RTVSPropertyOp7
 70
     1
102
RTVSPropertyOp8
 70
     1
102
RTVSPropertyOp9
 70
     1
102
RTVSPropertyOp10
 70
     1
102
RTVSPropertyOp11
 70
     1
102
RTVSPropertyOp12
 70
     1
102
RTVSPropertyOp13
 70
     1
102
RTVSPropertyOp14
 70
     1
102
RTVSPropertyOp15
 70
     1
102
RTVSPropertyOp16
 70
     1
102
RTVSPropertyOp17
 70
     1
102
RTVSPropertyOp18
 70
     1
102
RTVSPropertyOp19
 70
     1
102
RTVSPropertyOp20
 70
     1
102
RTVSPropertyOp21
 70
     1
102
RTVSPropertyOp22
 70
     1
102
RTVSPropertyOp23
 70
     1
102
RTVSPropertyOp24
 70
     1
102
RTVSPropertyOp25
 70
     1
102
RTVSPropertyOp26
 70
     1
102
RTVSPropertyOp27
 70
     1
102
RTVSPropertyOp28
 70
     1
102
RTVSPropertyOp29
 70
     1
102
RTVSPropertyOp30
 70
     1
102
RTVSPropertyOp31
 70
     1
102
RTVSPropertyOp32
 70
     1
102
RTVSPropertyOp33
 70
     1
102
RTVSPropertyOp34
 70
     1
102
RTVSPropertyOp35
 70
     1
102
RTVSPropertyOp36
 70
     1
102
RTVSPropertyOp37
 70
     1
102
RTVSPropertyOp38
 70
     1
102
RTVSPropertyOp39
 70
     1
102
RTVSPropertyOp40
 70
     1
102
RTVSPropertyOp41
 70
     1
102
RTVSPropertyOp42
 70
     1
102
RTVSPropertyOp43
 70
     1
102
RTVSPropertyOp44
 70
     1
102
RTVSPropertyOp45
 70
     1
102
RTVSPropertyOp46
 70
     1
102
RTVSPropertyOp47
 70
     1
102
RTVSPropertyOp48
 70
     1
102
RTVSPropertyOp49
 70
     1
102
RTVSPropertyOp50
 70
     1
102
RTVSPropertyOp51
 70
     0
102
RTVSPropertyOp52
 70
     0
102
RTVSPropertyOp53
 70
     1
102
RTVSPropertyOp54
 70
     1
102
RTVSPropertyOp55
 70
     1
102
RTVSPropertyOp56
 70
     1
102
RTVSPropertyOp57
 70
     1
102
RTVSPost2010Prop28
280
     0
102
RTVSPost2010PropOp28
 70
     1
102
RTVSPost2010Prop29
280
     1
102
RTVSPost2010PropOp29
 70
     1
102
RTVSPost2010Prop30
280
     1
102
RTVSPost2010PropOp30
 70
     1
102
RTVSPost2010Prop31
280
     0
102
RTVSPost2010PropOp31
 70
     1
102
RTVSPost2010Prop32
280
     0
102
RTVSPost2010PropOp32
 70
     1
102
RTVSPost2010Prop33
280
     0
102
RTVSPost2010PropOp33
 70
     1
102
RTVSPost2010Prop34
280
     0
102
RTVSPost2010PropOp34
 70
     1
102
RTVSPost2010Prop35
280
     0
102
RTVSPost2010PropOp35
 70
     1
102
RTVSPost2010Prop36
280
     0
102
RTVSPost2010PropOp36
 70
     1
102
RTVSPost2010Prop37
 90
       50
102
RTVSPost2010PropOp37
 70
     1
102
RTVSPost2010Prop38
140
0.0
102
RTVSPost2010PropOp38
 70
     1
102
RTVSPost2010Prop39
140
1.0
102
RTVSPost2010PropOp39
 70
     1
102
RTVSPost2010Prop40
 90
        0
102
RTVSPost2010PropOp40
 70
     1
102
RTVSPost2010Prop41ColorIndex
 90
       18
102
RTVSPost2010Prop41ColorRGB
 90
        0
102
RTVSPost2010PropOp41
 70
     1
102
RTVSPost2010Prop42
 90
       50
102
RTVSPost2010PropOp42
 70
     1
102
RTVSPost2010Prop43
 90
        3
102
RTVSPost2010PropOp43
 70
     1
102
RTVSPost2010Prop44ColorIndex
 90
        5
102
RTVSPost2010Prop44ColorRGB
 90
      255
102
RTVSPost2010PropOp44
 70
     1
102
RTVSPost2010Prop45
280
     0
102
RTVSPost2010PropOp45
 70
     1
102
RTVSPost2010Prop46
 90
       50
102
RTVSPost2010PropOp46
 70
     1
102
RTVSPost2010Prop47
 90
       50
102
RTVSPost2010PropOp47
 70
     1
102
RTVSPost2010Prop48
 90
       50
102
RTVSPost2010PropOp48
 70
     1
102
RTVSPost2010Prop49
280
     0
102
RTVSPost2010PropOp49
 70
     1
102
RTVSPost2010Prop50
 90
       50
102
RTVSPost2010PropOp50
 70
     1
102
RTVSPost2010Prop51ColorIndex
 90
      256
102
RTVSPost2010Prop51ColorRGB
 90
-16777216
102
RTVSPost2010PropOp51
 70
     0
102
RTVSPost2010Prop52
140
1.0
102
RTVSPost2010PropOp52
 70
     0
102
RTVSPost2010Prop53
 90
        2
102
RTVSPost2010PropOp53
 70
     1
102
RTVSPost2010Prop54
  1
strokes_ogs.tif
102
RTVSPost2010PropOp54
 70
     1
102
RTVSPost2010Prop55
280
     0
102
RTVSPost2010PropOp55
 70
     1
102
RTVSPost2010Prop56
140
1.0
102
RTVSPost2010PropOp56
 70
     1
102
RTVSPost2010Prop57
140
1.0
102
RTVSPost2010PropOp57
 70
     1
  0
XRECORD
  5
587
102
{ACAD_REACTORS
330
586
102
}
330
586
100
AcDbXrecord
280
     1
102
RTVSPropertyOp0
 70
     1
102
RTVSPropertyOp1
 70
     1
102
RTVSPropertyOp2
 70
     1
102
RTVSPropertyOp3
 70
     1
102
RTVSPropertyOp4
 70
     1
102
RTVSPropertyOp5
 70
     1
102
RTVSPropertyOp6
 70
     1
102
RTVSPropertyOp7
 70
     1
102
RTVSPropertyOp8
 70
     1
102
RTVSPropertyOp9
 70
     1
102
RTVSPropertyOp10
 70
     1
102
RTVSPropertyOp11
 70
     1
102
RTVSPropertyOp12
 70
     1
102
RTVSPropertyOp13
 70
     1
102
RTVSPropertyOp14
 70
     1
102
RTVSPropertyOp15
 70
     1
102
RTVSPropertyOp16
 70
     1
102
RTVSPropertyOp17
 70
     1
102
RTVSPropertyOp18
 70
     1
102
RTVSPropertyOp19
 70
     1
102
RTVSPropertyOp20
 70
     1
102
RTVSPropertyOp21
 70
     1
102
RTVSPropertyOp22
 70
     1
102
RTVSPropertyOp23
 70
     1
102
RTVSPropertyOp24
 70
     1
102
RTVSPropertyOp25
 70
     1
102
RTVSPropertyOp26
 70
     1
102
RTVSPropertyOp27
 70
     1
102
RTVSPropertyOp28
 70
     1
102
RTVSPropertyOp29
 70
     1
102
RTVSPropertyOp30
 70
     1
102
RTVSPropertyOp31
 70
     1
102
RTVSPropertyOp32
 70
     1
102
RTVSPropertyOp33
 70
     1
102
RTVSPropertyOp34
 70
     1
102
RTVSPropertyOp35
 70
     1
102
RTVSPropertyOp36
 70
     1
102
RTVSPropertyOp37
 70
     1
102
RTVSPropertyOp38
 70
     1
102
RTVSPropertyOp39
 70
     1
102
RTVSPropertyOp40
 70
     1
102
RTVSPropertyOp41
 70
     1
102
RTVSPropertyOp42
 70
     1
102
RTVSPropertyOp43
 70
     1
102
RTVSPropertyOp44
 70
     1
102
RTVSPropertyOp45
 70
     1
102
RTVSPropertyOp46
 70
     1
102
RTVSPropertyOp47
 70
     1
102
RTVSPropertyOp48
 70
     1
102
RTVSPropertyOp49
 70
     1
102
RTVSPropertyOp50
 70
     1
102
RTVSPropertyOp51
 70
     0
102
RTVSPropertyOp52
 70
     0
102
RTVSPropertyOp53
 70
     1
102
RTVSPropertyOp54
 70
     1
102
RTVSPropertyOp55
 70
     1
102
RTVSPropertyOp56
 70
     1
102
RTVSPropertyOp57
 70
     1
102
RTVSPost2010Prop28
280
     0
102
RTVSPost2010PropOp28
 70
     1
102
RTVSPost2010Prop29
280
     1
102
RTVSPost2010PropOp29
 70
     1
102
RTVSPost2010Prop30
280
     1
102
RTVSPost2010PropOp30
 70
     1
102
RTVSPost2010Prop31
280
     0
102
RTVSPost2010PropOp31
 70
     1
102
RTVSPost2010Prop32
280
     0
102
RTVSPost2010PropOp32
 70
     1
102
RTVSPost2010Prop33
280
     0
102
RTVSPost2010PropOp33
 70
     1
102
RTVSPost2010Prop34
280
     0
102
RTVSPost2010PropOp34
 70
     1
102
RTVSPost2010Prop35
280
     0
102
RTVSPost2010PropOp35
 70
     1
102
RTVSPost2010Prop36
280
     0
102
RTVSPost2010PropOp36
 70
     1
102
RTVSPost2010Prop37
 90
       50
102
RTVSPost2010PropOp37
 70
     1
102
RTVSPost2010Prop38
140
0.0
102
RTVSPost2010PropOp38
 70
     1
102
RTVSPost2010Prop39
140
1.0
102
RTVSPost2010PropOp39
 70
     1
102
RTVSPost2010Prop40
 90
        0
102
RTVSPost2010PropOp40
 70
     1
102
RTVSPost2010Prop41ColorIndex
 90
       18
102
RTVSPost2010Prop41ColorRGB
 90
        0
102
RTVSPost2010PropOp41
 70
     1
102
RTVSPost2010Prop42
 90
       50
102
RTVSPost2010PropOp42
 70
     1
102
RTVSPost2010Prop43
 90
        3
102
RTVSPost2010PropOp43
 70
     1
102
RTVSPost2010Prop44ColorIndex
 90
        5
102
RTVSPost2010Prop44ColorRGB
 90
      255
102
RTVSPost2010PropOp44
 70
     1
102
RTVSPost2010Prop45
280
     0
102
RTVSPost2010PropOp45
 70
     1
102
RTVSPost2010Prop46
 90
       50
102
RTVSPost2010PropOp46
 70
     1
102
RTVSPost2010Prop47
 90
       50
102
RTVSPost2010PropOp47
 70
     1
102
RTVSPost2010Prop48
 90
       50
102
RTVSPost2010PropOp48
 70
     1
102
RTVSPost2010Prop49
280
     0
102
RTVSPost2010PropOp49
 70
     1
102
RTVSPost2010Prop50
 90
       50
102
RTVSPost2010PropOp50
 70
     1
102
RTVSPost2010Prop51ColorIndex
 90
      256
102
RTVSPost2010Prop51ColorRGB
 90
-16777216
102
RTVSPost2010PropOp51
 70
     0
102
RTVSPost2010Prop52
140
1.0
102
RTVSPost2010PropOp52
 70
     0
102
RTVSPost2010Prop53
 90
        2
102
RTVSPost2010PropOp53
 70
     1
102
RTVSPost2010Prop54
  1
strokes_ogs.tif
102
RTVSPost2010PropOp54
 70
     1
102
RTVSPost2010Prop55
280
     0
102
RTVSPost2010PropOp55
 70
     1
102
RTVSPost2010Prop56
140
1.0
102
RTVSPost2010PropOp56
 70
     1
102
RTVSPost2010Prop57
140
1.0
102
RTVSPost2010PropOp57
 70
     1
  0
XRECORD
  5
58F
102
{ACAD_REACTORS
330
58E
102
}
330
58E
100
AcDbXrecord
280
     1
102
RTVSPropertyOp0
 70
     1
102
RTVSPropertyOp1
 70
     1
102
RTVSPropertyOp2
 70
     1
102
RTVSPropertyOp3
 70
     1
102
RTVSPropertyOp4
 70
     1
102
RTVSPropertyOp5
 70
     1
102
RTVSPropertyOp6
 70
     1
102
RTVSPropertyOp7
 70
     1
102
RTVSPropertyOp8
 70
     1
102
RTVSPropertyOp9
 70
     1
102
RTVSPropertyOp10
 70
     1
102
RTVSPropertyOp11
 70
     1
102
RTVSPropertyOp12
 70
     1
102
RTVSPropertyOp13
 70
     1
102
RTVSPropertyOp14
 70
     1
102
RTVSPropertyOp15
 70
     1
102
RTVSPropertyOp16
 70
     1
102
RTVSPropertyOp17
 70
     1
102
RTVSPropertyOp18
 70
     1
102
RTVSPropertyOp19
 70
     1
102
RTVSPropertyOp20
 70
     1
102
RTVSPropertyOp21
 70
     1
102
RTVSPropertyOp22
 70
     1
102
RTVSPropertyOp23
 70
     1
102
RTVSPropertyOp24
 70
     1
102
RTVSPropertyOp25
 70
     1
102
RTVSPropertyOp26
 70
     1
102
RTVSPropertyOp27
 70
     1
102
RTVSPropertyOp28
 70
     1
102
RTVSPropertyOp29
 70
     1
102
RTVSPropertyOp30
 70
     1
102
RTVSPropertyOp31
 70
     1
102
RTVSPropertyOp32
 70
     1
102
RTVSPropertyOp33
 70
     1
102
RTVSPropertyOp34
 70
     1
102
RTVSPropertyOp35
 70
     1
102
RTVSPropertyOp36
 70
     1
102
RTVSPropertyOp37
 70
     1
102
RTVSPropertyOp38
 70
     1
102
RTVSPropertyOp39
 70
     1
102
RTVSPropertyOp40
 70
     1
102
RTVSPropertyOp41
 70
     1
102
RTVSPropertyOp42
 70
     1
102
RTVSPropertyOp43
 70
     1
102
RTVSPropertyOp44
 70
     1
102
RTVSPropertyOp45
 70
     1
102
RTVSPropertyOp46
 70
     1
102
RTVSPropertyOp47
 70
     1
102
RTVSPropertyOp48
 70
     1
102
RTVSPropertyOp49
 70
     1
102
RTVSPropertyOp50
 70
     1
102
RTVSPropertyOp51
 70
     0
102
RTVSPropertyOp52
 70
     0
102
RTVSPropertyOp53
 70
     1
102
RTVSPropertyOp54
 70
     1
102
RTVSPropertyOp55
 70
     1
102
RTVSPropertyOp56
 70
     1
102
RTVSPropertyOp57
 70
     1
102
RTVSPost2010Prop28
280
     0
102
RTVSPost2010PropOp28
 70
     1
102
RTVSPost2010Prop29
280
     1
102
RTVSPost2010PropOp29
 70
     1
102
RTVSPost2010Prop30
280
     1
102
RTVSPost2010PropOp30
 70
     1
102
RTVSPost2010Prop31
280
     0
102
RTVSPost2010PropOp31
 70
     1
102
RTVSPost2010Prop32
280
     0
102
RTVSPost2010PropOp32
 70
     1
102
RTVSPost2010Prop33
280
     0
102
RTVSPost2010PropOp33
 70
     1
102
RTVSPost2010Prop34
280
     0
102
RTVSPost2010PropOp34
 70
     1
102
RTVSPost2010Prop35
280
     0
102
RTVSPost2010PropOp35
 70
     1
102
RTVSPost2010Prop36
280
     0
102
RTVSPost2010PropOp36
 70
     1
102
RTVSPost2010Prop37
 90
       50
102
RTVSPost2010PropOp37
 70
     1
102
RTVSPost2010Prop38
140
0.0
102
RTVSPost2010PropOp38
 70
     1
102
RTVSPost2010Prop39
140
1.0
102
RTVSPost2010PropOp39
 70
     1
102
RTVSPost2010Prop40
 90
        0
102
RTVSPost2010PropOp40
 70
     1
102
RTVSPost2010Prop41ColorIndex
 90
       18
102
RTVSPost2010Prop41ColorRGB
 90
        0
102
RTVSPost2010PropOp41
 70
     1
102
RTVSPost2010Prop42
 90
       50
102
RTVSPost2010PropOp42
 70
     1
102
RTVSPost2010Prop43
 90
        3
102
RTVSPost2010PropOp43
 70
     1
102
RTVSPost2010Prop44ColorIndex
 90
        5
102
RTVSPost2010Prop44ColorRGB
 90
      255
102
RTVSPost2010PropOp44
 70
     1
102
RTVSPost2010Prop45
280
     0
102
RTVSPost2010PropOp45
 70
     1
102
RTVSPost2010Prop46
 90
       50
102
RTVSPost2010PropOp46
 70
     1
102
RTVSPost2010Prop47
 90
       50
102
RTVSPost2010PropOp47
 70
     1
102
RTVSPost2010Prop48
 90
       50
102
RTVSPost2010PropOp48
 70
     1
102
RTVSPost2010Prop49
280
     0
102
RTVSPost2010PropOp49
 70
     1
102
RTVSPost2010Prop50
 90
       50
102
RTVSPost2010PropOp50
 70
     1
102
RTVSPost2010Prop51ColorIndex
 90
      256
102
RTVSPost2010Prop51ColorRGB
 90
-16777216
102
RTVSPost2010PropOp51
 70
     0
102
RTVSPost2010Prop52
140
1.0
102
RTVSPost2010PropOp52
 70
     0
102
RTVSPost2010Prop53
 90
        2
102
RTVSPost2010PropOp53
 70
     1
102
RTVSPost2010Prop54
  1
strokes_ogs.tif
102
RTVSPost2010PropOp54
 70
     1
102
RTVSPost2010Prop55
280
     0
102
RTVSPost2010PropOp55
 70
     1
102
RTVSPost2010Prop56
140
1.0
102
RTVSPost2010PropOp56
 70
     1
102
RTVSPost2010Prop57
140
1.0
102
RTVSPost2010PropOp57
 70
     1
  0
XRECORD
  5
583
102
{ACAD_REACTORS
330
582
102
}
330
582
100
AcDbXrecord
280
     1
102
RTVSPropertyOp0
 70
     1
102
RTVSPropertyOp1
 70
     1
102
RTVSPropertyOp2
 70
     1
102
RTVSPropertyOp3
 70
     1
102
RTVSPropertyOp4
 70
     1
102
RTVSPropertyOp5
 70
     1
102
RTVSPropertyOp6
 70
     1
102
RTVSPropertyOp7
 70
     1
102
RTVSPropertyOp8
 70
     1
102
RTVSPropertyOp9
 70
     1
102
RTVSPropertyOp10
 70
     1
102
RTVSPropertyOp11
 70
     1
102
RTVSPropertyOp12
 70
     1
102
RTVSPropertyOp13
 70
     1
102
RTVSPropertyOp14
 70
     1
102
RTVSPropertyOp15
 70
     1
102
RTVSPropertyOp16
 70
     1
102
RTVSPropertyOp17
 70
     1
102
RTVSPropertyOp18
 70
     1
102
RTVSPropertyOp19
 70
     1
102
RTVSPropertyOp20
 70
     1
102
RTVSPropertyOp21
 70
     1
102
RTVSPropertyOp22
 70
     1
102
RTVSPropertyOp23
 70
     1
102
RTVSPropertyOp24
 70
     1
102
RTVSPropertyOp25
 70
     1
102
RTVSPropertyOp26
 70
     1
102
RTVSPropertyOp27
 70
     1
102
RTVSPropertyOp28
 70
     1
102
RTVSPropertyOp29
 70
     1
102
RTVSPropertyOp30
 70
     1
102
RTVSPropertyOp31
 70
     1
102
RTVSPropertyOp32
 70
     1
102
RTVSPropertyOp33
 70
     1
102
RTVSPropertyOp34
 70
     1
102
RTVSPropertyOp35
 70
     1
102
RTVSPropertyOp36
 70
     1
102
RTVSPropertyOp37
 70
     1
102
RTVSPropertyOp38
 70
     1
102
RTVSPropertyOp39
 70
     1
102
RTVSPropertyOp40
 70
     1
102
RTVSPropertyOp41
 70
     1
102
RTVSPropertyOp42
 70
     1
102
RTVSPropertyOp43
 70
     1
102
RTVSPropertyOp44
 70
     1
102
RTVSPropertyOp45
 70
     1
102
RTVSPropertyOp46
 70
     1
102
RTVSPropertyOp47
 70
     1
102
RTVSPropertyOp48
 70
     1
102
RTVSPropertyOp49
 70
     1
102
RTVSPropertyOp50
 70
     1
102
RTVSPropertyOp51
 70
     0
102
RTVSPropertyOp52
 70
     0
102
RTVSPropertyOp53
 70
     1
102
RTVSPropertyOp54
 70
     1
102
RTVSPropertyOp55
 70
     1
102
RTVSPropertyOp56
 70
     1
102
RTVSPropertyOp57
 70
     1
102
RTVSPost2010Prop28
280
     0
102
RTVSPost2010PropOp28
 70
     1
102
RTVSPost2010Prop29
280
     1
102
RTVSPost2010PropOp29
 70
     1
102
RTVSPost2010Prop30
280
     1
102
RTVSPost2010PropOp30
 70
     1
102
RTVSPost2010Prop31
280
     0
102
RTVSPost2010PropOp31
 70
     1
102
RTVSPost2010Prop32
280
     0
102
RTVSPost2010PropOp32
 70
     1
102
RTVSPost2010Prop33
280
     0
102
RTVSPost2010PropOp33
 70
     1
102
RTVSPost2010Prop34
280
     0
102
RTVSPost2010PropOp34
 70
     1
102
RTVSPost2010Prop35
280
     0
102
RTVSPost2010PropOp35
 70
     1
102
RTVSPost2010Prop36
280
     0
102
RTVSPost2010PropOp36
 70
     1
102
RTVSPost2010Prop37
 90
       50
102
RTVSPost2010PropOp37
 70
     1
102
RTVSPost2010Prop38
140
0.0
102
RTVSPost2010PropOp38
 70
     1
102
RTVSPost2010Prop39
140
1.0
102
RTVSPost2010PropOp39
 70
     1
102
RTVSPost2010Prop40
 90
        0
102
RTVSPost2010PropOp40
 70
     1
102
RTVSPost2010Prop41ColorIndex
 90
       18
102
RTVSPost2010Prop41ColorRGB
 90
        0
102
RTVSPost2010PropOp41
 70
     1
102
RTVSPost2010Prop42
 90
       50
102
RTVSPost2010PropOp42
 70
     1
102
RTVSPost2010Prop43
 90
        3
102
RTVSPost2010PropOp43
 70
     1
102
RTVSPost2010Prop44ColorIndex
 90
        5
102
RTVSPost2010Prop44ColorRGB
 90
      255
102
RTVSPost2010PropOp44
 70
     1
102
RTVSPost2010Prop45
280
     0
102
RTVSPost2010PropOp45
 70
     1
102
RTVSPost2010Prop46
 90
       50
102
RTVSPost2010PropOp46
 70
     1
102
RTVSPost2010Prop47
 90
       50
102
RTVSPost2010PropOp47
 70
     1
102
RTVSPost2010Prop48
 90
       50
102
RTVSPost2010PropOp48
 70
     1
102
RTVSPost2010Prop49
280
     0
102
RTVSPost2010PropOp49
 70
     1
102
RTVSPost2010Prop50
 90
       50
102
RTVSPost2010PropOp50
 70
     1
102
RTVSPost2010Prop51ColorIndex
 90
      256
102
RTVSPost2010Prop51ColorRGB
 90
-16777216
102
RTVSPost2010PropOp51
 70
     0
102
RTVSPost2010Prop52
140
1.0
102
RTVSPost2010PropOp52
 70
     0
102
RTVSPost2010Prop53
 90
        2
102
RTVSPost2010PropOp53
 70
     1
102
RTVSPost2010Prop54
  1
strokes_ogs.tif
102
RTVSPost2010PropOp54
 70
     1
102
RTVSPost2010Prop55
280
     0
102
RTVSPost2010PropOp55
 70
     1
102
RTVSPost2010Prop56
140
1.0
102
RTVSPost2010PropOp56
 70
     1
102
RTVSPost2010Prop57
140
1.0
102
RTVSPost2010PropOp57
 70
     1
  0
XRECORD
  5
585
102
{ACAD_REACTORS
330
584
102
}
330
584
100
AcDbXrecord
280
     1
102
RTVSPropertyOp0
 70
     1
102
RTVSPropertyOp1
 70
     1
102
RTVSPropertyOp2
 70
     1
102
RTVSPropertyOp3
 70
     1
102
RTVSPropertyOp4
 70
     1
102
RTVSPropertyOp5
 70
     1
102
RTVSPropertyOp6
 70
     1
102
RTVSPropertyOp7
 70
     1
102
RTVSPropertyOp8
 70
     1
102
RTVSPropertyOp9
 70
     1
102
RTVSPropertyOp10
 70
     1
102
RTVSPropertyOp11
 70
     1
102
RTVSPropertyOp12
 70
     1
102
RTVSPropertyOp13
 70
     1
102
RTVSPropertyOp14
 70
     1
102
RTVSPropertyOp15
 70
     1
102
RTVSPropertyOp16
 70
     1
102
RTVSPropertyOp17
 70
     1
102
RTVSPropertyOp18
 70
     1
102
RTVSPropertyOp19
 70
     1
102
RTVSPropertyOp20
 70
     1
102
RTVSPropertyOp21
 70
     1
102
RTVSPropertyOp22
 70
     1
102
RTVSPropertyOp23
 70
     1
102
RTVSPropertyOp24
 70
     1
102
RTVSPropertyOp25
 70
     1
102
RTVSPropertyOp26
 70
     1
102
RTVSPropertyOp27
 70
     1
102
RTVSPropertyOp28
 70
     1
102
RTVSPropertyOp29
 70
     1
102
RTVSPropertyOp30
 70
     1
102
RTVSPropertyOp31
 70
     1
102
RTVSPropertyOp32
 70
     1
102
RTVSPropertyOp33
 70
     1
102
RTVSPropertyOp34
 70
     1
102
RTVSPropertyOp35
 70
     1
102
RTVSPropertyOp36
 70
     1
102
RTVSPropertyOp37
 70
     1
102
RTVSPropertyOp38
 70
     1
102
RTVSPropertyOp39
 70
     1
102
RTVSPropertyOp40
 70
     1
102
RTVSPropertyOp41
 70
     1
102
RTVSPropertyOp42
 70
     1
102
RTVSPropertyOp43
 70
     1
102
RTVSPropertyOp44
 70
     1
102
RTVSPropertyOp45
 70
     1
102
RTVSPropertyOp46
 70
     1
102
RTVSPropertyOp47
 70
     1
102
RTVSPropertyOp48
 70
     1
102
RTVSPropertyOp49
 70
     1
102
RTVSPropertyOp50
 70
     1
102
RTVSPropertyOp51
 70
     0
102
RTVSPropertyOp52
 70
     0
102
RTVSPropertyOp53
 70
     1
102
RTVSPropertyOp54
 70
     1
102
RTVSPropertyOp55
 70
     1
102
RTVSPropertyOp56
 70
     1
102
RTVSPropertyOp57
 70
     1
102
RTVSPost2010Prop28
280
     0
102
RTVSPost2010PropOp28
 70
     1
102
RTVSPost2010Prop29
280
     1
102
RTVSPost2010PropOp29
 70
     1
102
RTVSPost2010Prop30
280
     1
102
RTVSPost2010PropOp30
 70
     1
102
RTVSPost2010Prop31
280
     0
102
RTVSPost2010PropOp31
 70
     1
102
RTVSPost2010Prop32
280
     0
102
RTVSPost2010PropOp32
 70
     1
102
RTVSPost2010Prop33
280
     0
102
RTVSPost2010PropOp33
 70
     1
102
RTVSPost2010Prop34
280
     0
102
RTVSPost2010PropOp34
 70
     1
102
RTVSPost2010Prop35
280
     0
102
RTVSPost2010PropOp35
 70
     1
102
RTVSPost2010Prop36
280
     0
102
RTVSPost2010PropOp36
 70
     1
102
RTVSPost2010Prop37
 90
       50
102
RTVSPost2010PropOp37
 70
     1
102
RTVSPost2010Prop38
140
0.0
102
RTVSPost2010PropOp38
 70
     1
102
RTVSPost2010Prop39
140
1.0
102
RTVSPost2010PropOp39
 70
     1
102
RTVSPost2010Prop40
 90
        0
102
RTVSPost2010PropOp40
 70
     1
102
RTVSPost2010Prop41ColorIndex
 90
       18
102
RTVSPost2010Prop41ColorRGB
 90
        0
102
RTVSPost2010PropOp41
 70
     1
102
RTVSPost2010Prop42
 90
       50
102
RTVSPost2010PropOp42
 70
     1
102
RTVSPost2010Prop43
 90
        3
102
RTVSPost2010PropOp43
 70
     1
102
RTVSPost2010Prop44ColorIndex
 90
        5
102
RTVSPost2010Prop44ColorRGB
 90
      255
102
RTVSPost2010PropOp44
 70
     1
102
RTVSPost2010Prop45
280
     0
102
RTVSPost2010PropOp45
 70
     1
102
RTVSPost2010Prop46
 90
       50
102
RTVSPost2010PropOp46
 70
     1
102
RTVSPost2010Prop47
 90
       50
102
RTVSPost2010PropOp47
 70
     1
102
RTVSPost2010Prop48
 90
       50
102
RTVSPost2010PropOp48
 70
     1
102
RTVSPost2010Prop49
280
     0
102
RTVSPost2010PropOp49
 70
     1
102
RTVSPost2010Prop50
 90
       50
102
RTVSPost2010PropOp50
 70
     1
102
RTVSPost2010Prop51ColorIndex
 90
      256
102
RTVSPost2010Prop51ColorRGB
 90
-16777216
102
RTVSPost2010PropOp51
 70
     0
102
RTVSPost2010Prop52
140
1.0
102
RTVSPost2010PropOp52
 70
     0
102
RTVSPost2010Prop53
 90
        2
102
RTVSPost2010PropOp53
 70
     1
102
RTVSPost2010Prop54
  1
strokes_ogs.tif
102
RTVSPost2010PropOp54
 70
     1
102
RTVSPost2010Prop55
280
     0
102
RTVSPost2010PropOp55
 70
     1
102
RTVSPost2010Prop56
140
1.0
102
RTVSPost2010PropOp56
 70
     1
102
RTVSPost2010Prop57
140
1.0
102
RTVSPost2010PropOp57
 70
     1
  0
XRECORD
  5
595
102
{ACAD_REACTORS
330
594
102
}
330
594
100
AcDbXrecord
280
     1
102
RTVSPropertyOp0
 70
     0
102
RTVSPropertyOp1
 70
     0
102
RTVSPropertyOp2
 70
     0
102
RTVSPropertyOp3
 70
     0
102
RTVSPropertyOp4
 70
     0
102
RTVSPropertyOp5
 70
     0
102
RTVSPropertyOp6
 70
     0
102
RTVSPropertyOp7
 70
     0
102
RTVSPropertyOp8
 70
     0
102
RTVSPropertyOp9
 70
     0
102
RTVSPropertyOp10
 70
     0
102
RTVSPropertyOp11
 70
     0
102
RTVSPropertyOp12
 70
     0
102
RTVSPropertyOp13
 70
     0
102
RTVSPropertyOp14
 70
     0
102
RTVSPropertyOp15
 70
     0
102
RTVSPropertyOp16
 70
     0
102
RTVSPropertyOp17
 70
     0
102
RTVSPropertyOp18
 70
     0
102
RTVSPropertyOp19
 70
     0
102
RTVSPropertyOp20
 70
     0
102
RTVSPropertyOp21
 70
     0
102
RTVSPropertyOp22
 70
     0
102
RTVSPropertyOp23
 70
     0
102
RTVSPropertyOp24
 70
     0
102
RTVSPropertyOp25
 70
     0
102
RTVSPropertyOp26
 70
     0
102
RTVSPropertyOp27
 70
     0
102
RTVSPropertyOp28
 70
     1
102
RTVSPropertyOp29
 70
     1
102
RTVSPropertyOp30
 70
     1
102
RTVSPropertyOp31
 70
     1
102
RTVSPropertyOp32
 70
     1
102
RTVSPropertyOp33
 70
     1
102
RTVSPropertyOp34
 70
     1
102
RTVSPropertyOp35
 70
     1
102
RTVSPropertyOp36
 70
     1
102
RTVSPropertyOp37
 70
     1
102
RTVSPropertyOp38
 70
     1
102
RTVSPropertyOp39
 70
     1
102
RTVSPropertyOp40
 70
     1
102
RTVSPropertyOp41
 70
     1
102
RTVSPropertyOp42
 70
     1
102
RTVSPropertyOp43
 70
     1
102
RTVSPropertyOp44
 70
     1
102
RTVSPropertyOp45
 70
     1
102
RTVSPropertyOp46
 70
     1
102
RTVSPropertyOp47
 70
     1
102
RTVSPropertyOp48
 70
     1
102
RTVSPropertyOp49
 70
     1
102
RTVSPropertyOp50
 70
     1
102
RTVSPropertyOp51
 70
     0
102
RTVSPropertyOp52
 70
     0
102
RTVSPropertyOp53
 70
     1
102
RTVSPropertyOp54
 70
     1
102
RTVSPropertyOp55
 70
     1
102
RTVSPropertyOp56
 70
     1
102
RTVSPropertyOp57
 70
     1
102
RTVSPost2010Prop28
280
     0
102
RTVSPost2010PropOp28
 70
     1
102
RTVSPost2010Prop29
280
     1
102
RTVSPost2010PropOp29
 70
     1
102
RTVSPost2010Prop30
280
     1
102
RTVSPost2010PropOp30
 70
     1
102
RTVSPost2010Prop31
280
     0
102
RTVSPost2010PropOp31
 70
     1
102
RTVSPost2010Prop32
280
     0
102
RTVSPost2010PropOp32
 70
     1
102
RTVSPost2010Prop33
280
     0
102
RTVSPost2010PropOp33
 70
     1
102
RTVSPost2010Prop34
280
     0
102
RTVSPost2010PropOp34
 70
     1
102
RTVSPost2010Prop35
280
     0
102
RTVSPost2010PropOp35
 70
     1
102
RTVSPost2010Prop36
280
     0
102
RTVSPost2010PropOp36
 70
     1
102
RTVSPost2010Prop37
 90
       50
102
RTVSPost2010PropOp37
 70
     1
102
RTVSPost2010Prop38
140
0.0
102
RTVSPost2010PropOp38
 70
     1
102
RTVSPost2010Prop39
140
1.0
102
RTVSPost2010PropOp39
 70
     1
102
RTVSPost2010Prop40
 90
        0
102
RTVSPost2010PropOp40
 70
     1
102
RTVSPost2010Prop41ColorIndex
 90
       18
102
RTVSPost2010Prop41ColorRGB
 90
        0
102
RTVSPost2010PropOp41
 70
     1
102
RTVSPost2010Prop42
 90
       50
102
RTVSPost2010PropOp42
 70
     1
102
RTVSPost2010Prop43
 90
        3
102
RTVSPost2010PropOp43
 70
     1
102
RTVSPost2010Prop44ColorIndex
 90
        5
102
RTVSPost2010Prop44ColorRGB
 90
      255
102
RTVSPost2010PropOp44
 70
     1
102
RTVSPost2010Prop45
280
     0
102
RTVSPost2010PropOp45
 70
     1
102
RTVSPost2010Prop46
 90
       50
102
RTVSPost2010PropOp46
 70
     1
102
RTVSPost2010Prop47
 90
       50
102
RTVSPost2010PropOp47
 70
     1
102
RTVSPost2010Prop48
 90
       50
102
RTVSPost2010PropOp48
 70
     1
102
RTVSPost2010Prop49
280
     0
102
RTVSPost2010PropOp49
 70
     1
102
RTVSPost2010Prop50
 90
       50
102
RTVSPost2010PropOp50
 70
     1
102
RTVSPost2010Prop51ColorIndex
 90
      256
102
RTVSPost2010Prop51ColorRGB
 90
-16777216
102
RTVSPost2010PropOp51
 70
     0
102
RTVSPost2010Prop52
140
1.0
102
RTVSPost2010PropOp52
 70
     0
102
RTVSPost2010Prop53
 90
        2
102
RTVSPost2010PropOp53
 70
     1
102
RTVSPost2010Prop54
  1
strokes_ogs.tif
102
RTVSPost2010PropOp54
 70
     1
102
RTVSPost2010Prop55
280
     0
102
RTVSPost2010PropOp55
 70
     1
102
RTVSPost2010Prop56
140
1.0
102
RTVSPost2010PropOp56
 70
     1
102
RTVSPost2010Prop57
140
1.0
102
RTVSPost2010PropOp57
 70
     1
  0
XRECORD
  5
58D
102
{ACAD_REACTORS
330
58C
102
}
330
58C
100
AcDbXrecord
280
     1
102
RTVSPropertyOp0
 70
     1
102
RTVSPropertyOp1
 70
     1
102
RTVSPropertyOp2
 70
     1
102
RTVSPropertyOp3
 70
     1
102
RTVSPropertyOp4
 70
     1
102
RTVSPropertyOp5
 70
     1
102
RTVSPropertyOp6
 70
     1
102
RTVSPropertyOp7
 70
     1
102
RTVSPropertyOp8
 70
     1
102
RTVSPropertyOp9
 70
     1
102
RTVSPropertyOp10
 70
     1
102
RTVSPropertyOp11
 70
     1
102
RTVSPropertyOp12
 70
     1
102
RTVSPropertyOp13
 70
     1
102
RTVSPropertyOp14
 70
     1
102
RTVSPropertyOp15
 70
     1
102
RTVSPropertyOp16
 70
     1
102
RTVSPropertyOp17
 70
     1
102
RTVSPropertyOp18
 70
     1
102
RTVSPropertyOp19
 70
     1
102
RTVSPropertyOp20
 70
     1
102
RTVSPropertyOp21
 70
     1
102
RTVSPropertyOp22
 70
     1
102
RTVSPropertyOp23
 70
     1
102
RTVSPropertyOp24
 70
     1
102
RTVSPropertyOp25
 70
     1
102
RTVSPropertyOp26
 70
     1
102
RTVSPropertyOp27
 70
     1
102
RTVSPropertyOp28
 70
     1
102
RTVSPropertyOp29
 70
     1
102
RTVSPropertyOp30
 70
     1
102
RTVSPropertyOp31
 70
     1
102
RTVSPropertyOp32
 70
     1
102
RTVSPropertyOp33
 70
     1
102
RTVSPropertyOp34
 70
     1
102
RTVSPropertyOp35
 70
     1
102
RTVSPropertyOp36
 70
     1
102
RTVSPropertyOp37
 70
     1
102
RTVSPropertyOp38
 70
     1
102
RTVSPropertyOp39
 70
     1
102
RTVSPropertyOp40
 70
     1
102
RTVSPropertyOp41
 70
     1
102
RTVSPropertyOp42
 70
     1
102
RTVSPropertyOp43
 70
     1
102
RTVSPropertyOp44
 70
     1
102
RTVSPropertyOp45
 70
     1
102
RTVSPropertyOp46
 70
     1
102
RTVSPropertyOp47
 70
     1
102
RTVSPropertyOp48
 70
     1
102
RTVSPropertyOp49
 70
     1
102
RTVSPropertyOp50
 70
     1
102
RTVSPropertyOp51
 70
     0
102
RTVSPropertyOp52
 70
     0
102
RTVSPropertyOp53
 70
     1
102
RTVSPropertyOp54
 70
     1
102
RTVSPropertyOp55
 70
     1
102
RTVSPropertyOp56
 70
     1
102
RTVSPropertyOp57
 70
     1
102
RTVSPost2010Prop28
280
     0
102
RTVSPost2010PropOp28
 70
     1
102
RTVSPost2010Prop29
280
     1
102
RTVSPost2010PropOp29
 70
     1
102
RTVSPost2010Prop30
280
     1
102
RTVSPost2010PropOp30
 70
     1
102
RTVSPost2010Prop31
280
     0
102
RTVSPost2010PropOp31
 70
     1
102
RTVSPost2010Prop32
280
     0
102
RTVSPost2010PropOp32
 70
     1
102
RTVSPost2010Prop33
280
     0
102
RTVSPost2010PropOp33
 70
     1
102
RTVSPost2010Prop34
280
     0
102
RTVSPost2010PropOp34
 70
     1
102
RTVSPost2010Prop35
280
     0
102
RTVSPost2010PropOp35
 70
     1
102
RTVSPost2010Prop36
280
     0
102
RTVSPost2010PropOp36
 70
     1
102
RTVSPost2010Prop37
 90
       50
102
RTVSPost2010PropOp37
 70
     1
102
RTVSPost2010Prop38
140
0.0
102
RTVSPost2010PropOp38
 70
     1
102
RTVSPost2010Prop39
140
1.0
102
RTVSPost2010PropOp39
 70
     1
102
RTVSPost2010Prop40
 90
        0
102
RTVSPost2010PropOp40
 70
     1
102
RTVSPost2010Prop41ColorIndex
 90
       18
102
RTVSPost2010Prop41ColorRGB
 90
        0
102
RTVSPost2010PropOp41
 70
     1
102
RTVSPost2010Prop42
 90
       50
102
RTVSPost2010PropOp42
 70
     1
102
RTVSPost2010Prop43
 90
        3
102
RTVSPost2010PropOp43
 70
     1
102
RTVSPost2010Prop44ColorIndex
 90
        5
102
RTVSPost2010Prop44ColorRGB
 90
      255
102
RTVSPost2010PropOp44
 70
     1
102
RTVSPost2010Prop45
280
     0
102
RTVSPost2010PropOp45
 70
     1
102
RTVSPost2010Prop46
 90
       50
102
RTVSPost2010PropOp46
 70
     1
102
RTVSPost2010Prop47
 90
       50
102
RTVSPost2010PropOp47
 70
     1
102
RTVSPost2010Prop48
 90
       50
102
RTVSPost2010PropOp48
 70
     1
102
RTVSPost2010Prop49
280
     0
102
RTVSPost2010PropOp49
 70
     1
102
RTVSPost2010Prop50
 90
       50
102
RTVSPost2010PropOp50
 70
     1
102
RTVSPost2010Prop51ColorIndex
 90
      256
102
RTVSPost2010Prop51ColorRGB
 90
-16777216
102
RTVSPost2010PropOp51
 70
     0
102
RTVSPost2010Prop52
140
1.0
102
RTVSPost2010PropOp52
 70
     0
102
RTVSPost2010Prop53
 90
        2
102
RTVSPost2010PropOp53
 70
     1
102
RTVSPost2010Prop54
  1
strokes_ogs.tif
102
RTVSPost2010PropOp54
 70
     1
102
RTVSPost2010Prop55
280
     0
102
RTVSPost2010PropOp55
 70
     1
102
RTVSPost2010Prop56
140
1.0
102
RTVSPost2010PropOp56
 70
     1
102
RTVSPost2010Prop57
140
1.0
102
RTVSPost2010PropOp57
 70
     1
  0
XRECORD
  5
571
102
{ACAD_REACTORS
330
570
102
}
330
570
100
AcDbXrecord
280
     1
102
RTVSPropertyOp0
 70
     1
102
RTVSPropertyOp1
 70
     1
102
RTVSPropertyOp2
 70
     1
102
RTVSPropertyOp3
 70
     1
102
RTVSPropertyOp4
 70
     1
102
RTVSPropertyOp5
 70
     1
102
RTVSPropertyOp6
 70
     1
102
RTVSPropertyOp7
 70
     1
102
RTVSPropertyOp8
 70
     1
102
RTVSPropertyOp9
 70
     1
102
RTVSPropertyOp10
 70
     1
102
RTVSPropertyOp11
 70
     1
102
RTVSPropertyOp12
 70
     1
102
RTVSPropertyOp13
 70
     1
102
RTVSPropertyOp14
 70
     1
102
RTVSPropertyOp15
 70
     1
102
RTVSPropertyOp16
 70
     1
102
RTVSPropertyOp17
 70
     1
102
RTVSPropertyOp18
 70
     1
102
RTVSPropertyOp19
 70
     1
102
RTVSPropertyOp20
 70
     1
102
RTVSPropertyOp21
 70
     1
102
RTVSPropertyOp22
 70
     1
102
RTVSPropertyOp23
 70
     1
102
RTVSPropertyOp24
 70
     1
102
RTVSPropertyOp25
 70
     1
102
RTVSPropertyOp26
 70
     1
102
RTVSPropertyOp27
 70
     1
102
RTVSPropertyOp28
 70
     1
102
RTVSPropertyOp29
 70
     1
102
RTVSPropertyOp30
 70
     1
102
RTVSPropertyOp31
 70
     1
102
RTVSPropertyOp32
 70
     1
102
RTVSPropertyOp33
 70
     1
102
RTVSPropertyOp34
 70
     1
102
RTVSPropertyOp35
 70
     1
102
RTVSPropertyOp36
 70
     1
102
RTVSPropertyOp37
 70
     1
102
RTVSPropertyOp38
 70
     1
102
RTVSPropertyOp39
 70
     1
102
RTVSPropertyOp40
 70
     1
102
RTVSPropertyOp41
 70
     1
102
RTVSPropertyOp42
 70
     1
102
RTVSPropertyOp43
 70
     1
102
RTVSPropertyOp44
 70
     1
102
RTVSPropertyOp45
 70
     1
102
RTVSPropertyOp46
 70
     1
102
RTVSPropertyOp47
 70
     1
102
RTVSPropertyOp48
 70
     1
102
RTVSPropertyOp49
 70
     1
102
RTVSPropertyOp50
 70
     1
102
RTVSPropertyOp51
 70
     0
102
RTVSPropertyOp52
 70
     0
102
RTVSPropertyOp53
 70
     1
102
RTVSPropertyOp54
 70
     1
102
RTVSPropertyOp55
 70
     1
102
RTVSPropertyOp56
 70
     1
102
RTVSPropertyOp57
 70
     1
102
RTVSPost2010Prop28
280
     0
102
RTVSPost2010PropOp28
 70
     1
102
RTVSPost2010Prop29
280
     1
102
RTVSPost2010PropOp29
 70
     1
102
RTVSPost2010Prop30
280
     1
102
RTVSPost2010PropOp30
 70
     1
102
RTVSPost2010Prop31
280
     0
102
RTVSPost2010PropOp31
 70
     1
102
RTVSPost2010Prop32
280
     0
102
RTVSPost2010PropOp32
 70
     1
102
RTVSPost2010Prop33
280
     0
102
RTVSPost2010PropOp33
 70
     1
102
RTVSPost2010Prop34
280
     0
102
RTVSPost2010PropOp34
 70
     1
102
RTVSPost2010Prop35
280
     0
102
RTVSPost2010PropOp35
 70
     1
102
RTVSPost2010Prop36
280
     0
102
RTVSPost2010PropOp36
 70
     1
102
RTVSPost2010Prop37
 90
       50
102
RTVSPost2010PropOp37
 70
     1
102
RTVSPost2010Prop38
140
0.0
102
RTVSPost2010PropOp38
 70
     1
102
RTVSPost2010Prop39
140
1.0
102
RTVSPost2010PropOp39
 70
     1
102
RTVSPost2010Prop40
 90
        0
102
RTVSPost2010PropOp40
 70
     1
102
RTVSPost2010Prop41ColorIndex
 90
       18
102
RTVSPost2010Prop41ColorRGB
 90
        0
102
RTVSPost2010PropOp41
 70
     1
102
RTVSPost2010Prop42
 90
       50
102
RTVSPost2010PropOp42
 70
     1
102
RTVSPost2010Prop43
 90
        3
102
RTVSPost2010PropOp43
 70
     1
102
RTVSPost2010Prop44ColorIndex
 90
        5
102
RTVSPost2010Prop44ColorRGB
 90
      255
102
RTVSPost2010PropOp44
 70
     1
102
RTVSPost2010Prop45
280
     0
102
RTVSPost2010PropOp45
 70
     1
102
RTVSPost2010Prop46
 90
       50
102
RTVSPost2010PropOp46
 70
     1
102
RTVSPost2010Prop47
 90
       50
102
RTVSPost2010PropOp47
 70
     1
102
RTVSPost2010Prop48
 90
       50
102
RTVSPost2010PropOp48
 70
     1
102
RTVSPost2010Prop49
280
     0
102
RTVSPost2010PropOp49
 70
     1
102
RTVSPost2010Prop50
 90
       50
102
RTVSPost2010PropOp50
 70
     1
102
RTVSPost2010Prop51ColorIndex
 90
      256
102
RTVSPost2010Prop51ColorRGB
 90
-16777216
102
RTVSPost2010PropOp51
 70
     0
102
RTVSPost2010Prop52
140
1.0
102
RTVSPost2010PropOp52
 70
     0
102
RTVSPost2010Prop53
 90
        2
102
RTVSPost2010PropOp53
 70
     1
102
RTVSPost2010Prop54
  1
strokes_ogs.tif
102
RTVSPost2010PropOp54
 70
     1
102
RTVSPost2010Prop55
280
     0
102
RTVSPost2010PropOp55
 70
     1
102
RTVSPost2010Prop56
140
1.0
102
RTVSPost2010PropOp56
 70
     1
102
RTVSPost2010Prop57
140
1.0
102
RTVSPost2010PropOp57
 70
     1
  0
XRECORD
  5
573
102
{ACAD_REACTORS
330
572
102
}
330
572
100
AcDbXrecord
280
     1
102
RTVSPropertyOp0
 70
     1
102
RTVSPropertyOp1
 70
     1
102
RTVSPropertyOp2
 70
     1
102
RTVSPropertyOp3
 70
     1
102
RTVSPropertyOp4
 70
     1
102
RTVSPropertyOp5
 70
     1
102
RTVSPropertyOp6
 70
     1
102
RTVSPropertyOp7
 70
     1
102
RTVSPropertyOp8
 70
     1
102
RTVSPropertyOp9
 70
     1
102
RTVSPropertyOp10
 70
     1
102
RTVSPropertyOp11
 70
     1
102
RTVSPropertyOp12
 70
     1
102
RTVSPropertyOp13
 70
     1
102
RTVSPropertyOp14
 70
     1
102
RTVSPropertyOp15
 70
     1
102
RTVSPropertyOp16
 70
     1
102
RTVSPropertyOp17
 70
     1
102
RTVSPropertyOp18
 70
     1
102
RTVSPropertyOp19
 70
     1
102
RTVSPropertyOp20
 70
     1
102
RTVSPropertyOp21
 70
     1
102
RTVSPropertyOp22
 70
     1
102
RTVSPropertyOp23
 70
     1
102
RTVSPropertyOp24
 70
     1
102
RTVSPropertyOp25
 70
     1
102
RTVSPropertyOp26
 70
     1
102
RTVSPropertyOp27
 70
     1
102
RTVSPropertyOp28
 70
     1
102
RTVSPropertyOp29
 70
     1
102
RTVSPropertyOp30
 70
     1
102
RTVSPropertyOp31
 70
     1
102
RTVSPropertyOp32
 70
     1
102
RTVSPropertyOp33
 70
     1
102
RTVSPropertyOp34
 70
     1
102
RTVSPropertyOp35
 70
     1
102
RTVSPropertyOp36
 70
     1
102
RTVSPropertyOp37
 70
     1
102
RTVSPropertyOp38
 70
     1
102
RTVSPropertyOp39
 70
     1
102
RTVSPropertyOp40
 70
     1
102
RTVSPropertyOp41
 70
     1
102
RTVSPropertyOp42
 70
     1
102
RTVSPropertyOp43
 70
     1
102
RTVSPropertyOp44
 70
     1
102
RTVSPropertyOp45
 70
     1
102
RTVSPropertyOp46
 70
     1
102
RTVSPropertyOp47
 70
     1
102
RTVSPropertyOp48
 70
     1
102
RTVSPropertyOp49
 70
     1
102
RTVSPropertyOp50
 70
     1
102
RTVSPropertyOp51
 70
     0
102
RTVSPropertyOp52
 70
     0
102
RTVSPropertyOp53
 70
     1
102
RTVSPropertyOp54
 70
     1
102
RTVSPropertyOp55
 70
     1
102
RTVSPropertyOp56
 70
     1
102
RTVSPropertyOp57
 70
     1
102
RTVSPost2010Prop28
280
     0
102
RTVSPost2010PropOp28
 70
     1
102
RTVSPost2010Prop29
280
     1
102
RTVSPost2010PropOp29
 70
     1
102
RTVSPost2010Prop30
280
     1
102
RTVSPost2010PropOp30
 70
     1
102
RTVSPost2010Prop31
280
     0
102
RTVSPost2010PropOp31
 70
     1
102
RTVSPost2010Prop32
280
     0
102
RTVSPost2010PropOp32
 70
     1
102
RTVSPost2010Prop33
280
     0
102
RTVSPost2010PropOp33
 70
     1
102
RTVSPost2010Prop34
280
     0
102
RTVSPost2010PropOp34
 70
     1
102
RTVSPost2010Prop35
280
     0
102
RTVSPost2010PropOp35
 70
     1
102
RTVSPost2010Prop36
280
     0
102
RTVSPost2010PropOp36
 70
     1
102
RTVSPost2010Prop37
 90
       50
102
RTVSPost2010PropOp37
 70
     1
102
RTVSPost2010Prop38
140
0.0
102
RTVSPost2010PropOp38
 70
     1
102
RTVSPost2010Prop39
140
1.0
102
RTVSPost2010PropOp39
 70
     1
102
RTVSPost2010Prop40
 90
        0
102
RTVSPost2010PropOp40
 70
     1
102
RTVSPost2010Prop41ColorIndex
 90
       18
102
RTVSPost2010Prop41ColorRGB
 90
        0
102
RTVSPost2010PropOp41
 70
     1
102
RTVSPost2010Prop42
 90
       50
102
RTVSPost2010PropOp42
 70
     1
102
RTVSPost2010Prop43
 90
        3
102
RTVSPost2010PropOp43
 70
     1
102
RTVSPost2010Prop44ColorIndex
 90
        5
102
RTVSPost2010Prop44ColorRGB
 90
      255
102
RTVSPost2010PropOp44
 70
     1
102
RTVSPost2010Prop45
280
     0
102
RTVSPost2010PropOp45
 70
     1
102
RTVSPost2010Prop46
 90
       50
102
RTVSPost2010PropOp46
 70
     1
102
RTVSPost2010Prop47
 90
       50
102
RTVSPost2010PropOp47
 70
     1
102
RTVSPost2010Prop48
 90
       50
102
RTVSPost2010PropOp48
 70
     1
102
RTVSPost2010Prop49
280
     0
102
RTVSPost2010PropOp49
 70
     1
102
RTVSPost2010Prop50
 90
       50
102
RTVSPost2010PropOp50
 70
     1
102
RTVSPost2010Prop51ColorIndex
 90
      256
102
RTVSPost2010Prop51ColorRGB
 90
-16777216
102
RTVSPost2010PropOp51
 70
     0
102
RTVSPost2010Prop52
140
1.0
102
RTVSPost2010PropOp52
 70
     0
102
RTVSPost2010Prop53
 90
        2
102
RTVSPost2010PropOp53
 70
     1
102
RTVSPost2010Prop54
  1
strokes_ogs.tif
102
RTVSPost2010PropOp54
 70
     1
102
RTVSPost2010Prop55
280
     0
102
RTVSPost2010PropOp55
 70
     1
102
RTVSPost2010Prop56
140
1.0
102
RTVSPost2010PropOp56
 70
     1
102
RTVSPost2010Prop57
140
1.0
102
RTVSPost2010PropOp57
 70
     1
  0
XRECORD
  5
575
102
{ACAD_REACTORS
330
574
102
}
330
574
100
AcDbXrecord
280
     1
102
RTVSPropertyOp0
 70
     1
102
RTVSPropertyOp1
 70
     1
102
RTVSPropertyOp2
 70
     1
102
RTVSPropertyOp3
 70
     1
102
RTVSPropertyOp4
 70
     1
102
RTVSPropertyOp5
 70
     1
102
RTVSPropertyOp6
 70
     1
102
RTVSPropertyOp7
 70
     1
102
RTVSPropertyOp8
 70
     1
102
RTVSPropertyOp9
 70
     1
102
RTVSPropertyOp10
 70
     1
102
RTVSPropertyOp11
 70
     1
102
RTVSPropertyOp12
 70
     1
102
RTVSPropertyOp13
 70
     1
102
RTVSPropertyOp14
 70
     1
102
RTVSPropertyOp15
 70
     1
102
RTVSPropertyOp16
 70
     1
102
RTVSPropertyOp17
 70
     1
102
RTVSPropertyOp18
 70
     1
102
RTVSPropertyOp19
 70
     1
102
RTVSPropertyOp20
 70
     1
102
RTVSPropertyOp21
 70
     1
102
RTVSPropertyOp22
 70
     1
102
RTVSPropertyOp23
 70
     1
102
RTVSPropertyOp24
 70
     1
102
RTVSPropertyOp25
 70
     1
102
RTVSPropertyOp26
 70
     1
102
RTVSPropertyOp27
 70
     1
102
RTVSPropertyOp28
 70
     1
102
RTVSPropertyOp29
 70
     1
102
RTVSPropertyOp30
 70
     1
102
RTVSPropertyOp31
 70
     1
102
RTVSPropertyOp32
 70
     1
102
RTVSPropertyOp33
 70
     1
102
RTVSPropertyOp34
 70
     1
102
RTVSPropertyOp35
 70
     1
102
RTVSPropertyOp36
 70
     1
102
RTVSPropertyOp37
 70
     1
102
RTVSPropertyOp38
 70
     1
102
RTVSPropertyOp39
 70
     1
102
RTVSPropertyOp40
 70
     1
102
RTVSPropertyOp41
 70
     1
102
RTVSPropertyOp42
 70
     1
102
RTVSPropertyOp43
 70
     1
102
RTVSPropertyOp44
 70
     1
102
RTVSPropertyOp45
 70
     1
102
RTVSPropertyOp46
 70
     1
102
RTVSPropertyOp47
 70
     1
102
RTVSPropertyOp48
 70
     1
102
RTVSPropertyOp49
 70
     1
102
RTVSPropertyOp50
 70
     1
102
RTVSPropertyOp51
 70
     0
102
RTVSPropertyOp52
 70
     0
102
RTVSPropertyOp53
 70
     1
102
RTVSPropertyOp54
 70
     1
102
RTVSPropertyOp55
 70
     1
102
RTVSPropertyOp56
 70
     1
102
RTVSPropertyOp57
 70
     1
102
RTVSPost2010Prop28
280
     0
102
RTVSPost2010PropOp28
 70
     1
102
RTVSPost2010Prop29
280
     1
102
RTVSPost2010PropOp29
 70
     1
102
RTVSPost2010Prop30
280
     1
102
RTVSPost2010PropOp30
 70
     1
102
RTVSPost2010Prop31
280
     0
102
RTVSPost2010PropOp31
 70
     1
102
RTVSPost2010Prop32
280
     0
102
RTVSPost2010PropOp32
 70
     1
102
RTVSPost2010Prop33
280
     0
102
RTVSPost2010PropOp33
 70
     1
102
RTVSPost2010Prop34
280
     0
102
RTVSPost2010PropOp34
 70
     1
102
RTVSPost2010Prop35
280
     0
102
RTVSPost2010PropOp35
 70
     1
102
RTVSPost2010Prop36
280
     0
102
RTVSPost2010PropOp36
 70
     1
102
RTVSPost2010Prop37
 90
       50
102
RTVSPost2010PropOp37
 70
     1
102
RTVSPost2010Prop38
140
0.0
102
RTVSPost2010PropOp38
 70
     1
102
RTVSPost2010Prop39
140
1.0
102
RTVSPost2010PropOp39
 70
     1
102
RTVSPost2010Prop40
 90
        0
102
RTVSPost2010PropOp40
 70
     1
102
RTVSPost2010Prop41ColorIndex
 90
       18
102
RTVSPost2010Prop41ColorRGB
 90
        0
102
RTVSPost2010PropOp41
 70
     1
102
RTVSPost2010Prop42
 90
       50
102
RTVSPost2010PropOp42
 70
     1
102
RTVSPost2010Prop43
 90
        3
102
RTVSPost2010PropOp43
 70
     1
102
RTVSPost2010Prop44ColorIndex
 90
        5
102
RTVSPost2010Prop44ColorRGB
 90
      255
102
RTVSPost2010PropOp44
 70
     1
102
RTVSPost2010Prop45
280
     0
102
RTVSPost2010PropOp45
 70
     1
102
RTVSPost2010Prop46
 90
       50
102
RTVSPost2010PropOp46
 70
     1
102
RTVSPost2010Prop47
 90
       50
102
RTVSPost2010PropOp47
 70
     1
102
RTVSPost2010Prop48
 90
       50
102
RTVSPost2010PropOp48
 70
     1
102
RTVSPost2010Prop49
280
     0
102
RTVSPost2010PropOp49
 70
     1
102
RTVSPost2010Prop50
 90
       50
102
RTVSPost2010PropOp50
 70
     1
102
RTVSPost2010Prop51ColorIndex
 90
      256
102
RTVSPost2010Prop51ColorRGB
 90
-16777216
102
RTVSPost2010PropOp51
 70
     0
102
RTVSPost2010Prop52
140
1.0
102
RTVSPost2010PropOp52
 70
     0
102
RTVSPost2010Prop53
 90
        2
102
RTVSPost2010PropOp53
 70
     1
102
RTVSPost2010Prop54
  1
strokes_ogs.tif
102
RTVSPost2010PropOp54
 70
     1
102
RTVSPost2010Prop55
280
     0
102
RTVSPost2010PropOp55
 70
     1
102
RTVSPost2010Prop56
140
1.0
102
RTVSPost2010PropOp56
 70
     1
102
RTVSPost2010Prop57
140
1.0
102
RTVSPost2010PropOp57
 70
     1
  0
XRECORD
  5
577
102
{ACAD_REACTORS
330
576
102
}
330
576
100
AcDbXrecord
280
     1
102
RTVSPropertyOp0
 70
     1
102
RTVSPropertyOp1
 70
     1
102
RTVSPropertyOp2
 70
     1
102
RTVSPropertyOp3
 70
     1
102
RTVSPropertyOp4
 70
     1
102
RTVSPropertyOp5
 70
     1
102
RTVSPropertyOp6
 70
     1
102
RTVSPropertyOp7
 70
     1
102
RTVSPropertyOp8
 70
     1
102
RTVSPropertyOp9
 70
     1
102
RTVSPropertyOp10
 70
     1
102
RTVSPropertyOp11
 70
     1
102
RTVSPropertyOp12
 70
     1
102
RTVSPropertyOp13
 70
     1
102
RTVSPropertyOp14
 70
     1
102
RTVSPropertyOp15
 70
     1
102
RTVSPropertyOp16
 70
     1
102
RTVSPropertyOp17
 70
     1
102
RTVSPropertyOp18
 70
     1
102
RTVSPropertyOp19
 70
     1
102
RTVSPropertyOp20
 70
     1
102
RTVSPropertyOp21
 70
     1
102
RTVSPropertyOp22
 70
     1
102
RTVSPropertyOp23
 70
     1
102
RTVSPropertyOp24
 70
     1
102
RTVSPropertyOp25
 70
     1
102
RTVSPropertyOp26
 70
     1
102
RTVSPropertyOp27
 70
     1
102
RTVSPropertyOp28
 70
     1
102
RTVSPropertyOp29
 70
     1
102
RTVSPropertyOp30
 70
     1
102
RTVSPropertyOp31
 70
     1
102
RTVSPropertyOp32
 70
     1
102
RTVSPropertyOp33
 70
     1
102
RTVSPropertyOp34
 70
     1
102
RTVSPropertyOp35
 70
     1
102
RTVSPropertyOp36
 70
     1
102
RTVSPropertyOp37
 70
     1
102
RTVSPropertyOp38
 70
     1
102
RTVSPropertyOp39
 70
     1
102
RTVSPropertyOp40
 70
     1
102
RTVSPropertyOp41
 70
     1
102
RTVSPropertyOp42
 70
     1
102
RTVSPropertyOp43
 70
     1
102
RTVSPropertyOp44
 70
     1
102
RTVSPropertyOp45
 70
     1
102
RTVSPropertyOp46
 70
     1
102
RTVSPropertyOp47
 70
     1
102
RTVSPropertyOp48
 70
     1
102
RTVSPropertyOp49
 70
     1
102
RTVSPropertyOp50
 70
     1
102
RTVSPropertyOp51
 70
     0
102
RTVSPropertyOp52
 70
     0
102
RTVSPropertyOp53
 70
     1
102
RTVSPropertyOp54
 70
     1
102
RTVSPropertyOp55
 70
     1
102
RTVSPropertyOp56
 70
     1
102
RTVSPropertyOp57
 70
     1
102
RTVSPost2010Prop28
280
     0
102
RTVSPost2010PropOp28
 70
     1
102
RTVSPost2010Prop29
280
     1
102
RTVSPost2010PropOp29
 70
     1
102
RTVSPost2010Prop30
280
     1
102
RTVSPost2010PropOp30
 70
     1
102
RTVSPost2010Prop31
280
     0
102
RTVSPost2010PropOp31
 70
     1
102
RTVSPost2010Prop32
280
     0
102
RTVSPost2010PropOp32
 70
     1
102
RTVSPost2010Prop33
280
     0
102
RTVSPost2010PropOp33
 70
     1
102
RTVSPost2010Prop34
280
     0
102
RTVSPost2010PropOp34
 70
     1
102
RTVSPost2010Prop35
280
     0
102
RTVSPost2010PropOp35
 70
     1
102
RTVSPost2010Prop36
280
     0
102
RTVSPost2010PropOp36
 70
     1
102
RTVSPost2010Prop37
 90
       50
102
RTVSPost2010PropOp37
 70
     1
102
RTVSPost2010Prop38
140
0.0
102
RTVSPost2010PropOp38
 70
     1
102
RTVSPost2010Prop39
140
1.0
102
RTVSPost2010PropOp39
 70
     1
102
RTVSPost2010Prop40
 90
        0
102
RTVSPost2010PropOp40
 70
     1
102
RTVSPost2010Prop41ColorIndex
 90
       18
102
RTVSPost2010Prop41ColorRGB
 90
        0
102
RTVSPost2010PropOp41
 70
     1
102
RTVSPost2010Prop42
 90
       50
102
RTVSPost2010PropOp42
 70
     1
102
RTVSPost2010Prop43
 90
        3
102
RTVSPost2010PropOp43
 70
     1
102
RTVSPost2010Prop44ColorIndex
 90
        5
102
RTVSPost2010Prop44ColorRGB
 90
      255
102
RTVSPost2010PropOp44
 70
     1
102
RTVSPost2010Prop45
280
     0
102
RTVSPost2010PropOp45
 70
     1
102
RTVSPost2010Prop46
 90
       50
102
RTVSPost2010PropOp46
 70
     1
102
RTVSPost2010Prop47
 90
       50
102
RTVSPost2010PropOp47
 70
     1
102
RTVSPost2010Prop48
 90
       50
102
RTVSPost2010PropOp48
 70
     1
102
RTVSPost2010Prop49
280
     0
102
RTVSPost2010PropOp49
 70
     1
102
RTVSPost2010Prop50
 90
       50
102
RTVSPost2010PropOp50
 70
     1
102
RTVSPost2010Prop51ColorIndex
 90
      256
102
RTVSPost2010Prop51ColorRGB
 90
-16777216
102
RTVSPost2010PropOp51
 70
     0
102
RTVSPost2010Prop52
140
1.0
102
RTVSPost2010PropOp52
 70
     0
102
RTVSPost2010Prop53
 90
        2
102
RTVSPost2010PropOp53
 70
     1
102
RTVSPost2010Prop54
  1
strokes_ogs.tif
102
RTVSPost2010PropOp54
 70
     1
102
RTVSPost2010Prop55
280
     0
102
RTVSPost2010PropOp55
 70
     1
102
RTVSPost2010Prop56
140
1.0
102
RTVSPost2010PropOp56
 70
     1
102
RTVSPost2010Prop57
140
1.0
102
RTVSPost2010PropOp57
 70
     1
  0
XRECORD
  5
57D
102
{ACAD_REACTORS
330
57C
102
}
330
57C
100
AcDbXrecord
280
     1
102
RTVSPropertyOp0
 70
     1
102
RTVSPropertyOp1
 70
     1
102
RTVSPropertyOp2
 70
     1
102
RTVSPropertyOp3
 70
     1
102
RTVSPropertyOp4
 70
     1
102
RTVSPropertyOp5
 70
     1
102
RTVSPropertyOp6
 70
     1
102
RTVSPropertyOp7
 70
     1
102
RTVSPropertyOp8
 70
     1
102
RTVSPropertyOp9
 70
     1
102
RTVSPropertyOp10
 70
     1
102
RTVSPropertyOp11
 70
     1
102
RTVSPropertyOp12
 70
     1
102
RTVSPropertyOp13
 70
     1
102
RTVSPropertyOp14
 70
     1
102
RTVSPropertyOp15
 70
     1
102
RTVSPropertyOp16
 70
     1
102
RTVSPropertyOp17
 70
     1
102
RTVSPropertyOp18
 70
     1
102
RTVSPropertyOp19
 70
     1
102
RTVSPropertyOp20
 70
     1
102
RTVSPropertyOp21
 70
     1
102
RTVSPropertyOp22
 70
     1
102
RTVSPropertyOp23
 70
     1
102
RTVSPropertyOp24
 70
     1
102
RTVSPropertyOp25
 70
     1
102
RTVSPropertyOp26
 70
     1
102
RTVSPropertyOp27
 70
     1
102
RTVSPropertyOp28
 70
     1
102
RTVSPropertyOp29
 70
     1
102
RTVSPropertyOp30
 70
     1
102
RTVSPropertyOp31
 70
     1
102
RTVSPropertyOp32
 70
     1
102
RTVSPropertyOp33
 70
     1
102
RTVSPropertyOp34
 70
     1
102
RTVSPropertyOp35
 70
     1
102
RTVSPropertyOp36
 70
     1
102
RTVSPropertyOp37
 70
     1
102
RTVSPropertyOp38
 70
     1
102
RTVSPropertyOp39
 70
     1
102
RTVSPropertyOp40
 70
     1
102
RTVSPropertyOp41
 70
     1
102
RTVSPropertyOp42
 70
     1
102
RTVSPropertyOp43
 70
     1
102
RTVSPropertyOp44
 70
     1
102
RTVSPropertyOp45
 70
     1
102
RTVSPropertyOp46
 70
     1
102
RTVSPropertyOp47
 70
     1
102
RTVSPropertyOp48
 70
     1
102
RTVSPropertyOp49
 70
     1
102
RTVSPropertyOp50
 70
     1
102
RTVSPropertyOp51
 70
     0
102
RTVSPropertyOp52
 70
     0
102
RTVSPropertyOp53
 70
     1
102
RTVSPropertyOp54
 70
     1
102
RTVSPropertyOp55
 70
     1
102
RTVSPropertyOp56
 70
     1
102
RTVSPropertyOp57
 70
     1
102
RTVSPost2010Prop28
280
     0
102
RTVSPost2010PropOp28
 70
     1
102
RTVSPost2010Prop29
280
     1
102
RTVSPost2010PropOp29
 70
     1
102
RTVSPost2010Prop30
280
     1
102
RTVSPost2010PropOp30
 70
     1
102
RTVSPost2010Prop31
280
     0
102
RTVSPost2010PropOp31
 70
     1
102
RTVSPost2010Prop32
280
     0
102
RTVSPost2010PropOp32
 70
     1
102
RTVSPost2010Prop33
280
     0
102
RTVSPost2010PropOp33
 70
     1
102
RTVSPost2010Prop34
280
     0
102
RTVSPost2010PropOp34
 70
     1
102
RTVSPost2010Prop35
280
     0
102
RTVSPost2010PropOp35
 70
     1
102
RTVSPost2010Prop36
280
     0
102
RTVSPost2010PropOp36
 70
     1
102
RTVSPost2010Prop37
 90
       50
102
RTVSPost2010PropOp37
 70
     1
102
RTVSPost2010Prop38
140
0.0
102
RTVSPost2010PropOp38
 70
     1
102
RTVSPost2010Prop39
140
1.0
102
RTVSPost2010PropOp39
 70
     1
102
RTVSPost2010Prop40
 90
        0
102
RTVSPost2010PropOp40
 70
     1
102
RTVSPost2010Prop41ColorIndex
 90
       18
102
RTVSPost2010Prop41ColorRGB
 90
        0
102
RTVSPost2010PropOp41
 70
     1
102
RTVSPost2010Prop42
 90
       50
102
RTVSPost2010PropOp42
 70
     1
102
RTVSPost2010Prop43
 90
        3
102
RTVSPost2010PropOp43
 70
     1
102
RTVSPost2010Prop44ColorIndex
 90
        5
102
RTVSPost2010Prop44ColorRGB
 90
      255
102
RTVSPost2010PropOp44
 70
     1
102
RTVSPost2010Prop45
280
     0
102
RTVSPost2010PropOp45
 70
     1
102
RTVSPost2010Prop46
 90
       50
102
RTVSPost2010PropOp46
 70
     1
102
RTVSPost2010Prop47
 90
       50
102
RTVSPost2010PropOp47
 70
     1
102
RTVSPost2010Prop48
 90
       50
102
RTVSPost2010PropOp48
 70
     1
102
RTVSPost2010Prop49
280
     0
102
RTVSPost2010PropOp49
 70
     1
102
RTVSPost2010Prop50
 90
       50
102
RTVSPost2010PropOp50
 70
     1
102
RTVSPost2010Prop51ColorIndex
 90
      256
102
RTVSPost2010Prop51ColorRGB
 90
-16777216
102
RTVSPost2010PropOp51
 70
     0
102
RTVSPost2010Prop52
140
1.0
102
RTVSPost2010PropOp52
 70
     0
102
RTVSPost2010Prop53
 90
        2
102
RTVSPost2010PropOp53
 70
     1
102
RTVSPost2010Prop54
  1
strokes_ogs.tif
102
RTVSPost2010PropOp54
 70
     1
102
RTVSPost2010Prop55
280
     0
102
RTVSPost2010PropOp55
 70
     1
102
RTVSPost2010Prop56
140
1.0
102
RTVSPost2010PropOp56
 70
     1
102
RTVSPost2010Prop57
140
1.0
102
RTVSPost2010PropOp57
 70
     1
  0
XRECORD
  5
591
102
{ACAD_REACTORS
330
590
102
}
330
590
100
AcDbXrecord
280
     1
102
RTVSPropertyOp0
 70
     0
102
RTVSPropertyOp1
 70
     0
102
RTVSPropertyOp2
 70
     0
102
RTVSPropertyOp3
 70
     0
102
RTVSPropertyOp4
 70
     0
102
RTVSPropertyOp5
 70
     0
102
RTVSPropertyOp6
 70
     0
102
RTVSPropertyOp7
 70
     0
102
RTVSPropertyOp8
 70
     0
102
RTVSPropertyOp9
 70
     0
102
RTVSPropertyOp10
 70
     0
102
RTVSPropertyOp11
 70
     0
102
RTVSPropertyOp12
 70
     0
102
RTVSPropertyOp13
 70
     0
102
RTVSPropertyOp14
 70
     0
102
RTVSPropertyOp15
 70
     0
102
RTVSPropertyOp16
 70
     0
102
RTVSPropertyOp17
 70
     0
102
RTVSPropertyOp18
 70
     0
102
RTVSPropertyOp19
 70
     0
102
RTVSPropertyOp20
 70
     0
102
RTVSPropertyOp21
 70
     0
102
RTVSPropertyOp22
 70
     0
102
RTVSPropertyOp23
 70
     0
102
RTVSPropertyOp24
 70
     0
102
RTVSPropertyOp25
 70
     0
102
RTVSPropertyOp26
 70
     0
102
RTVSPropertyOp27
 70
     0
102
RTVSPropertyOp28
 70
     1
102
RTVSPropertyOp29
 70
     1
102
RTVSPropertyOp30
 70
     1
102
RTVSPropertyOp31
 70
     1
102
RTVSPropertyOp32
 70
     1
102
RTVSPropertyOp33
 70
     1
102
RTVSPropertyOp34
 70
     1
102
RTVSPropertyOp35
 70
     1
102
RTVSPropertyOp36
 70
     1
102
RTVSPropertyOp37
 70
     1
102
RTVSPropertyOp38
 70
     1
102
RTVSPropertyOp39
 70
     1
102
RTVSPropertyOp40
 70
     1
102
RTVSPropertyOp41
 70
     1
102
RTVSPropertyOp42
 70
     1
102
RTVSPropertyOp43
 70
     1
102
RTVSPropertyOp44
 70
     1
102
RTVSPropertyOp45
 70
     1
102
RTVSPropertyOp46
 70
     1
102
RTVSPropertyOp47
 70
     1
102
RTVSPropertyOp48
 70
     1
102
RTVSPropertyOp49
 70
     1
102
RTVSPropertyOp50
 70
     1
102
RTVSPropertyOp51
 70
     0
102
RTVSPropertyOp52
 70
     0
102
RTVSPropertyOp53
 70
     1
102
RTVSPropertyOp54
 70
     1
102
RTVSPropertyOp55
 70
     1
102
RTVSPropertyOp56
 70
     1
102
RTVSPropertyOp57
 70
     1
102
RTVSPost2010Prop28
280
     0
102
RTVSPost2010PropOp28
 70
     1
102
RTVSPost2010Prop29
280
     1
102
RTVSPost2010PropOp29
 70
     1
102
RTVSPost2010Prop30
280
     1
102
RTVSPost2010PropOp30
 70
     1
102
RTVSPost2010Prop31
280
     0
102
RTVSPost2010PropOp31
 70
     1
102
RTVSPost2010Prop32
280
     0
102
RTVSPost2010PropOp32
 70
     1
102
RTVSPost2010Prop33
280
     0
102
RTVSPost2010PropOp33
 70
     1
102
RTVSPost2010Prop34
280
     0
102
RTVSPost2010PropOp34
 70
     1
102
RTVSPost2010Prop35
280
     0
102
RTVSPost2010PropOp35
 70
     1
102
RTVSPost2010Prop36
280
     0
102
RTVSPost2010PropOp36
 70
     1
102
RTVSPost2010Prop37
 90
       50
102
RTVSPost2010PropOp37
 70
     1
102
RTVSPost2010Prop38
140
0.0
102
RTVSPost2010PropOp38
 70
     1
102
RTVSPost2010Prop39
140
1.0
102
RTVSPost2010PropOp39
 70
     1
102
RTVSPost2010Prop40
 90
        0
102
RTVSPost2010PropOp40
 70
     1
102
RTVSPost2010Prop41ColorIndex
 90
       18
102
RTVSPost2010Prop41ColorRGB
 90
        0
102
RTVSPost2010PropOp41
 70
     1
102
RTVSPost2010Prop42
 90
       50
102
RTVSPost2010PropOp42
 70
     1
102
RTVSPost2010Prop43
 90
        3
102
RTVSPost2010PropOp43
 70
     1
102
RTVSPost2010Prop44ColorIndex
 90
        5
102
RTVSPost2010Prop44ColorRGB
 90
      255
102
RTVSPost2010PropOp44
 70
     1
102
RTVSPost2010Prop45
280
     0
102
RTVSPost2010PropOp45
 70
     1
102
RTVSPost2010Prop46
 90
       50
102
RTVSPost2010PropOp46
 70
     1
102
RTVSPost2010Prop47
 90
       50
102
RTVSPost2010PropOp47
 70
     1
102
RTVSPost2010Prop48
 90
       50
102
RTVSPost2010PropOp48
 70
     1
102
RTVSPost2010Prop49
280
     0
102
RTVSPost2010PropOp49
 70
     1
102
RTVSPost2010Prop50
 90
       50
102
RTVSPost2010PropOp50
 70
     1
102
RTVSPost2010Prop51ColorIndex
 90
      256
102
RTVSPost2010Prop51ColorRGB
 90
-16777216
102
RTVSPost2010PropOp51
 70
     0
102
RTVSPost2010Prop52
140
1.0
102
RTVSPost2010PropOp52
 70
     0
102
RTVSPost2010Prop53
 90
        2
102
RTVSPost2010PropOp53
 70
     1
102
RTVSPost2010Prop54
  1
strokes_ogs.tif
102
RTVSPost2010PropOp54
 70
     1
102
RTVSPost2010Prop55
280
     0
102
RTVSPost2010PropOp55
 70
     1
102
RTVSPost2010Prop56
140
1.0
102
RTVSPost2010PropOp56
 70
     1
102
RTVSPost2010Prop57
140
1.0
102
RTVSPost2010PropOp57
 70
     1
  0
XRECORD
  5
58B
102
{ACAD_REACTORS
330
58A
102
}
330
58A
100
AcDbXrecord
280
     1
102
RTVSPropertyOp0
 70
     1
102
RTVSPropertyOp1
 70
     1
102
RTVSPropertyOp2
 70
     1
102
RTVSPropertyOp3
 70
     1
102
RTVSPropertyOp4
 70
     1
102
RTVSPropertyOp5
 70
     1
102
RTVSPropertyOp6
 70
     1
102
RTVSPropertyOp7
 70
     1
102
RTVSPropertyOp8
 70
     1
102
RTVSPropertyOp9
 70
     1
102
RTVSPropertyOp10
 70
     1
102
RTVSPropertyOp11
 70
     1
102
RTVSPropertyOp12
 70
     1
102
RTVSPropertyOp13
 70
     1
102
RTVSPropertyOp14
 70
     1
102
RTVSPropertyOp15
 70
     1
102
RTVSPropertyOp16
 70
     1
102
RTVSPropertyOp17
 70
     1
102
RTVSPropertyOp18
 70
     1
102
RTVSPropertyOp19
 70
     1
102
RTVSPropertyOp20
 70
     1
102
RTVSPropertyOp21
 70
     1
102
RTVSPropertyOp22
 70
     1
102
RTVSPropertyOp23
 70
     1
102
RTVSPropertyOp24
 70
     1
102
RTVSPropertyOp25
 70
     1
102
RTVSPropertyOp26
 70
     1
102
RTVSPropertyOp27
 70
     1
102
RTVSPropertyOp28
 70
     1
102
RTVSPropertyOp29
 70
     1
102
RTVSPropertyOp30
 70
     1
102
RTVSPropertyOp31
 70
     1
102
RTVSPropertyOp32
 70
     1
102
RTVSPropertyOp33
 70
     1
102
RTVSPropertyOp34
 70
     1
102
RTVSPropertyOp35
 70
     1
102
RTVSPropertyOp36
 70
     1
102
RTVSPropertyOp37
 70
     1
102
RTVSPropertyOp38
 70
     1
102
RTVSPropertyOp39
 70
     1
102
RTVSPropertyOp40
 70
     1
102
RTVSPropertyOp41
 70
     1
102
RTVSPropertyOp42
 70
     1
102
RTVSPropertyOp43
 70
     1
102
RTVSPropertyOp44
 70
     1
102
RTVSPropertyOp45
 70
     1
102
RTVSPropertyOp46
 70
     1
102
RTVSPropertyOp47
 70
     1
102
RTVSPropertyOp48
 70
     1
102
RTVSPropertyOp49
 70
     1
102
RTVSPropertyOp50
 70
     1
102
RTVSPropertyOp51
 70
     0
102
RTVSPropertyOp52
 70
     0
102
RTVSPropertyOp53
 70
     1
102
RTVSPropertyOp54
 70
     1
102
RTVSPropertyOp55
 70
     1
102
RTVSPropertyOp56
 70
     1
102
RTVSPropertyOp57
 70
     1
102
RTVSPost2010Prop28
280
     0
102
RTVSPost2010PropOp28
 70
     1
102
RTVSPost2010Prop29
280
     1
102
RTVSPost2010PropOp29
 70
     1
102
RTVSPost2010Prop30
280
     1
102
RTVSPost2010PropOp30
 70
     1
102
RTVSPost2010Prop31
280
     0
102
RTVSPost2010PropOp31
 70
     1
102
RTVSPost2010Prop32
280
     0
102
RTVSPost2010PropOp32
 70
     1
102
RTVSPost2010Prop33
280
     0
102
RTVSPost2010PropOp33
 70
     1
102
RTVSPost2010Prop34
280
     0
102
RTVSPost2010PropOp34
 70
     1
102
RTVSPost2010Prop35
280
     0
102
RTVSPost2010PropOp35
 70
     1
102
RTVSPost2010Prop36
280
     0
102
RTVSPost2010PropOp36
 70
     1
102
RTVSPost2010Prop37
 90
       50
102
RTVSPost2010PropOp37
 70
     1
102
RTVSPost2010Prop38
140
0.0
102
RTVSPost2010PropOp38
 70
     1
102
RTVSPost2010Prop39
140
1.0
102
RTVSPost2010PropOp39
 70
     1
102
RTVSPost2010Prop40
 90
        0
102
RTVSPost2010PropOp40
 70
     1
102
RTVSPost2010Prop41ColorIndex
 90
       18
102
RTVSPost2010Prop41ColorRGB
 90
        0
102
RTVSPost2010PropOp41
 70
     1
102
RTVSPost2010Prop42
 90
       50
102
RTVSPost2010PropOp42
 70
     1
102
RTVSPost2010Prop43
 90
        3
102
RTVSPost2010PropOp43
 70
     1
102
RTVSPost2010Prop44ColorIndex
 90
        5
102
RTVSPost2010Prop44ColorRGB
 90
      255
102
RTVSPost2010PropOp44
 70
     1
102
RTVSPost2010Prop45
280
     0
102
RTVSPost2010PropOp45
 70
     1
102
RTVSPost2010Prop46
 90
       50
102
RTVSPost2010PropOp46
 70
     1
102
RTVSPost2010Prop47
 90
       50
102
RTVSPost2010PropOp47
 70
     1
102
RTVSPost2010Prop48
 90
       50
102
RTVSPost2010PropOp48
 70
     1
102
RTVSPost2010Prop49
280
     0
102
RTVSPost2010PropOp49
 70
     1
102
RTVSPost2010Prop50
 90
       50
102
RTVSPost2010PropOp50
 70
     1
102
RTVSPost2010Prop51ColorIndex
 90
      256
102
RTVSPost2010Prop51ColorRGB
 90
-16777216
102
RTVSPost2010PropOp51
 70
     0
102
RTVSPost2010Prop52
140
1.0
102
RTVSPost2010PropOp52
 70
     0
102
RTVSPost2010Prop53
 90
        2
102
RTVSPost2010PropOp53
 70
     1
102
RTVSPost2010Prop54
  1
strokes_ogs.tif
102
RTVSPost2010PropOp54
 70
     1
102
RTVSPost2010Prop55
280
     0
102
RTVSPost2010PropOp55
 70
     1
102
RTVSPost2010Prop56
140
1.0
102
RTVSPost2010PropOp56
 70
     1
102
RTVSPost2010Prop57
140
1.0
102
RTVSPost2010PropOp57
 70
     1
  0
XRECORD
  5
593
102
{ACAD_REACTORS
330
592
102
}
330
592
100
AcDbXrecord
280
     1
102
RTVSPropertyOp0
 70
     0
102
RTVSPropertyOp1
 70
     0
102
RTVSPropertyOp2
 70
     0
102
RTVSPropertyOp3
 70
     0
102
RTVSPropertyOp4
 70
     0
102
RTVSPropertyOp5
 70
     0
102
RTVSPropertyOp6
 70
     0
102
RTVSPropertyOp7
 70
     0
102
RTVSPropertyOp8
 70
     0
102
RTVSPropertyOp9
 70
     0
102
RTVSPropertyOp10
 70
     0
102
RTVSPropertyOp11
 70
     0
102
RTVSPropertyOp12
 70
     0
102
RTVSPropertyOp13
 70
     0
102
RTVSPropertyOp14
 70
     0
102
RTVSPropertyOp15
 70
     0
102
RTVSPropertyOp16
 70
     0
102
RTVSPropertyOp17
 70
     0
102
RTVSPropertyOp18
 70
     0
102
RTVSPropertyOp19
 70
     0
102
RTVSPropertyOp20
 70
     0
102
RTVSPropertyOp21
 70
     0
102
RTVSPropertyOp22
 70
     0
102
RTVSPropertyOp23
 70
     0
102
RTVSPropertyOp24
 70
     0
102
RTVSPropertyOp25
 70
     0
102
RTVSPropertyOp26
 70
     0
102
RTVSPropertyOp27
 70
     0
102
RTVSPropertyOp28
 70
     1
102
RTVSPropertyOp29
 70
     1
102
RTVSPropertyOp30
 70
     1
102
RTVSPropertyOp31
 70
     1
102
RTVSPropertyOp32
 70
     1
102
RTVSPropertyOp33
 70
     1
102
RTVSPropertyOp34
 70
     1
102
RTVSPropertyOp35
 70
     1
102
RTVSPropertyOp36
 70
     1
102
RTVSPropertyOp37
 70
     1
102
RTVSPropertyOp38
 70
     1
102
RTVSPropertyOp39
 70
     1
102
RTVSPropertyOp40
 70
     1
102
RTVSPropertyOp41
 70
     1
102
RTVSPropertyOp42
 70
     1
102
RTVSPropertyOp43
 70
     1
102
RTVSPropertyOp44
 70
     1
102
RTVSPropertyOp45
 70
     1
102
RTVSPropertyOp46
 70
     1
102
RTVSPropertyOp47
 70
     1
102
RTVSPropertyOp48
 70
     1
102
RTVSPropertyOp49
 70
     1
102
RTVSPropertyOp50
 70
     1
102
RTVSPropertyOp51
 70
     0
102
RTVSPropertyOp52
 70
     0
102
RTVSPropertyOp53
 70
     1
102
RTVSPropertyOp54
 70
     1
102
RTVSPropertyOp55
 70
     1
102
RTVSPropertyOp56
 70
     1
102
RTVSPropertyOp57
 70
     1
102
RTVSPost2010Prop28
280
     0
102
RTVSPost2010PropOp28
 70
     1
102
RTVSPost2010Prop29
280
     1
102
RTVSPost2010PropOp29
 70
     1
102
RTVSPost2010Prop30
280
     1
102
RTVSPost2010PropOp30
 70
     1
102
RTVSPost2010Prop31
280
     0
102
RTVSPost2010PropOp31
 70
     1
102
RTVSPost2010Prop32
280
     0
102
RTVSPost2010PropOp32
 70
     1
102
RTVSPost2010Prop33
280
     0
102
RTVSPost2010PropOp33
 70
     1
102
RTVSPost2010Prop34
280
     0
102
RTVSPost2010PropOp34
 70
     1
102
RTVSPost2010Prop35
280
     0
102
RTVSPost2010PropOp35
 70
     1
102
RTVSPost2010Prop36
280
     0
102
RTVSPost2010PropOp36
 70
     1
102
RTVSPost2010Prop37
 90
       50
102
RTVSPost2010PropOp37
 70
     1
102
RTVSPost2010Prop38
140
0.0
102
RTVSPost2010PropOp38
 70
     1
102
RTVSPost2010Prop39
140
1.0
102
RTVSPost2010PropOp39
 70
     1
102
RTVSPost2010Prop40
 90
        0
102
RTVSPost2010PropOp40
 70
     1
102
RTVSPost2010Prop41ColorIndex
 90
       18
102
RTVSPost2010Prop41ColorRGB
 90
        0
102
RTVSPost2010PropOp41
 70
     1
102
RTVSPost2010Prop42
 90
       50
102
RTVSPost2010PropOp42
 70
     1
102
RTVSPost2010Prop43
 90
        3
102
RTVSPost2010PropOp43
 70
     1
102
RTVSPost2010Prop44ColorIndex
 90
        5
102
RTVSPost2010Prop44ColorRGB
 90
      255
102
RTVSPost2010PropOp44
 70
     1
102
RTVSPost2010Prop45
280
     0
102
RTVSPost2010PropOp45
 70
     1
102
RTVSPost2010Prop46
 90
       50
102
RTVSPost2010PropOp46
 70
     1
102
RTVSPost2010Prop47
 90
       50
102
RTVSPost2010PropOp47
 70
     1
102
RTVSPost2010Prop48
 90
       50
102
RTVSPost2010PropOp48
 70
     1
102
RTVSPost2010Prop49
280
     0
102
RTVSPost2010PropOp49
 70
     1
102
RTVSPost2010Prop50
 90
       50
102
RTVSPost2010PropOp50
 70
     1
102
RTVSPost2010Prop51ColorIndex
 90
      256
102
RTVSPost2010Prop51ColorRGB
 90
-16777216
102
RTVSPost2010PropOp51
 70
     0
102
RTVSPost2010Prop52
140
1.0
102
RTVSPost2010PropOp52
 70
     0
102
RTVSPost2010Prop53
 90
        2
102
RTVSPost2010PropOp53
 70
     1
102
RTVSPost2010Prop54
  1
strokes_ogs.tif
102
RTVSPost2010PropOp54
 70
     1
102
RTVSPost2010Prop55
280
     0
102
RTVSPost2010PropOp55
 70
     1
102
RTVSPost2010Prop56
140
1.0
102
RTVSPost2010PropOp56
 70
     1
102
RTVSPost2010Prop57
140
1.0
102
RTVSPost2010PropOp57
 70
     1
  0
XRECORD
  5
581
102
{ACAD_REACTORS
330
580
102
}
330
580
100
AcDbXrecord
280
     1
102
RTVSPropertyOp0
 70
     1
102
RTVSPropertyOp1
 70
     1
102
RTVSPropertyOp2
 70
     1
102
RTVSPropertyOp3
 70
     1
102
RTVSPropertyOp4
 70
     1
102
RTVSPropertyOp5
 70
     1
102
RTVSPropertyOp6
 70
     1
102
RTVSPropertyOp7
 70
     1
102
RTVSPropertyOp8
 70
     1
102
RTVSPropertyOp9
 70
     1
102
RTVSPropertyOp10
 70
     1
102
RTVSPropertyOp11
 70
     1
102
RTVSPropertyOp12
 70
     1
102
RTVSPropertyOp13
 70
     1
102
RTVSPropertyOp14
 70
     1
102
RTVSPropertyOp15
 70
     1
102
RTVSPropertyOp16
 70
     1
102
RTVSPropertyOp17
 70
     1
102
RTVSPropertyOp18
 70
     1
102
RTVSPropertyOp19
 70
     1
102
RTVSPropertyOp20
 70
     1
102
RTVSPropertyOp21
 70
     1
102
RTVSPropertyOp22
 70
     1
102
RTVSPropertyOp23
 70
     1
102
RTVSPropertyOp24
 70
     1
102
RTVSPropertyOp25
 70
     1
102
RTVSPropertyOp26
 70
     1
102
RTVSPropertyOp27
 70
     1
102
RTVSPropertyOp28
 70
     1
102
RTVSPropertyOp29
 70
     1
102
RTVSPropertyOp30
 70
     1
102
RTVSPropertyOp31
 70
     1
102
RTVSPropertyOp32
 70
     1
102
RTVSPropertyOp33
 70
     1
102
RTVSPropertyOp34
 70
     1
102
RTVSPropertyOp35
 70
     1
102
RTVSPropertyOp36
 70
     1
102
RTVSPropertyOp37
 70
     1
102
RTVSPropertyOp38
 70
     1
102
RTVSPropertyOp39
 70
     1
102
RTVSPropertyOp40
 70
     1
102
RTVSPropertyOp41
 70
     1
102
RTVSPropertyOp42
 70
     1
102
RTVSPropertyOp43
 70
     1
102
RTVSPropertyOp44
 70
     1
102
RTVSPropertyOp45
 70
     1
102
RTVSPropertyOp46
 70
     1
102
RTVSPropertyOp47
 70
     1
102
RTVSPropertyOp48
 70
     1
102
RTVSPropertyOp49
 70
     1
102
RTVSPropertyOp50
 70
     1
102
RTVSPropertyOp51
 70
     0
102
RTVSPropertyOp52
 70
     0
102
RTVSPropertyOp53
 70
     1
102
RTVSPropertyOp54
 70
     1
102
RTVSPropertyOp55
 70
     1
102
RTVSPropertyOp56
 70
     1
102
RTVSPropertyOp57
 70
     1
102
RTVSPost2010Prop28
280
     0
102
RTVSPost2010PropOp28
 70
     1
102
RTVSPost2010Prop29
280
     1
102
RTVSPost2010PropOp29
 70
     1
102
RTVSPost2010Prop30
280
     1
102
RTVSPost2010PropOp30
 70
     1
102
RTVSPost2010Prop31
280
     0
102
RTVSPost2010PropOp31
 70
     1
102
RTVSPost2010Prop32
280
     0
102
RTVSPost2010PropOp32
 70
     1
102
RTVSPost2010Prop33
280
     0
102
RTVSPost2010PropOp33
 70
     1
102
RTVSPost2010Prop34
280
     0
102
RTVSPost2010PropOp34
 70
     1
102
RTVSPost2010Prop35
280
     0
102
RTVSPost2010PropOp35
 70
     1
102
RTVSPost2010Prop36
280
     0
102
RTVSPost2010PropOp36
 70
     1
102
RTVSPost2010Prop37
 90
       50
102
RTVSPost2010PropOp37
 70
     1
102
RTVSPost2010Prop38
140
0.0
102
RTVSPost2010PropOp38
 70
     1
102
RTVSPost2010Prop39
140
1.0
102
RTVSPost2010PropOp39
 70
     1
102
RTVSPost2010Prop40
 90
        0
102
RTVSPost2010PropOp40
 70
     1
102
RTVSPost2010Prop41ColorIndex
 90
       18
102
RTVSPost2010Prop41ColorRGB
 90
        0
102
RTVSPost2010PropOp41
 70
     1
102
RTVSPost2010Prop42
 90
       50
102
RTVSPost2010PropOp42
 70
     1
102
RTVSPost2010Prop43
 90
        3
102
RTVSPost2010PropOp43
 70
     1
102
RTVSPost2010Prop44ColorIndex
 90
        5
102
RTVSPost2010Prop44ColorRGB
 90
      255
102
RTVSPost2010PropOp44
 70
     1
102
RTVSPost2010Prop45
280
     0
102
RTVSPost2010PropOp45
 70
     1
102
RTVSPost2010Prop46
 90
       50
102
RTVSPost2010PropOp46
 70
     1
102
RTVSPost2010Prop47
 90
       50
102
RTVSPost2010PropOp47
 70
     1
102
RTVSPost2010Prop48
 90
       50
102
RTVSPost2010PropOp48
 70
     1
102
RTVSPost2010Prop49
280
     0
102
RTVSPost2010PropOp49
 70
     1
102
RTVSPost2010Prop50
 90
       50
102
RTVSPost2010PropOp50
 70
     1
102
RTVSPost2010Prop51ColorIndex
 90
      256
102
RTVSPost2010Prop51ColorRGB
 90
-16777216
102
RTVSPost2010PropOp51
 70
     0
102
RTVSPost2010Prop52
140
1.0
102
RTVSPost2010PropOp52
 70
     0
102
RTVSPost2010Prop53
 90
        2
102
RTVSPost2010PropOp53
 70
     1
102
RTVSPost2010Prop54
  1
strokes_ogs.tif
102
RTVSPost2010PropOp54
 70
     1
102
RTVSPost2010Prop55
280
     0
102
RTVSPost2010PropOp55
 70
     1
102
RTVSPost2010Prop56
140
1.0
102
RTVSPost2010PropOp56
 70
     1
102
RTVSPost2010Prop57
140
1.0
102
RTVSPost2010PropOp57
 70
     1
  0
XRECORD
  5
59F
102
{ACAD_REACTORS
330
59E
102
}
330
59E
100
AcDbXrecord
280
     1
102
RTVSPropertyOp0
 70
     1
102
RTVSPropertyOp1
 70
     1
102
RTVSPropertyOp2
 70
     1
102
RTVSPropertyOp3
 70
     1
102
RTVSPropertyOp4
 70
     1
102
RTVSPropertyOp5
 70
     1
102
RTVSPropertyOp6
 70
     1
102
RTVSPropertyOp7
 70
     1
102
RTVSPropertyOp8
 70
     1
102
RTVSPropertyOp9
 70
     1
102
RTVSPropertyOp10
 70
     1
102
RTVSPropertyOp11
 70
     1
102
RTVSPropertyOp12
 70
     1
102
RTVSPropertyOp13
 70
     1
102
RTVSPropertyOp14
 70
     1
102
RTVSPropertyOp15
 70
     1
102
RTVSPropertyOp16
 70
     1
102
RTVSPropertyOp17
 70
     1
102
RTVSPropertyOp18
 70
     1
102
RTVSPropertyOp19
 70
     1
102
RTVSPropertyOp20
 70
     1
102
RTVSPropertyOp21
 70
     1
102
RTVSPropertyOp22
 70
     1
102
RTVSPropertyOp23
 70
     1
102
RTVSPropertyOp24
 70
     1
102
RTVSPropertyOp25
 70
     1
102
RTVSPropertyOp26
 70
     1
102
RTVSPropertyOp27
 70
     1
102
RTVSPropertyOp28
 70
     1
102
RTVSPropertyOp29
 70
     1
102
RTVSPropertyOp30
 70
     1
102
RTVSPropertyOp31
 70
     1
102
RTVSPropertyOp32
 70
     1
102
RTVSPropertyOp33
 70
     1
102
RTVSPropertyOp34
 70
     1
102
RTVSPropertyOp35
 70
     1
102
RTVSPropertyOp36
 70
     1
102
RTVSPropertyOp37
 70
     1
102
RTVSPropertyOp38
 70
     1
102
RTVSPropertyOp39
 70
     1
102
RTVSPropertyOp40
 70
     1
102
RTVSPropertyOp41
 70
     1
102
RTVSPropertyOp42
 70
     1
102
RTVSPropertyOp43
 70
     1
102
RTVSPropertyOp44
 70
     1
102
RTVSPropertyOp45
 70
     1
102
RTVSPropertyOp46
 70
     1
102
RTVSPropertyOp47
 70
     1
102
RTVSPropertyOp48
 70
     1
102
RTVSPropertyOp49
 70
     1
102
RTVSPropertyOp50
 70
     1
102
RTVSPropertyOp51
 70
     0
102
RTVSPropertyOp52
 70
     0
102
RTVSPropertyOp53
 70
     1
102
RTVSPropertyOp54
 70
     1
102
RTVSPropertyOp55
 70
     1
102
RTVSPropertyOp56
 70
     1
102
RTVSPropertyOp57
 70
     1
102
RTVSPost2010Prop28
280
     0
102
RTVSPost2010PropOp28
 70
     1
102
RTVSPost2010Prop29
280
     1
102
RTVSPost2010PropOp29
 70
     1
102
RTVSPost2010Prop30
280
     1
102
RTVSPost2010PropOp30
 70
     1
102
RTVSPost2010Prop31
280
     0
102
RTVSPost2010PropOp31
 70
     1
102
RTVSPost2010Prop32
280
     0
102
RTVSPost2010PropOp32
 70
     1
102
RTVSPost2010Prop33
280
     0
102
RTVSPost2010PropOp33
 70
     1
102
RTVSPost2010Prop34
280
     0
102
RTVSPost2010PropOp34
 70
     1
102
RTVSPost2010Prop35
280
     0
102
RTVSPost2010PropOp35
 70
     1
102
RTVSPost2010Prop36
280
     0
102
RTVSPost2010PropOp36
 70
     1
102
RTVSPost2010Prop37
 90
       50
102
RTVSPost2010PropOp37
 70
     1
102
RTVSPost2010Prop38
140
0.0
102
RTVSPost2010PropOp38
 70
     1
102
RTVSPost2010Prop39
140
1.0
102
RTVSPost2010PropOp39
 70
     1
102
RTVSPost2010Prop40
 90
        0
102
RTVSPost2010PropOp40
 70
     1
102
RTVSPost2010Prop41ColorIndex
 90
       18
102
RTVSPost2010Prop41ColorRGB
 90
        0
102
RTVSPost2010PropOp41
 70
     1
102
RTVSPost2010Prop42
 90
       50
102
RTVSPost2010PropOp42
 70
     1
102
RTVSPost2010Prop43
 90
        3
102
RTVSPost2010PropOp43
 70
     1
102
RTVSPost2010Prop44ColorIndex
 90
        5
102
RTVSPost2010Prop44ColorRGB
 90
      255
102
RTVSPost2010PropOp44
 70
     1
102
RTVSPost2010Prop45
280
     0
102
RTVSPost2010PropOp45
 70
     1
102
RTVSPost2010Prop46
 90
       50
102
RTVSPost2010PropOp46
 70
     1
102
RTVSPost2010Prop47
 90
       50
102
RTVSPost2010PropOp47
 70
     1
102
RTVSPost2010Prop48
 90
       50
102
RTVSPost2010PropOp48
 70
     1
102
RTVSPost2010Prop49
280
     0
102
RTVSPost2010PropOp49
 70
     1
102
RTVSPost2010Prop50
 90
       50
102
RTVSPost2010PropOp50
 70
     1
102
RTVSPost2010Prop51ColorIndex
 90
      256
102
RTVSPost2010Prop51ColorRGB
 90
-16777216
102
RTVSPost2010PropOp51
 70
     0
102
RTVSPost2010Prop52
140
1.0
102
RTVSPost2010PropOp52
 70
     0
102
RTVSPost2010Prop53
 90
        2
102
RTVSPost2010PropOp53
 70
     1
102
RTVSPost2010Prop54
  1
strokes_ogs.tif
102
RTVSPost2010PropOp54
 70
     1
102
RTVSPost2010Prop55
280
     0
102
RTVSPost2010PropOp55
 70
     1
102
RTVSPost2010Prop56
140
1.0
102
RTVSPost2010PropOp56
 70
     1
102
RTVSPost2010Prop57
140
1.0
102
RTVSPost2010PropOp57
 70
     1
  0
XRECORD
  5
59D
102
{ACAD_REACTORS
330
59C
102
}
330
59C
100
AcDbXrecord
280
     1
102
RTVSPropertyOp0
 70
     1
102
RTVSPropertyOp1
 70
     1
102
RTVSPropertyOp2
 70
     1
102
RTVSPropertyOp3
 70
     1
102
RTVSPropertyOp4
 70
     1
102
RTVSPropertyOp5
 70
     1
102
RTVSPropertyOp6
 70
     1
102
RTVSPropertyOp7
 70
     1
102
RTVSPropertyOp8
 70
     1
102
RTVSPropertyOp9
 70
     1
102
RTVSPropertyOp10
 70
     1
102
RTVSPropertyOp11
 70
     1
102
RTVSPropertyOp12
 70
     1
102
RTVSPropertyOp13
 70
     1
102
RTVSPropertyOp14
 70
     1
102
RTVSPropertyOp15
 70
     1
102
RTVSPropertyOp16
 70
     1
102
RTVSPropertyOp17
 70
     1
102
RTVSPropertyOp18
 70
     1
102
RTVSPropertyOp19
 70
     1
102
RTVSPropertyOp20
 70
     1
102
RTVSPropertyOp21
 70
     1
102
RTVSPropertyOp22
 70
     1
102
RTVSPropertyOp23
 70
     1
102
RTVSPropertyOp24
 70
     1
102
RTVSPropertyOp25
 70
     1
102
RTVSPropertyOp26
 70
     1
102
RTVSPropertyOp27
 70
     1
102
RTVSPropertyOp28
 70
     1
102
RTVSPropertyOp29
 70
     1
102
RTVSPropertyOp30
 70
     1
102
RTVSPropertyOp31
 70
     1
102
RTVSPropertyOp32
 70
     1
102
RTVSPropertyOp33
 70
     1
102
RTVSPropertyOp34
 70
     1
102
RTVSPropertyOp35
 70
     1
102
RTVSPropertyOp36
 70
     1
102
RTVSPropertyOp37
 70
     1
102
RTVSPropertyOp38
 70
     1
102
RTVSPropertyOp39
 70
     1
102
RTVSPropertyOp40
 70
     1
102
RTVSPropertyOp41
 70
     1
102
RTVSPropertyOp42
 70
     1
102
RTVSPropertyOp43
 70
     1
102
RTVSPropertyOp44
 70
     1
102
RTVSPropertyOp45
 70
     1
102
RTVSPropertyOp46
 70
     1
102
RTVSPropertyOp47
 70
     1
102
RTVSPropertyOp48
 70
     1
102
RTVSPropertyOp49
 70
     1
102
RTVSPropertyOp50
 70
     1
102
RTVSPropertyOp51
 70
     0
102
RTVSPropertyOp52
 70
     0
102
RTVSPropertyOp53
 70
     1
102
RTVSPropertyOp54
 70
     1
102
RTVSPropertyOp55
 70
     1
102
RTVSPropertyOp56
 70
     1
102
RTVSPropertyOp57
 70
     1
102
RTVSPost2010Prop28
280
     0
102
RTVSPost2010PropOp28
 70
     1
102
RTVSPost2010Prop29
280
     1
102
RTVSPost2010PropOp29
 70
     1
102
RTVSPost2010Prop30
280
     1
102
RTVSPost2010PropOp30
 70
     1
102
RTVSPost2010Prop31
280
     0
102
RTVSPost2010PropOp31
 70
     1
102
RTVSPost2010Prop32
280
     0
102
RTVSPost2010PropOp32
 70
     1
102
RTVSPost2010Prop33
280
     0
102
RTVSPost2010PropOp33
 70
     1
102
RTVSPost2010Prop34
280
     0
102
RTVSPost2010PropOp34
 70
     1
102
RTVSPost2010Prop35
280
     0
102
RTVSPost2010PropOp35
 70
     1
102
RTVSPost2010Prop36
280
     0
102
RTVSPost2010PropOp36
 70
     1
102
RTVSPost2010Prop37
 90
       50
102
RTVSPost2010PropOp37
 70
     1
102
RTVSPost2010Prop38
140
0.0
102
RTVSPost2010PropOp38
 70
     1
102
RTVSPost2010Prop39
140
1.0
102
RTVSPost2010PropOp39
 70
     1
102
RTVSPost2010Prop40
 90
        0
102
RTVSPost2010PropOp40
 70
     1
102
RTVSPost2010Prop41ColorIndex
 90
       18
102
RTVSPost2010Prop41ColorRGB
 90
        0
102
RTVSPost2010PropOp41
 70
     1
102
RTVSPost2010Prop42
 90
       50
102
RTVSPost2010PropOp42
 70
     1
102
RTVSPost2010Prop43
 90
        3
102
RTVSPost2010PropOp43
 70
     1
102
RTVSPost2010Prop44ColorIndex
 90
        5
102
RTVSPost2010Prop44ColorRGB
 90
      255
102
RTVSPost2010PropOp44
 70
     1
102
RTVSPost2010Prop45
280
     0
102
RTVSPost2010PropOp45
 70
     1
102
RTVSPost2010Prop46
 90
       50
102
RTVSPost2010PropOp46
 70
     1
102
RTVSPost2010Prop47
 90
       50
102
RTVSPost2010PropOp47
 70
     1
102
RTVSPost2010Prop48
 90
       50
102
RTVSPost2010PropOp48
 70
     1
102
RTVSPost2010Prop49
280
     0
102
RTVSPost2010PropOp49
 70
     1
102
RTVSPost2010Prop50
 90
       50
102
RTVSPost2010PropOp50
 70
     1
102
RTVSPost2010Prop51ColorIndex
 90
      256
102
RTVSPost2010Prop51ColorRGB
 90
-16777216
102
RTVSPost2010PropOp51
 70
     0
102
RTVSPost2010Prop52
140
1.0
102
RTVSPost2010PropOp52
 70
     0
102
RTVSPost2010Prop53
 90
        2
102
RTVSPost2010PropOp53
 70
     1
102
RTVSPost2010Prop54
  1
strokes_ogs.tif
102
RTVSPost2010PropOp54
 70
     1
102
RTVSPost2010Prop55
280
     0
102
RTVSPost2010PropOp55
 70
     1
102
RTVSPost2010Prop56
140
1.0
102
RTVSPost2010PropOp56
 70
     1
102
RTVSPost2010Prop57
140
1.0
102
RTVSPost2010PropOp57
 70
     1
  0
XRECORD
  5
597
102
{ACAD_REACTORS
330
596
102
}
330
596
100
AcDbXrecord
280
     1
102
RTVSPropertyOp0
 70
     1
102
RTVSPropertyOp1
 70
     1
102
RTVSPropertyOp2
 70
     1
102
RTVSPropertyOp3
 70
     1
102
RTVSPropertyOp4
 70
     1
102
RTVSPropertyOp5
 70
     1
102
RTVSPropertyOp6
 70
     1
102
RTVSPropertyOp7
 70
     1
102
RTVSPropertyOp8
 70
     1
102
RTVSPropertyOp9
 70
     1
102
RTVSPropertyOp10
 70
     1
102
RTVSPropertyOp11
 70
     1
102
RTVSPropertyOp12
 70
     1
102
RTVSPropertyOp13
 70
     1
102
RTVSPropertyOp14
 70
     1
102
RTVSPropertyOp15
 70
     1
102
RTVSPropertyOp16
 70
     1
102
RTVSPropertyOp17
 70
     1
102
RTVSPropertyOp18
 70
     1
102
RTVSPropertyOp19
 70
     1
102
RTVSPropertyOp20
 70
     1
102
RTVSPropertyOp21
 70
     1
102
RTVSPropertyOp22
 70
     1
102
RTVSPropertyOp23
 70
     1
102
RTVSPropertyOp24
 70
     1
102
RTVSPropertyOp25
 70
     1
102
RTVSPropertyOp26
 70
     1
102
RTVSPropertyOp27
 70
     1
102
RTVSPropertyOp28
 70
     1
102
RTVSPropertyOp29
 70
     1
102
RTVSPropertyOp30
 70
     1
102
RTVSPropertyOp31
 70
     1
102
RTVSPropertyOp32
 70
     1
102
RTVSPropertyOp33
 70
     1
102
RTVSPropertyOp34
 70
     1
102
RTVSPropertyOp35
 70
     1
102
RTVSPropertyOp36
 70
     1
102
RTVSPropertyOp37
 70
     1
102
RTVSPropertyOp38
 70
     1
102
RTVSPropertyOp39
 70
     1
102
RTVSPropertyOp40
 70
     1
102
RTVSPropertyOp41
 70
     1
102
RTVSPropertyOp42
 70
     1
102
RTVSPropertyOp43
 70
     1
102
RTVSPropertyOp44
 70
     1
102
RTVSPropertyOp45
 70
     1
102
RTVSPropertyOp46
 70
     1
102
RTVSPropertyOp47
 70
     1
102
RTVSPropertyOp48
 70
     1
102
RTVSPropertyOp49
 70
     1
102
RTVSPropertyOp50
 70
     1
102
RTVSPropertyOp51
 70
     0
102
RTVSPropertyOp52
 70
     0
102
RTVSPropertyOp53
 70
     1
102
RTVSPropertyOp54
 70
     1
102
RTVSPropertyOp55
 70
     1
102
RTVSPropertyOp56
 70
     1
102
RTVSPropertyOp57
 70
     1
102
RTVSPost2010Prop28
280
     0
102
RTVSPost2010PropOp28
 70
     1
102
RTVSPost2010Prop29
280
     1
102
RTVSPost2010PropOp29
 70
     1
102
RTVSPost2010Prop30
280
     1
102
RTVSPost2010PropOp30
 70
     1
102
RTVSPost2010Prop31
280
     0
102
RTVSPost2010PropOp31
 70
     1
102
RTVSPost2010Prop32
280
     0
102
RTVSPost2010PropOp32
 70
     1
102
RTVSPost2010Prop33
280
     0
102
RTVSPost2010PropOp33
 70
     1
102
RTVSPost2010Prop34
280
     0
102
RTVSPost2010PropOp34
 70
     1
102
RTVSPost2010Prop35
280
     0
102
RTVSPost2010PropOp35
 70
     1
102
RTVSPost2010Prop36
280
     0
102
RTVSPost2010PropOp36
 70
     1
102
RTVSPost2010Prop37
 90
       50
102
RTVSPost2010PropOp37
 70
     1
102
RTVSPost2010Prop38
140
0.0
102
RTVSPost2010PropOp38
 70
     1
102
RTVSPost2010Prop39
140
1.0
102
RTVSPost2010PropOp39
 70
     1
102
RTVSPost2010Prop40
 90
        0
102
RTVSPost2010PropOp40
 70
     1
102
RTVSPost2010Prop41ColorIndex
 90
       18
102
RTVSPost2010Prop41ColorRGB
 90
        0
102
RTVSPost2010PropOp41
 70
     1
102
RTVSPost2010Prop42
 90
       50
102
RTVSPost2010PropOp42
 70
     1
102
RTVSPost2010Prop43
 90
        3
102
RTVSPost2010PropOp43
 70
     1
102
RTVSPost2010Prop44ColorIndex
 90
        5
102
RTVSPost2010Prop44ColorRGB
 90
      255
102
RTVSPost2010PropOp44
 70
     1
102
RTVSPost2010Prop45
280
     0
102
RTVSPost2010PropOp45
 70
     1
102
RTVSPost2010Prop46
 90
       50
102
RTVSPost2010PropOp46
 70
     1
102
RTVSPost2010Prop47
 90
       50
102
RTVSPost2010PropOp47
 70
     1
102
RTVSPost2010Prop48
 90
       50
102
RTVSPost2010PropOp48
 70
     1
102
RTVSPost2010Prop49
280
     0
102
RTVSPost2010PropOp49
 70
     1
102
RTVSPost2010Prop50
 90
       50
102
RTVSPost2010PropOp50
 70
     1
102
RTVSPost2010Prop51ColorIndex
 90
      256
102
RTVSPost2010Prop51ColorRGB
 90
-16777216
102
RTVSPost2010PropOp51
 70
     0
102
RTVSPost2010Prop52
140
1.0
102
RTVSPost2010PropOp52
 70
     0
102
RTVSPost2010Prop53
 90
        2
102
RTVSPost2010PropOp53
 70
     1
102
RTVSPost2010Prop54
  1
strokes_ogs.tif
102
RTVSPost2010PropOp54
 70
     1
102
RTVSPost2010Prop55
280
     0
102
RTVSPost2010PropOp55
 70
     1
102
RTVSPost2010Prop56
140
1.0
102
RTVSPost2010PropOp56
 70
     1
102
RTVSPost2010Prop57
140
1.0
102
RTVSPost2010PropOp57
 70
     1
  0
XRECORD
  5
599
102
{ACAD_REACTORS
330
598
102
}
330
598
100
AcDbXrecord
280
     1
102
RTVSPropertyOp0
 70
     1
102
RTVSPropertyOp1
 70
     1
102
RTVSPropertyOp2
 70
     1
102
RTVSPropertyOp3
 70
     1
102
RTVSPropertyOp4
 70
     1
102
RTVSPropertyOp5
 70
     1
102
RTVSPropertyOp6
 70
     1
102
RTVSPropertyOp7
 70
     1
102
RTVSPropertyOp8
 70
     1
102
RTVSPropertyOp9
 70
     1
102
RTVSPropertyOp10
 70
     1
102
RTVSPropertyOp11
 70
     1
102
RTVSPropertyOp12
 70
     1
102
RTVSPropertyOp13
 70
     1
102
RTVSPropertyOp14
 70
     1
102
RTVSPropertyOp15
 70
     1
102
RTVSPropertyOp16
 70
     1
102
RTVSPropertyOp17
 70
     1
102
RTVSPropertyOp18
 70
     1
102
RTVSPropertyOp19
 70
     1
102
RTVSPropertyOp20
 70
     1
102
RTVSPropertyOp21
 70
     1
102
RTVSPropertyOp22
 70
     1
102
RTVSPropertyOp23
 70
     1
102
RTVSPropertyOp24
 70
     1
102
RTVSPropertyOp25
 70
     1
102
RTVSPropertyOp26
 70
     1
102
RTVSPropertyOp27
 70
     1
102
RTVSPropertyOp28
 70
     1
102
RTVSPropertyOp29
 70
     1
102
RTVSPropertyOp30
 70
     1
102
RTVSPropertyOp31
 70
     1
102
RTVSPropertyOp32
 70
     1
102
RTVSPropertyOp33
 70
     1
102
RTVSPropertyOp34
 70
     1
102
RTVSPropertyOp35
 70
     1
102
RTVSPropertyOp36
 70
     1
102
RTVSPropertyOp37
 70
     1
102
RTVSPropertyOp38
 70
     1
102
RTVSPropertyOp39
 70
     1
102
RTVSPropertyOp40
 70
     1
102
RTVSPropertyOp41
 70
     1
102
RTVSPropertyOp42
 70
     1
102
RTVSPropertyOp43
 70
     1
102
RTVSPropertyOp44
 70
     1
102
RTVSPropertyOp45
 70
     1
102
RTVSPropertyOp46
 70
     1
102
RTVSPropertyOp47
 70
     1
102
RTVSPropertyOp48
 70
     1
102
RTVSPropertyOp49
 70
     1
102
RTVSPropertyOp50
 70
     1
102
RTVSPropertyOp51
 70
     0
102
RTVSPropertyOp52
 70
     0
102
RTVSPropertyOp53
 70
     1
102
RTVSPropertyOp54
 70
     1
102
RTVSPropertyOp55
 70
     1
102
RTVSPropertyOp56
 70
     1
102
RTVSPropertyOp57
 70
     1
102
RTVSPost2010Prop28
280
     0
102
RTVSPost2010PropOp28
 70
     1
102
RTVSPost2010Prop29
280
     1
102
RTVSPost2010PropOp29
 70
     1
102
RTVSPost2010Prop30
280
     1
102
RTVSPost2010PropOp30
 70
     1
102
RTVSPost2010Prop31
280
     0
102
RTVSPost2010PropOp31
 70
     1
102
RTVSPost2010Prop32
280
     0
102
RTVSPost2010PropOp32
 70
     1
102
RTVSPost2010Prop33
280
     0
102
RTVSPost2010PropOp33
 70
     1
102
RTVSPost2010Prop34
280
     0
102
RTVSPost2010PropOp34
 70
     1
102
RTVSPost2010Prop35
280
     0
102
RTVSPost2010PropOp35
 70
     1
102
RTVSPost2010Prop36
280
     0
102
RTVSPost2010PropOp36
 70
     1
102
RTVSPost2010Prop37
 90
       50
102
RTVSPost2010PropOp37
 70
     1
102
RTVSPost2010Prop38
140
0.0
102
RTVSPost2010PropOp38
 70
     1
102
RTVSPost2010Prop39
140
1.0
102
RTVSPost2010PropOp39
 70
     1
102
RTVSPost2010Prop40
 90
        0
102
RTVSPost2010PropOp40
 70
     1
102
RTVSPost2010Prop41ColorIndex
 90
       18
102
RTVSPost2010Prop41ColorRGB
 90
        0
102
RTVSPost2010PropOp41
 70
     1
102
RTVSPost2010Prop42
 90
       50
102
RTVSPost2010PropOp42
 70
     1
102
RTVSPost2010Prop43
 90
        3
102
RTVSPost2010PropOp43
 70
     1
102
RTVSPost2010Prop44ColorIndex
 90
        5
102
RTVSPost2010Prop44ColorRGB
 90
      255
102
RTVSPost2010PropOp44
 70
     1
102
RTVSPost2010Prop45
280
     0
102
RTVSPost2010PropOp45
 70
     1
102
RTVSPost2010Prop46
 90
       50
102
RTVSPost2010PropOp46
 70
     1
102
RTVSPost2010Prop47
 90
       50
102
RTVSPost2010PropOp47
 70
     1
102
RTVSPost2010Prop48
 90
       50
102
RTVSPost2010PropOp48
 70
     1
102
RTVSPost2010Prop49
280
     0
102
RTVSPost2010PropOp49
 70
     1
102
RTVSPost2010Prop50
 90
       50
102
RTVSPost2010PropOp50
 70
     1
102
RTVSPost2010Prop51ColorIndex
 90
      256
102
RTVSPost2010Prop51ColorRGB
 90
-16777216
102
RTVSPost2010PropOp51
 70
     0
102
RTVSPost2010Prop52
140
1.0
102
RTVSPost2010PropOp52
 70
     0
102
RTVSPost2010Prop53
 90
        2
102
RTVSPost2010PropOp53
 70
     1
102
RTVSPost2010Prop54
  1
strokes_ogs.tif
102
RTVSPost2010PropOp54
 70
     1
102
RTVSPost2010Prop55
280
     0
102
RTVSPost2010PropOp55
 70
     1
102
RTVSPost2010Prop56
140
1.0
102
RTVSPost2010PropOp56
 70
     1
102
RTVSPost2010Prop57
140
1.0
102
RTVSPost2010PropOp57
 70
     1
  0
XRECORD
  5
589
102
{ACAD_REACTORS
330
588
102
}
330
588
100
AcDbXrecord
280
     1
102
RTVSPropertyOp0
 70
     1
102
RTVSPropertyOp1
 70
     1
102
RTVSPropertyOp2
 70
     1
102
RTVSPropertyOp3
 70
     1
102
RTVSPropertyOp4
 70
     1
102
RTVSPropertyOp5
 70
     1
102
RTVSPropertyOp6
 70
     1
102
RTVSPropertyOp7
 70
     1
102
RTVSPropertyOp8
 70
     1
102
RTVSPropertyOp9
 70
     1
102
RTVSPropertyOp10
 70
     1
102
RTVSPropertyOp11
 70
     1
102
RTVSPropertyOp12
 70
     1
102
RTVSPropertyOp13
 70
     1
102
RTVSPropertyOp14
 70
     1
102
RTVSPropertyOp15
 70
     1
102
RTVSPropertyOp16
 70
     1
102
RTVSPropertyOp17
 70
     1
102
RTVSPropertyOp18
 70
     1
102
RTVSPropertyOp19
 70
     1
102
RTVSPropertyOp20
 70
     1
102
RTVSPropertyOp21
 70
     1
102
RTVSPropertyOp22
 70
     1
102
RTVSPropertyOp23
 70
     1
102
RTVSPropertyOp24
 70
     1
102
RTVSPropertyOp25
 70
     1
102
RTVSPropertyOp26
 70
     1
102
RTVSPropertyOp27
 70
     1
102
RTVSPropertyOp28
 70
     1
102
RTVSPropertyOp29
 70
     1
102
RTVSPropertyOp30
 70
     1
102
RTVSPropertyOp31
 70
     1
102
RTVSPropertyOp32
 70
     1
102
RTVSPropertyOp33
 70
     1
102
RTVSPropertyOp34
 70
     1
102
RTVSPropertyOp35
 70
     1
102
RTVSPropertyOp36
 70
     1
102
RTVSPropertyOp37
 70
     1
102
RTVSPropertyOp38
 70
     1
102
RTVSPropertyOp39
 70
     1
102
RTVSPropertyOp40
 70
     1
102
RTVSPropertyOp41
 70
     1
102
RTVSPropertyOp42
 70
     1
102
RTVSPropertyOp43
 70
     1
102
RTVSPropertyOp44
 70
     1
102
RTVSPropertyOp45
 70
     1
102
RTVSPropertyOp46
 70
     1
102
RTVSPropertyOp47
 70
     1
102
RTVSPropertyOp48
 70
     1
102
RTVSPropertyOp49
 70
     1
102
RTVSPropertyOp50
 70
     1
102
RTVSPropertyOp51
 70
     0
102
RTVSPropertyOp52
 70
     0
102
RTVSPropertyOp53
 70
     1
102
RTVSPropertyOp54
 70
     1
102
RTVSPropertyOp55
 70
     1
102
RTVSPropertyOp56
 70
     1
102
RTVSPropertyOp57
 70
     1
102
RTVSPost2010Prop28
280
     0
102
RTVSPost2010PropOp28
 70
     1
102
RTVSPost2010Prop29
280
     1
102
RTVSPost2010PropOp29
 70
     1
102
RTVSPost2010Prop30
280
     1
102
RTVSPost2010PropOp30
 70
     1
102
RTVSPost2010Prop31
280
     0
102
RTVSPost2010PropOp31
 70
     1
102
RTVSPost2010Prop32
280
     0
102
RTVSPost2010PropOp32
 70
     1
102
RTVSPost2010Prop33
280
     0
102
RTVSPost2010PropOp33
 70
     1
102
RTVSPost2010Prop34
280
     0
102
RTVSPost2010PropOp34
 70
     1
102
RTVSPost2010Prop35
280
     0
102
RTVSPost2010PropOp35
 70
     1
102
RTVSPost2010Prop36
280
     0
102
RTVSPost2010PropOp36
 70
     1
102
RTVSPost2010Prop37
 90
       50
102
RTVSPost2010PropOp37
 70
     1
102
RTVSPost2010Prop38
140
0.0
102
RTVSPost2010PropOp38
 70
     1
102
RTVSPost2010Prop39
140
1.0
102
RTVSPost2010PropOp39
 70
     1
102
RTVSPost2010Prop40
 90
        0
102
RTVSPost2010PropOp40
 70
     1
102
RTVSPost2010Prop41ColorIndex
 90
       18
102
RTVSPost2010Prop41ColorRGB
 90
        0
102
RTVSPost2010PropOp41
 70
     1
102
RTVSPost2010Prop42
 90
       50
102
RTVSPost2010PropOp42
 70
     1
102
RTVSPost2010Prop43
 90
        3
102
RTVSPost2010PropOp43
 70
     1
102
RTVSPost2010Prop44ColorIndex
 90
        5
102
RTVSPost2010Prop44ColorRGB
 90
      255
102
RTVSPost2010PropOp44
 70
     1
102
RTVSPost2010Prop45
280
     0
102
RTVSPost2010PropOp45
 70
     1
102
RTVSPost2010Prop46
 90
       50
102
RTVSPost2010PropOp46
 70
     1
102
RTVSPost2010Prop47
 90
       50
102
RTVSPost2010PropOp47
 70
     1
102
RTVSPost2010Prop48
 90
       50
102
RTVSPost2010PropOp48
 70
     1
102
RTVSPost2010Prop49
280
     0
102
RTVSPost2010PropOp49
 70
     1
102
RTVSPost2010Prop50
 90
       50
102
RTVSPost2010PropOp50
 70
     1
102
RTVSPost2010Prop51ColorIndex
 90
      256
102
RTVSPost2010Prop51ColorRGB
 90
-16777216
102
RTVSPost2010PropOp51
 70
     0
102
RTVSPost2010Prop52
140
1.0
102
RTVSPost2010PropOp52
 70
     0
102
RTVSPost2010Prop53
 90
        2
102
RTVSPost2010PropOp53
 70
     1
102
RTVSPost2010Prop54
  1
strokes_ogs.tif
102
RTVSPost2010PropOp54
 70
     1
102
RTVSPost2010Prop55
280
     0
102
RTVSPost2010PropOp55
 70
     1
102
RTVSPost2010Prop56
140
1.0
102
RTVSPost2010PropOp56
 70
     1
102
RTVSPost2010Prop57
140
1.0
102
RTVSPost2010PropOp57
 70
     1
  0
XRECORD
  5
57B
102
{ACAD_REACTORS
330
57A
102
}
330
57A
100
AcDbXrecord
280
     1
102
RTVSPropertyOp0
 70
     1
102
RTVSPropertyOp1
 70
     1
102
RTVSPropertyOp2
 70
     1
102
RTVSPropertyOp3
 70
     1
102
RTVSPropertyOp4
 70
     1
102
RTVSPropertyOp5
 70
     1
102
RTVSPropertyOp6
 70
     1
102
RTVSPropertyOp7
 70
     1
102
RTVSPropertyOp8
 70
     1
102
RTVSPropertyOp9
 70
     1
102
RTVSPropertyOp10
 70
     1
102
RTVSPropertyOp11
 70
     1
102
RTVSPropertyOp12
 70
     1
102
RTVSPropertyOp13
 70
     1
102
RTVSPropertyOp14
 70
     1
102
RTVSPropertyOp15
 70
     1
102
RTVSPropertyOp16
 70
     1
102
RTVSPropertyOp17
 70
     1
102
RTVSPropertyOp18
 70
     1
102
RTVSPropertyOp19
 70
     1
102
RTVSPropertyOp20
 70
     1
102
RTVSPropertyOp21
 70
     1
102
RTVSPropertyOp22
 70
     1
102
RTVSPropertyOp23
 70
     1
102
RTVSPropertyOp24
 70
     1
102
RTVSPropertyOp25
 70
     1
102
RTVSPropertyOp26
 70
     1
102
RTVSPropertyOp27
 70
     1
102
RTVSPropertyOp28
 70
     1
102
RTVSPropertyOp29
 70
     1
102
RTVSPropertyOp30
 70
     1
102
RTVSPropertyOp31
 70
     1
102
RTVSPropertyOp32
 70
     1
102
RTVSPropertyOp33
 70
     1
102
RTVSPropertyOp34
 70
     1
102
RTVSPropertyOp35
 70
     1
102
RTVSPropertyOp36
 70
     1
102
RTVSPropertyOp37
 70
     1
102
RTVSPropertyOp38
 70
     1
102
RTVSPropertyOp39
 70
     1
102
RTVSPropertyOp40
 70
     1
102
RTVSPropertyOp41
 70
     1
102
RTVSPropertyOp42
 70
     1
102
RTVSPropertyOp43
 70
     1
102
RTVSPropertyOp44
 70
     1
102
RTVSPropertyOp45
 70
     1
102
RTVSPropertyOp46
 70
     1
102
RTVSPropertyOp47
 70
     1
102
RTVSPropertyOp48
 70
     1
102
RTVSPropertyOp49
 70
     1
102
RTVSPropertyOp50
 70
     1
102
RTVSPropertyOp51
 70
     0
102
RTVSPropertyOp52
 70
     0
102
RTVSPropertyOp53
 70
     1
102
RTVSPropertyOp54
 70
     1
102
RTVSPropertyOp55
 70
     1
102
RTVSPropertyOp56
 70
     1
102
RTVSPropertyOp57
 70
     1
102
RTVSPost2010Prop28
280
     0
102
RTVSPost2010PropOp28
 70
     1
102
RTVSPost2010Prop29
280
     1
102
RTVSPost2010PropOp29
 70
     1
102
RTVSPost2010Prop30
280
     1
102
RTVSPost2010PropOp30
 70
     1
102
RTVSPost2010Prop31
280
     0
102
RTVSPost2010PropOp31
 70
     1
102
RTVSPost2010Prop32
280
     0
102
RTVSPost2010PropOp32
 70
     1
102
RTVSPost2010Prop33
280
     0
102
RTVSPost2010PropOp33
 70
     1
102
RTVSPost2010Prop34
280
     0
102
RTVSPost2010PropOp34
 70
     1
102
RTVSPost2010Prop35
280
     0
102
RTVSPost2010PropOp35
 70
     1
102
RTVSPost2010Prop36
280
     0
102
RTVSPost2010PropOp36
 70
     1
102
RTVSPost2010Prop37
 90
       50
102
RTVSPost2010PropOp37
 70
     1
102
RTVSPost2010Prop38
140
0.0
102
RTVSPost2010PropOp38
 70
     1
102
RTVSPost2010Prop39
140
1.0
102
RTVSPost2010PropOp39
 70
     1
102
RTVSPost2010Prop40
 90
        0
102
RTVSPost2010PropOp40
 70
     1
102
RTVSPost2010Prop41ColorIndex
 90
       18
102
RTVSPost2010Prop41ColorRGB
 90
        0
102
RTVSPost2010PropOp41
 70
     1
102
RTVSPost2010Prop42
 90
       50
102
RTVSPost2010PropOp42
 70
     1
102
RTVSPost2010Prop43
 90
        3
102
RTVSPost2010PropOp43
 70
     1
102
RTVSPost2010Prop44ColorIndex
 90
        5
102
RTVSPost2010Prop44ColorRGB
 90
      255
102
RTVSPost2010PropOp44
 70
     1
102
RTVSPost2010Prop45
280
     0
102
RTVSPost2010PropOp45
 70
     1
102
RTVSPost2010Prop46
 90
       50
102
RTVSPost2010PropOp46
 70
     1
102
RTVSPost2010Prop47
 90
       50
102
RTVSPost2010PropOp47
 70
     1
102
RTVSPost2010Prop48
 90
       50
102
RTVSPost2010PropOp48
 70
     1
102
RTVSPost2010Prop49
280
     0
102
RTVSPost2010PropOp49
 70
     1
102
RTVSPost2010Prop50
 90
       50
102
RTVSPost2010PropOp50
 70
     1
102
RTVSPost2010Prop51ColorIndex
 90
      256
102
RTVSPost2010Prop51ColorRGB
 90
-16777216
102
RTVSPost2010PropOp51
 70
     0
102
RTVSPost2010Prop52
140
1.0
102
RTVSPost2010PropOp52
 70
     0
102
RTVSPost2010Prop53
 90
        2
102
RTVSPost2010PropOp53
 70
     1
102
RTVSPost2010Prop54
  1
strokes_ogs.tif
102
RTVSPost2010PropOp54
 70
     1
102
RTVSPost2010Prop55
280
     0
102
RTVSPost2010PropOp55
 70
     1
102
RTVSPost2010Prop56
140
1.0
102
RTVSPost2010PropOp56
 70
     1
102
RTVSPost2010Prop57
140
1.0
102
RTVSPost2010PropOp57
 70
     1
  0
XRECORD
  5
59B
102
{ACAD_REACTORS
330
59A
102
}
330
59A
100
AcDbXrecord
280
     1
102
RTVSPropertyOp0
 70
     1
102
RTVSPropertyOp1
 70
     1
102
RTVSPropertyOp2
 70
     1
102
RTVSPropertyOp3
 70
     1
102
RTVSPropertyOp4
 70
     1
102
RTVSPropertyOp5
 70
     1
102
RTVSPropertyOp6
 70
     1
102
RTVSPropertyOp7
 70
     1
102
RTVSPropertyOp8
 70
     1
102
RTVSPropertyOp9
 70
     1
102
RTVSPropertyOp10
 70
     1
102
RTVSPropertyOp11
 70
     1
102
RTVSPropertyOp12
 70
     1
102
RTVSPropertyOp13
 70
     1
102
RTVSPropertyOp14
 70
     1
102
RTVSPropertyOp15
 70
     1
102
RTVSPropertyOp16
 70
     1
102
RTVSPropertyOp17
 70
     1
102
RTVSPropertyOp18
 70
     1
102
RTVSPropertyOp19
 70
     1
102
RTVSPropertyOp20
 70
     1
102
RTVSPropertyOp21
 70
     1
102
RTVSPropertyOp22
 70
     1
102
RTVSPropertyOp23
 70
     1
102
RTVSPropertyOp24
 70
     1
102
RTVSPropertyOp25
 70
     1
102
RTVSPropertyOp26
 70
     1
102
RTVSPropertyOp27
 70
     1
102
RTVSPropertyOp28
 70
     1
102
RTVSPropertyOp29
 70
     1
102
RTVSPropertyOp30
 70
     1
102
RTVSPropertyOp31
 70
     1
102
RTVSPropertyOp32
 70
     1
102
RTVSPropertyOp33
 70
     1
102
RTVSPropertyOp34
 70
     1
102
RTVSPropertyOp35
 70
     1
102
RTVSPropertyOp36
 70
     1
102
RTVSPropertyOp37
 70
     1
102
RTVSPropertyOp38
 70
     1
102
RTVSPropertyOp39
 70
     1
102
RTVSPropertyOp40
 70
     1
102
RTVSPropertyOp41
 70
     1
102
RTVSPropertyOp42
 70
     1
102
RTVSPropertyOp43
 70
     1
102
RTVSPropertyOp44
 70
     1
102
RTVSPropertyOp45
 70
     1
102
RTVSPropertyOp46
 70
     1
102
RTVSPropertyOp47
 70
     1
102
RTVSPropertyOp48
 70
     1
102
RTVSPropertyOp49
 70
     1
102
RTVSPropertyOp50
 70
     1
102
RTVSPropertyOp51
 70
     0
102
RTVSPropertyOp52
 70
     0
102
RTVSPropertyOp53
 70
     1
102
RTVSPropertyOp54
 70
     1
102
RTVSPropertyOp55
 70
     1
102
RTVSPropertyOp56
 70
     1
102
RTVSPropertyOp57
 70
     1
102
RTVSPost2010Prop28
280
     0
102
RTVSPost2010PropOp28
 70
     1
102
RTVSPost2010Prop29
280
     1
102
RTVSPost2010PropOp29
 70
     1
102
RTVSPost2010Prop30
280
     1
102
RTVSPost2010PropOp30
 70
     1
102
RTVSPost2010Prop31
280
     0
102
RTVSPost2010PropOp31
 70
     1
102
RTVSPost2010Prop32
280
     0
102
RTVSPost2010PropOp32
 70
     1
102
RTVSPost2010Prop33
280
     0
102
RTVSPost2010PropOp33
 70
     1
102
RTVSPost2010Prop34
280
     0
102
RTVSPost2010PropOp34
 70
     1
102
RTVSPost2010Prop35
280
     0
102
RTVSPost2010PropOp35
 70
     1
102
RTVSPost2010Prop36
280
     0
102
RTVSPost2010PropOp36
 70
     1
102
RTVSPost2010Prop37
 90
       50
102
RTVSPost2010PropOp37
 70
     1
102
RTVSPost2010Prop38
140
0.0
102
RTVSPost2010PropOp38
 70
     1
102
RTVSPost2010Prop39
140
1.0
102
RTVSPost2010PropOp39
 70
     1
102
RTVSPost2010Prop40
 90
        0
102
RTVSPost2010PropOp40
 70
     1
102
RTVSPost2010Prop41ColorIndex
 90
       18
102
RTVSPost2010Prop41ColorRGB
 90
        0
102
RTVSPost2010PropOp41
 70
     1
102
RTVSPost2010Prop42
 90
       50
102
RTVSPost2010PropOp42
 70
     1
102
RTVSPost2010Prop43
 90
        3
102
RTVSPost2010PropOp43
 70
     1
102
RTVSPost2010Prop44ColorIndex
 90
        5
102
RTVSPost2010Prop44ColorRGB
 90
      255
102
RTVSPost2010PropOp44
 70
     1
102
RTVSPost2010Prop45
280
     0
102
RTVSPost2010PropOp45
 70
     1
102
RTVSPost2010Prop46
 90
       50
102
RTVSPost2010PropOp46
 70
     1
102
RTVSPost2010Prop47
 90
       50
102
RTVSPost2010PropOp47
 70
     1
102
RTVSPost2010Prop48
 90
       50
102
RTVSPost2010PropOp48
 70
     1
102
RTVSPost2010Prop49
280
     0
102
RTVSPost2010PropOp49
 70
     1
102
RTVSPost2010Prop50
 90
       50
102
RTVSPost2010PropOp50
 70
     1
102
RTVSPost2010Prop51ColorIndex
 90
      256
102
RTVSPost2010Prop51ColorRGB
 90
-16777216
102
RTVSPost2010PropOp51
 70
     0
102
RTVSPost2010Prop52
140
1.0
102
RTVSPost2010PropOp52
 70
     0
102
RTVSPost2010Prop53
 90
        2
102
RTVSPost2010PropOp53
 70
     1
102
RTVSPost2010Prop54
  1
strokes_ogs.tif
102
RTVSPost2010PropOp54
 70
     1
102
RTVSPost2010Prop55
280
     0
102
RTVSPost2010PropOp55
 70
     1
102
RTVSPost2010Prop56
140
1.0
102
RTVSPost2010PropOp56
 70
     1
102
RTVSPost2010Prop57
140
1.0
102
RTVSPost2010PropOp57
 70
     1
  0
ENDSEC
  0
SECTION
  2
THUMBNAILIMAGE
 90
    16364
310
28000000B4000000550000000100080000000000C43B000000000000000000000001000000010000FFFFFF000000FF0000FFFF0000FF0000FFFF0000FF000000FF00FF000000000080808000C0C0C0000000FF007F7FFF000000A5005252A50000007F003F3F7F0000004C0026264C000000260013132600003FFF007F9FFF
310
000029A5005267A500001F7F003F4F7F0000134C00262F4C000009260013172600007FFF007FBFFF000052A500527CA500003F7F003F5F7F0000264C0026394C0000132600131C260000BFFF007FDFFF00007CA5005291A500005F7F003F6F7F0000394C0026424C00001C26001321260000FFFF007FFFFF0000A5A50052A5
310
A500007F7F003F7F7F00004C4C00264C4C00002626001326260000FFBF007FFFDF0000A57C0052A59100007F5F003F7F6F00004C3900264C420000261C001326210000FF7F007FFFBF0000A5520052A57C00007F3F003F7F5F00004C2600264C39000026130013261C0000FF3F007FFF9F0000A5290052A56700007F1F003F
310
7F4F00004C1300264C2F00002609001326170000FF00007FFF7F0000A5000052A55200007F00003F7F3F00004C0000264C260000260000132613003FFF00009FFF7F0029A5000067A552001F7F00004F7F3F00134C00002F4C260009260000172613007FFF0000BFFF7F0052A500007CA552003F7F00005F7F3F00264C0000
310
394C2600132600001C261300BFFF0000DFFF7F007CA5000091A552005F7F00006F7F3F00394C0000424C26001C26000021261300FFFF0000FFFF7F00A5A50000A5A552007F7F00007F7F3F004C4C00004C4C26002626000026261300FFBF0000FFDF7F00A57C0000A59152007F5F00007F6F3F004C3900004C422600261C00
310
0026211300FF7F0000FFBF7F00A5520000A57C52007F3F00007F5F3F004C2600004C39260026130000261C1300FF3F0000FF9F7F00A5290000A56752007F1F00007F4F3F004C1300004C2F26002609000026171300FF000000FF7F7F00A5000000A55252007F0000007F3F3F004C0000004C2626002600000026131300FF00
310
3F00FF7F9F00A5002900A55267007F001F007F3F4F004C0013004C262F002600090026131700FF007F00FF7FBF00A5005200A5527C007F003F007F3F5F004C0026004C2639002600130026131C00FF00BF00FF7FDF00A5007C00A55291007F005F007F3F6F004C0039004C26420026001C0026132100FF00FF00FF7FFF00A5
310
00A500A552A5007F007F007F3F7F004C004C004C264C002600260026132600BF00FF00DF7FFF007C00A5009152A5005F007F006F3F7F0039004C0042264C001C002600211326007F00FF00BF7FFF005200A5007C52A5003F007F005F3F7F0026004C0039264C00130026001C1326003F00FF009F7FFF002900A5006752A500
310
1F007F004F3F7F0013004C002F264C000900260017132600000000002D2D2D005B5B5B0089898900B7B7B700B3B3B30000000000000000000000000000000000000000000000000000000000000000000000000000000000000000000000000000000000000000000000000000000000000000000000000000000000000000
310
00000000000000000000000000000000000000000000000000000000000000000000000000000000000000000000000000000000000000000000000000000000000000000000000000000000000000000000000000000000000000000000000000000000000000000000000000000000000000000000000000000000000000
310
00000000000000000000000000000000000000000000000000000000000000000000000000000000000000000000000000000000000000000000000000000000000000000000000000000000000000000000000000000000000000000000000000000000000000000000000000000000000000000000000000000000000000
310
00000000000000000000000000000000000000000000000000000000000000000000000000000000000000000000000000000000000000000000000000000000000000000000000000000000000000000000000000000000000000000000000000000000000202020202000000000000000000000000000000000000000000
310
00000000000000000000000000000000000000000000000000000000000000000000000000000000000000000000000000000000000000000000000000000000000000000000000000000000000000000000000000000000000000000000000000000000000000000000000000000000000000000000000000000000000000
310
00000000000000000000000000000000000000000000000000000002020202020000000000000000000000000000000000000000000000000000000000000000000000000000000000000000000000000000000000000000000000000000000000000000000000000000000000000000000000000000000000000000000000
310
00000000000000000000000000000000000000000000000000000000000000000000000000000000000000000000000000010000000000000000000000000000000000000000010000000000000000000000000000000000000000000000000100000000000100000000000100000000000000000000000000000000000000
310
00000000000000000000000000000000000000000000000000000000000000000000000000000000000000000000000000000000000000000000000000000000000000000000000000000000000000000000000000000000000000000000000000000003030301030303030303030303030303030303030303030301030303
310
00000000000000000000000000000000000000030301030303030303030303030301030300000000000000000000000000000000000000000000000000000000000000000000000000000000000000000000000000000000000000000000000000000000000000000000000000000000000000000000000000000000000000
310
00000000000000000000000000000000000000000000000000030303010303030303030303030404030303030303030303010303030000000000000000000000000000000000000003030103030303030303030303030103030000000000000000000000000000000000000000000000000000000000000000000000000000
310
00000000000000000000000000000000000000000000000000000000000000000000000000000000000000000000000000000000000000000000000000000000000000000000000000000000000303030303030303030300000303030303030000000303030303030303030000000000000000000000000000000000000000
310
01030300030301000000030303000000000000000000000000000000000000000000000000000000000000000000000000000000000000000000000000000000000000000000000000000000000000000000000000000000000000000000000000000000000000000000000000000000000000000000000000000000000000
310
00000003030303030303030303030300000303000003030000030303030303030300000000000000000000000000000000000000000003030303030303000001030301000000000000000000000000000000000000000000000000000000000000000000000000000000000000000000000000000000000000000000000000
310
00000000000000000000000000000000000000000000000000000000000000000000000000000000000000000000000000000000000000000300000000000300030000000000000100000000030300030000000000030000000000000000000000000000000000000000000303030103030300000303030000000000000000
310
00000000000000000000000000000000000000000000000000000000000000000000000000000000000000000000000000000000000000000000000000000000000000000000000000000000000000000000000000000000000000000000000000000000000000000000000000030000000000000300000000000000010000
310
00000000030000000000000303030303030000000000000000000000000000000003030303030303000003030300000000000000000000000000000000000000000000000000000000000000000000000000000000000000000000000000000000000000000000000000000000000000000000000000000000000000000000
310
00000000000000000000000000000000000000000000000000000000000000000000000301010101010301010101010101030303010101010101030101010101030301010103000000000000000000000000000000030303030303030301000303030000000000000000000000000000000000000000000000000000000000
310
00000000000000000000000000000000000000000000000000000000000000000000000000000000000000000000000000000000000000000000000000000000000000000000000000000000000000000000000000000000030000000000030000000303030303030303030300000000030000000003030303030300000000
310
00000000000000000000000301030003000303000003030300000000000000000000000000000000000000000000000000000000000000000000000000000000000000000000000000000000000000000000000000000000000000000000000000000000000000000000000000000000000000000000000000000000000000
310
00000000000000000000000000000300000300030303030300010003030303000000030303030003030000030000000000000000000000000000000000000000030300030303030300000303030000000000000000000000000000000000000000000000000000000000000000000000000000000000000000000000000000
310
00000000000000000000000000000000000000000000000000000000000000000000000000000000000000000000000000000000000000000000000000000000000000030303030303000003030301030300010000000001000000030303030303000000000000000000000000000000000000000003030303030303030000
310
03030300000000000000000000000000000000000000000000000000000000000000000000000000000000000000000000000000000000000000000000000000000000000000000000000000000000000000000000000000000000000000000000000000000000000000000000000000000000000000000000030300030000
310
03030003010000030100000303030300000003000303000000000000000000000000000000000000000000030303000000010000000303030000000000000000000000000000000000000000000000000000000000000000000000000000000000000000000000000000000000000000000000000000000000000000000000
310
00000000000000000000000000000000000000000000000000000000000000000000000000000000000000000000000303030000000303030001030300030003030001000300000003030300000000000000000000000000000000000000000003030300000001000000030303000000000000000000000000000000000000
310
00000000000000000000000000000000000000000000000000000000000000000000000000000000000000000000000000000000000000000000000000000000000000000000000000000000000000000000000000000000000000000000000000000000030303000003000303030303000303030003030303030300000303
310
03000000000000000000000000000303030303030303030303000000010000000303030303030303030303000000000000000000000000000000000000000000000000000000000000000000000000000000000000000000000000000000000000000000000000000000000000000000000000000000000000000000000000
310
00000000000000000000000000000000000000000000000000010301030101010103030101030103010303010101010303010103010301000000000000000000000001030101010101030103030301010101010101030303010301010101010301000000000000000000000000000000000000000000000000000000000000
310
00000000000000000000000000000000000000000000000000000000000000000000000000000000000000000000000000000000000000000000000000000000000000000000000000000000000000030303000003000303030103000301010101010101010101000300030000000000000000000000000003000000000003
310
00030303000000010000000303030003000000000003000000000000000000000000000000000000000000000000000000000000000000000000000000000000000000000000000000000000000000000000000000000000000000000000000000000000000000000000000000000000000000000000000000000000000000
310
00000000000303030000030003000303030303030303030001000303000003030300000000000000000000000000030303030303030303030300000001000000030303030303030303030300000000000000000000000000000000000000000000000000000000000000000000000000000000000000000000000000000000
310
00000000000000000000000000000000000000000000000000000000000000000000000000000000000000000000000000000000000000000000030303000000030003030103030303030003030303000300000303030000000000000000000000000000000000000000000303030000000100000003030300000000000000
310
00000000000000000000000000000000000000000000000000000000000000000000000000000000000000000000000000000000000000000000000000000000000000000000000000000000000000000000000000000000000000000000000000000000000000000000000000000003030003030000030000010003030100
310
03030001030300030300030300000000000000000000000000000000000000000003030300000001000000030303000000000000000000000000000000000000000000000000000000000000000000000000000000000000000000000000000000000000000000000000000000000000000000000000000000000000000000
310
00000000000000000000000000000000000000000000000000000000000000000000000000030300030003000003030103000001000000030300000300030003030000000000000000000000000000000000000000000303030000000100000003030300000000000000000000000000000000000000000000000000000000
310
00000000000000000000000000000000000000000000000000000000000000000000000000000000000000000000000000000000000000000000000000000000000000000000000000000000000000000000000000000000000003000300030003030303010303030303030303010303000300030003000000000000000000
310
00000000000000000000000000030300000001000000030303000000000000000000000000000000000000000000000000000000000000000000000000000000000000000000000000000000000000000000000000000000000000000000000000000000000000000000000000000000000000000000000000000000000000
310
00000000000000000000000000000000030000030300000000000000000001000000000000000003000300030000000000000000000000000000000000000000000003030000000100000003030300000000000000000000000000000000000000000000000000000000000000000000000000000000000000000000000000
310
00000000000000000000000000000000000000000000000000000000000000000000000000000000000000000000000000000000000000000000000000000000000000000003000003000300000000000000000100000000000000030003000003000000000000000000000000000000000000000000000303000000010000
310
00030303000000000000000000000000000000000000000000000000000000000000000000000000000000000000000000000000000000000000000000000000000000000000000000000000000000000000000000000000000000000000000000000000000000000000000000000000000000000000000000000003000003
310
00030000000000000001000000000000030003000000030000000000000000000000000000000000000000000003030000000100000003030300000000000000000000000000000000000000000000000000000000000000000000000000000000000000000000000000000000000000000000000000000000000000000000
310
00000000000000000000000000000000000000000000000000000000000000000000000000000000000000000000000000030000000300030000000000000100000000000300030000000003000000000000000000000000000000000000000000000303000000010000000303030000000000000000000000000000000000
310
00000000000000000000000000000000000000000000000000000000000000000000000000000000000000000000000000000000000000000000000000000000000000000000000000000000000000000000000000000000000000000000000000000000000003000000000300030303030000010003030303000300000000
310
03000000000000000000000000000000000000000000000003030000000100000101030300000000000000000000000000000000000000000000000000000000000000000000000000000000000000000000000000000000000000000000000000000000000000000000000000000000000000000000000000000000000000
310
00000000000000000000000000000000000000000000000000000000030300000100030303000003030303000003030300000000030300000000000000000000000000000000000000000000000303000000010000000303030000000000000000000000000000000000000000000000000000000000000000000000000000
310
00000000000000000000000000000000000000000000000000000000000000000000000000000000000000000000000000000000000000000000000000000000000000000000000000000000000000000000000303030303030003030303010303030003030303030300000000000000000000000000000000000000000000
310
00000003030000000100000003030000000000000000000000000000000000000000000000000000000000000000000000000000000000000000000000000000000000000000000000000000000000000000000000000000000000000000000000000000000000000000000000000000000000000000000000000000000000
310
00000000000000000000030303000003030303030303030303000000000000000000000000000000000000000000000000000000000000000003030303030303030300000000000000000000000000000000000000000000000000000000000000000000000000000000000000000000000000000000000000000000000000
310
00000000000000000000000000000000000000000000000000000000000000000000000000000000000000000000000000000000000000000000000000000000000000000000000003030000000000000000000000000000000000000000000000000000000000000000000000000000030303030300000000000000000000
310
00000000000000000000000000000000000000000000000000000000000000000000000000000000000000000000000000000000000000000000000000000000000000000000000000000000000000000000000000000000000000000000000000000000000000000000000000000000000000000000000000000000000303
310
00000000000000000000000000000000000000000000000000000000000000000000000000000103010301000000000000000000000000000000000000000000000000000000000000000000000000000000000000000000000000000000000000000000000000000000000000000000000000000000000000000000000000
310
00000000000000000000000000000000000000000000000000000000000000000000000000000000000000000000000000000003030000000000000000000000000000000000000000000000000000000000000000000000000000000303030000000000000000000000000000000000000000000000000000000000000000
310
00000000000000000000000000000000000000000000000000000000000000000000000000000000000000000000000000000000000000000000000000000000000000000000000000000000000000000000000000000000000000000000000000000000000000000001000000000000000000000000000000000000000000
310
00000000000000000000000000000000000000010000000000000000000000000000000000000000000000000000000000000000000000000000000000000000000000000000000000000000000000000000000000000000000000000000000000000000000000000000000000000000000000000000000000000000000000
310
00000000000000000000000000000000000000000000000000000000000000000000000000000000000000000000000000000000000000000000000000000000000000000000000000000000000000000000000000000000000000000000000000000000000000000000000000000000000000000000000000000000000000
310
00000000000000000000000000000000000000000000000000000000000000000000000000000000000000000000000000000000000000000000000000000000000000000000000000000000000000000000000000000000000000000000000000000000000000000000000000000000000000000000000000000000000000
310
00000000000000000000000000000000000000000000000000000000000000000000000000000000000000000000000000000000000000000000000000000000000000000000000000000000000000000000000000000000000000000000000000000000000000000000000000000000000000000000000000000000000000
310
00000000000000000000000000000000000000000000000000000000000000000000000000000000000000000000000000000000000000000000000000000000000000000000000000000000000000000000000000000000000000000000000000000000000000000000000000000000000000000000000000000000000000
310
00000000000000000000000000000000000000000000000000000000000000000000000000000000000000000000000000000000000000000000000000000000000000000000000000000000000000000000000000000000000000000000000000000000000000000000000000000000000000000000000000000000000000
310
00000000000000000000000000000000000000000000000000000000000000000000000000000000000000000000000000000000000000000000000000000000000000000000000000000000000000000000000000000000000000000000000000000000000000000000000000000000000000000000000000000000000000
310
00000000000000000000000000000000000000000000000000000000000000000000000000000000000000000000000000000000000000000000000000000000000000000000000000000000000000000000000000000000000000000000000000000000000000000000000000000000000000000000000000000000000000
310
00000000000000000000000000000000000000000000000000000000000000000000000000000000000000000000000000000000000000000000000000000000000000000000000000000000000000000000000000000000000000000000000000000000000000000000000000000000000000000000000000000000000000
310
00000000000000000000000000000000000000000000000000000000000000000000000000000000000000000000000000000000000000000000000000000000000000000000000000000000000000000000000000000000000000000000000000000000000000000000000000000000000000000000000000000000000000
310
00000000000000000000000000000000000000000000000000000000000000000000000000000000000000000000000000000000000000000000000000000000000000000000000000000000000000000000000000000000000000000000000000000000000000000000000000000000000000000000000000000000000000
310
00000000000000000000000000000000000000000000000000000000000000000000000000000000000000000000000000000000000000000000000000000000000000000000000000000000000000000000000000000000000000000000000000000000000000000000000000000000000000000000000000000000000000
310
00000000000000000000000000000000000000000000000000000000000000000000000000000000000000000000000000000000000000000000000000000000000000000000000000000000000000000000000000000000000000000000000000000000000000000000000000000000000000000000000000000000000000
310
00000000000000000000000000000000000000000000000000000000000000000000000000000000000000000000000000000000000000000000000000000000000000000000000000000000000000000000000000000000000000000000000000000000000000000000000000000000000000000000000000000000000000
310
00000000000000000000000000000000000000000000000000000000000000000000000000000000000000000000000000000000000000000000000000000000000000000000000000000000000000000000000000000000000000000000000000000000000000000000000000000000000000000000000000000000000000
310
00000000000000000000000000000000000000000000000000000000000000000000000000000000000000000000000000000000000000000000000000000000000000000000000000000000000000000000000000000000000000000000000000000000000000000000000000000000000000000000000000000000000000
310
00000000000000000000000000000000000000000000000000000000000000000000000000000000000000000000000000000000000000000000000000000000000000000000000000000000000000000000000000000000000000000000000000000000000000000000000000000000000000000000000000000000000000
310
00000000000000000000000000000000000000000000000000000000000000000000000000000000000000000000000000000000000000000000000000000000000000000000000000000000000000000000000000000000000000000000000000000000000000000000000000000000000000000000000000000000000000
310
00000000000000000000000000000000000000000000000000000000010000000000000000000000000000000000000000000000000000000000000000000000000000000000000000000000000000000000000000000000000000000000000000000000000000000000000000000000000000000000000000000000000000
310
00000000000000000000000000000000000000000000000000000000000000000000000000000000000000000000000000000000000000000000000000000000000000000000000000000000000000030303030000000000000000000000000000000000000000000000000000000000000000000000000000000000000000
310
00000000000000000000000000000000000000000000000000000000000000000000000000000000000000000000000000000000000000000000000000000000000000000000000000000000000000000000000000000000000000000000000000000000000000000000000000000000000000000000000000000000000000
310
00000000000303030300000000000000000000000000000000000000000000000000000000000000000000000000000000000000000000000000000000000000000000000000000000000000000000000000000000000000000000000000000000000000000000000000000000000000000000000000000000000000000000
310
00000000000000000000000000000000000000000000000000000000000000000000000000000000000000000000000000000000000000000000030303030000000000000000000000000000000000000000000000000000000000000000000000000000000000000000000000000000000000000000000000000000000000
310
00000000000000000000000000000000000000000000000000000000000000000000000000000000000000000000000000000000000000000000000000000000000000000000000000000000000000000000000000000000000000000000000000000000000000000000000000000003030303000000000000000000000000
310
00000000000000000000000000000000000000000000000000000000000000000000000000000000000000000000000000000000000000000000000000000000000000000000000000000000000000000000000000000000000000000000000000000000000000000000000000000000000000000000000000000000000000
310
00000000000000000000000000000000000000000000000000000000000000000000000000030303030000000000000000000000000000000000000000000000000000000000000000000000000000000000000000000000000000000000000000000000000000000000000000000000000000000000000000000000000000
310
00000000000000000000000000000000000000000000000000000000000000000000000000000000000000000000000000000000000000000000000000000000000000000000000000000000000000000000000000000000000003030303000000000000000000000000000000000000000000000000000000000000000000
310
00000000000000000000000000000000000000000000000000000000000000000000000000000000000000000000000000000000000000000000000000000000000000000000000000000000000000000000000000000000000000000000000000000000000000000000000000000000000000000000000000000000000000
310
00000000000000000303030103030300030303030000000000000000000303030103030300000000000000000000000000000000000000000000000000000000000000000000000000000000000000000000000000000000000000000000000000000000000000000000000000000000000000000000000000000000000000
310
00000000000000000000000000000000000000000000000000000000000000000000000000000000000000000000000000000000000000000000000000030003010000030003000103000001000000000100030000010300030000000000000000000000000000000000000000000000000000000000000000000000000000
310
00000000000000000000000000000000000000000000000000000000000000000000000000000000000000000000000000000000000000000000000000000000000000000000000000000000000000000000000000000000000000000000000000000000000000000000000000000000000003000301010303030303030303
310
03010303030303030303030101010300000000000000000000000000000000000000000000000000000000000000000000000000000000000000000000000000000000000000000000000000000000000000000000000000000000000000000000000000000000000000000000000000000000000000000000000000000000
310
00000000000000000000000000000000000000000000000000000000000000000000000000000003030303010303030303030303030301030303030303030303010303030300000000000000000000000000000000000000000000000000000000000000000000000000000000000000000000000000000000000000000000
310
00000000000000000000000000000000000000000000000000000000000000000000000000000000000000000000000000000000000000000000000000000000000000000000000000000000000000000000000000000000000000000303030303030303030303030303030103030303030303030303030303030000000000
310
00000000000000000000000000000000000000000000000000000000000000000000000000000000000000000000000000000000000000000000000000000000000000000000000000000000000000000000000000000000000000000000000000000000000000000000000000000000000000000000000000000000000000
310
00000000000000000000000000000000000003030000000000000000000100000001000000000100000000000000030303030303030000000000000000000000000000000000000000000000000000000000000000000000000000000000000000000000000000000000000000000000000000000000000000000000000000
310
00000000000000000000000000000000000000000000000000000000000000000000000000000000000000000000000000000000000000000000000000000000000000000000000303010101010101010101010101010101010101010101010101010103030101010101000000000000000000000000000000000000000000
310
00000000000000000000000000000000000000000000000000000000000000000000000000000000000000000000000000000000000000000000000000000000000000000000000000000000000000000000000000000000000000000000000000000000000000000000000000000000000000000000000000000000030300
310
00000303030000000100030301030000000100000000000000030303030303030000000000000000000000000000000000000000000000000000000000000000000000000000000000000000000000000000000000000000000000000000000000000000000000000000000000000000000000000000000000000000000000
310
00000000000000000000000000000000000000000000000000000000000000000000000000000000000000000000000000000303010101010101010101010101010101010101010101010101010103030100000000000000000000000000000000000000000000000000000000000000000000000000000000000000000000
310
00000000000000000000000000000000000000000000000000000000000000000000000000000000000000000000000000000000000000000000000000000000000000000000000000000000000000000000000000000000000000000000000000000000000000030300000003030300000001000303010300000001000000
310
00000000030300000000000000000000000000000000000000000000000000000000000000000000000000000000000000000000000000000000000000000000000000000000000000000000000000000000000000000000000000000000000000000000000000000000000000000000000000000000000000000000000000
310
00000000000000000000000000000000000000000000000000000000000003000000000100000000010003030103000000010000000000000003000000000000000000000000000000000000000000000000000000000000000000000000000000000000000000000000000000000000000000000000000000000000000000
310
00000000000000000000000000000000000000000000000000000000000000000000000000000000000000000000000000000000000000000000000000000000000000000000000000000000000000000000000300000000000000000001000000010000000001000000000000000300000000000000000000000000000000
310
00000000000000000000000000000000000000000000000000000000000000000000000000000000000000000000000000000000000000000000000000000000000000000000000000000000000000000000000000000000000000000000000000000000000000000000000000000000000000000000000000000000000000
310
00000000000000000003030303030303030303030303030103030303030303030303030303000000000000000000000000000000000000000000000000000000000000000000000000000000000000000000000000000000000000000000000000000000000000000000000000000000000000000000000000000000000000
310
00000000000000000000000000000000000000000000000000000000000000000000000000000000000000000000000000000000000000000000000000000303030103030303030303030303010303030303030303030103030300000000000000000000000000000000000000000000000000000000000000000000000000
310
00000000000000000000000000000000000000000000000000000000000000000000000000000000000000000000000000000000000000000000000000000000000000000000000000000000000000000000000000000000000000000000000000000000000000000000000000000000000000030303010103030303030303
310
03030103030303030303030101030103000000000000000000000000000000000000000000000000000000000000000000000000000000000000000000000000000000000000000000000000000000000000000000000000000000000000000000000000000000000000000000000000000000000000000000000000000000
310
00000000000000000000000000000000000000000000000000000000000000000000000000000000000300030100000003030001030000010000000001000300000103000300000000000000000000000000000000000000000000000000000000000000000000000000000000000000000000000000000000000000000000
310
00000000000000000000000000000000000000000000000000000000000000000000000000000000000000000000000000000000000000000000000000000000000000000000000000000000000000000000000000000000000000000000030303010303030003030103000000000000000000030303010303030000000000
310
00000000000000000000000000000000000000000000000000000000000000000000000000000000000000000000000000000000000000000000000000000000000000000000000000000000000000000000000000000000000000000000000000000000000000000000000000000000000000000000000000000000000000
310
00000000000000000000000000000000000000000000000000000000030301030000000000000000000000000000000000000000000000000000000000000000000000000000000000000000000000000000000000000000000000000000000000000000000000000000000000000000000000000000000000000000000000
310
00000000000000000000000000000000000000000000000000000000000000000000000000000000000000000000000000000000000000000000000000000000000000000000000000000000000000000003030103000000000000000000000000000000000000000000000000000000000000000000000000000000000000
310
00000000000000000000000000000000000000000000000000000000000000000000000000000000000000000000000000000000000000000000000000000000000000000000000000000000000000000000000000000000000000000000000000000000000000000000000000000000000000000000000000000000000000
310
00000000000000030301030000000000000000000000000000000000000000000000000000000000000000000000000000000000000000000000000000000000000000000000000000000000000000000000000000000000000000000000000000000000000000000000000000000000000000000000000000000000000000
310
00000000000000000000000000000000000000000000000000000000000000000000000000000000000000000000000000000000000000000000000003030103000000000000000000000000000000000000000000000000000000000000000000000000000000000000000000000000000000000000000000000000000000
310
00000000000000000000000000000000000000000000000000000000000000000000000000000000000000000000000000000000000000000000000000000000000000000000000000000000000000000000000000000000000000000000000000000000000000000000000000000000000303010300000000000000000000
310
00000000000000000000000000000000000000000000000000000000000000000000000000000000000000000000000000000000000000000000000000000000000000000000000000000000000000000000000000000000000000000000000000000000000000000000000000000000000000000000000000000000000000
310
00000000000000000000000000000000000000000000000000000000000000000000000000000003030103000000000000000000000000000000000000000000000000000000000000000000000000000000000000000000000000000000000000000000000000000000000000000000000000000000000000000000000000
310
00000000000000000000000000000000000000000000000000000000000000000000000000000000000000000000000000000000000000000000000000000000000000000000000000000000000000000000000000000000000000000303010300000000000000000000000000000000000000000000000000000000000000
310
00000000000000000000000000000000000000000000000000000000000000000000000000000000000000000000000000000000000000000000000000000000000000000000000000000000000000000000000000000000000000000000000000000000000000000000000000000000000000000000000000000000000000
310
00000000000000000000000000000000000000000000000000000000000000000000000000000000000000000000000000000000000000000000000000000000000000000000000000000000000000000000000000000000000000000000000000000000000000000000000000000000000000000000000000000000000000
310
00000000000000000000000000000000000000000000000000000000000000000000000000000000000000000000000000000000000000000000000000000000000000000000000000000000000000000000000000000000000000000000000000000000000000000000000000000000000000000000000000000000000000
310
00000000000000000000000000000000000000000000000000000000000000000000000000000000000000000000000000000000000000000000000000000000000000000000000000000000000000000000000000000000000000000000000000000000000000000000000000000000000000000000000000000000000000
310
00000000000000000000000000000000000000000000000000000000000000000000000000000000000000000000000000000000000000000000000000000000000000000000000000000000000000000000000000000000000000000000000000000000000000000000000000000000000000000000000000000000000000
310
00000000000000000000000000000000000000000000000000000000000000000000000000000000000000000000000000000000000000000000000000000000000000000000000000000000000000000000000000000000000000000000000000000000000000000000000000000000000000000000000000000000000000
310
00000000000000000000000000000000000000000000000000000000000000000000000000000000000000000000000000000000000000000000000000000000000000000000000000000000000000000000000000000000000000000000000000000000000000000000000000000000000000000000000000000000000000
310
000000000000000000000000000000000000000000000000000000000000000000000000000000000000000000000000000000000000000000000000000000000000000000000000000000000000000000000000000000000000000000000000000000000000000000000000
  0
ENDSEC
  0
EOF
