  0
SECTION
  2
HEADER
  9
$ACADVER
  1
AC1015
  9
$ACADMAINTVER
 70
     6
  9
$DWGCODEPAGE
  3
ANSI_932
  9
$INSBASE
 10
1048.669689372691
 20
470.0348555911914
 30
0.0
  9
$EXTMIN
 10
84.3441139029593
 20
14.61325832678097
 30
0.0
  9
$EXTMAX
 10
728.1589720185601
 20
544.0508090271252
 30
0.0
  9
$LIMMIN
 10
0.0
 20
0.0
  9
$LIMMAX
 10
816.5000000000001
 20
565.0
  9
$ORTHOMODE
 70
     1
  9
$REGENMODE
 70
     1
  9
$FILLMODE
 70
     1
  9
$QTEXTMODE
 70
     0
  9
$MIRRTEXT
 70
     1
  9
$LTSCALE
 40
5.0
  9
$ATTMODE
 70
     1
  9
$TEXTSIZE
 40
6.0
  9
$TRACEWID
 40
0.05
  9
$TEXTSTYLE
  7
KANJI
  9
$CLAYER
  8
2
  9
$CELTYPE
  6
BYLAYER
  9
$CECOLOR
 62
   256
  9
$CELTSCALE
 40
1.0
  9
$DISPSILH
 70
     0
  9
$DIMSCALE
 40
2.0
  9
$DIMASZ
 40
2.0
  9
$DIMEXO
 40
0.5
  9
$DIMDLI
 40
0.0
  9
$DIMRND
 40
0.0
  9
$DIMDLE
 40
0.0
  9
$DIMEXE
 40
1.0
  9
$DIMTP
 40
0.0
  9
$DIMTM
 40
0.0
  9
$DIMTXT
 40
3.0
  9
$DIMCEN
 40
0.09
  9
$DIMTSZ
 40
0.0
  9
$DIMTOL
 70
     0
  9
$DIMLIM
 70
     0
  9
$DIMTIH
 70
     0
  9
$DIMTOH
 70
     0
  9
$DIMSE1
 70
     0
  9
$DIMSE2
 70
     0
  9
$DIMTAD
 70
     0
  9
$DIMZIN
 70
     8
  9
$DIMBLK
  1

  9
$DIMASO
 70
     0
  9
$DIMSHO
 70
     0
  9
$DIMPOST
  1

  9
$DIMAPOST
  1

  9
$DIMALT
 70
     0
  9
$DIMALTD
 70
     2
  9
$DIMALTF
 40
25.4
  9
$DIMLFAC
 40
1.0
  9
$DIMTOFL
 70
     1
  9
$DIMTVP
 40
1.0
  9
$DIMTIX
 70
     1
  9
$DIMSOXD
 70
     1
  9
$DIMSAH
 70
     0
  9
$DIMBLK1
  1

  9
$DIMBLK2
  1

  9
$DIMSTYLE
  2
STANDARD
  9
$DIMCLRD
 70
   256
  9
$DIMCLRE
 70
   256
  9
$DIMCLRT
 70
     2
  9
$DIMTFAC
 40
1.0
  9
$DIMGAP
 40
0.09
  9
$DIMJUST
 70
     0
  9
$DIMSD1
 70
     0
  9
$DIMSD2
 70
     0
  9
$DIMTOLJ
 70
     1
  9
$DIMTZIN
 70
     0
  9
$DIMALTZ
 70
     0
  9
$DIMALTTZ
 70
     0
  9
$DIMUPT
 70
     0
  9
$DIMDEC
 70
     1
  9
$DIMTDEC
 70
     4
  9
$DIMALTU
 70
     2
  9
$DIMALTTD
 70
     2
  9
$DIMTXSTY
  7
STANDARD
  9
$DIMAUNIT
 70
     0
  9
$DIMADEC
 70
     0
  9
$DIMALTRND
 40
0.0
  9
$DIMAZIN
 70
     0
  9
$DIMDSEP
 70
    46
  9
$DIMATFIT
 70
     3
  9
$DIMFRAC
 70
     0
  9
$DIMLDRBLK
  1

  9
$DIMLUNIT
 70
     2
  9
$DIMLWD
 70
    -2
  9
$DIMLWE
 70
    -2
  9
$DIMTMOVE
 70
     0
  9
$LUNITS
 70
     2
  9
$LUPREC
 70
     3
  9
$SKETCHINC
 40
0.1
  9
$FILLETRAD
 40
1.0
  9
$AUNITS
 70
     0
  9
$AUPREC
 70
     3
  9
$MENU
  1
C:\R13\WIN\SUPPORT\ACADFULL
  9
$ELEVATION
 40
0.0
  9
$PELEVATION
 40
0.0
  9
$THICKNESS
 40
0.0
  9
$LIMCHECK
 70
     0
  9
$CHAMFERA
 40
0.0
  9
$CHAMFERB
 40
0.0
  9
$CHAMFERC
 40
0.0
  9
$CHAMFERD
 40
0.0
  9
$SKPOLY
 70
     0
  9
$TDCREATE
 40
2449813.131805555
  9
$TDUCREATE
 40
2449812.756805555
  9
$TDUPDATE
 40
2457906.392183183
  9
$TDUUPDATE
 40
2457906.017183183
  9
$TDINDWG
 40
1.3337389815
  9
$TDUSRTIMER
 40
1.3337378704
  9
$USRTIMER
 70
     1
  9
$ANGBASE
 50
0.0
  9
$ANGDIR
 70
     0
  9
$PDMODE
 70
     0
  9
$PDSIZE
 40
0.0
  9
$PLINEWID
 40
0.0
  9
$SPLFRAME
 70
     0
  9
$SPLINETYPE
 70
     6
  9
$SPLINESEGS
 70
     8
  9
$HANDSEED
  5
55F
  9
$SURFTAB1
 70
     6
  9
$SURFTAB2
 70
     6
  9
$SURFTYPE
 70
     6
  9
$SURFU
 70
     6
  9
$SURFV
 70
     6
  9
$UCSBASE
  2

  9
$UCSNAME
  2

  9
$UCSORG
 10
0.0
 20
0.0
 30
0.0
  9
$UCSXDIR
 10
1.0
 20
0.0
 30
0.0
  9
$UCSYDIR
 10
0.0
 20
1.0
 30
0.0
  9
$UCSORTHOREF
  2

  9
$UCSORTHOVIEW
 70
     0
  9
$UCSORGTOP
 10
0.0
 20
0.0
 30
0.0
  9
$UCSORGBOTTOM
 10
0.0
 20
0.0
 30
0.0
  9
$UCSORGLEFT
 10
0.0
 20
0.0
 30
0.0
  9
$UCSORGRIGHT
 10
0.0
 20
0.0
 30
0.0
  9
$UCSORGFRONT
 10
0.0
 20
0.0
 30
0.0
  9
$UCSORGBACK
 10
0.0
 20
0.0
 30
0.0
  9
$PUCSBASE
  2

  9
$PUCSNAME
  2

  9
$PUCSORG
 10
0.0
 20
0.0
 30
0.0
  9
$PUCSXDIR
 10
1.0
 20
0.0
 30
0.0
  9
$PUCSYDIR
 10
0.0
 20
1.0
 30
0.0
  9
$PUCSORTHOREF
  2

  9
$PUCSORTHOVIEW
 70
     0
  9
$PUCSORGTOP
 10
0.0
 20
0.0
 30
0.0
  9
$PUCSORGBOTTOM
 10
0.0
 20
0.0
 30
0.0
  9
$PUCSORGLEFT
 10
0.0
 20
0.0
 30
0.0
  9
$PUCSORGRIGHT
 10
0.0
 20
0.0
 30
0.0
  9
$PUCSORGFRONT
 10
0.0
 20
0.0
 30
0.0
  9
$PUCSORGBACK
 10
0.0
 20
0.0
 30
0.0
  9
$USERI1
 70
     0
  9
$USERI2
 70
     0
  9
$USERI3
 70
     0
  9
$USERI4
 70
     0
  9
$USERI5
 70
     0
  9
$USERR1
 40
0.0
  9
$USERR2
 40
0.0
  9
$USERR3
 40
0.0
  9
$USERR4
 40
2448925.372986111
  9
$USERR5
 40
0.04166667
  9
$WORLDVIEW
 70
     1
  9
$SHADEDGE
 70
     3
  9
$SHADEDIF
 70
    70
  9
$TILEMODE
 70
     1
  9
$MAXACTVP
 70
    16
  9
$PINSBASE
 10
0.0
 20
0.0
 30
0.0
  9
$PLIMCHECK
 70
     0
  9
$PEXTMIN
 10
1.000000000000000E+20
 20
1.000000000000000E+20
 30
1.000000000000000E+20
  9
$PEXTMAX
 10
-1.000000000000000E+20
 20
-1.000000000000000E+20
 30
-1.000000000000000E+20
  9
$PLIMMIN
 10
0.0
 20
0.0
  9
$PLIMMAX
 10
12.0
 20
9.0
  9
$UNITMODE
 70
     0
  9
$VISRETAIN
 70
     0
  9
$PLINEGEN
 70
     0
  9
$PSLTSCALE
 70
     0
  9
$TREEDEPTH
 70
  3020
  9
$CMLSTYLE
  2
STANDARD
  9
$CMLJUST
 70
     0
  9
$CMLSCALE
 40
1.0
  9
$PROXYGRAPHICS
 70
     1
  9
$MEASUREMENT
 70
     0
  9
$CELWEIGHT
370
    -1
  9
$ENDCAPS
280
     0
  9
$JOINSTYLE
280
     0
  9
$LWDISPLAY
290
     0
  9
$INSUNITS
 70
     0
  9
$HYPERLINKBASE
  1

  9
$STYLESHEET
  1
R14.ctb
  9
$XEDIT
290
     1
  9
$CEPSNTYPE
380
     0
  9
$PSTYLEMODE
290
     1
  9
$FINGERPRINTGUID
  2
{6C78344F-8850-415C-8417-AE82C6E72585}
  9
$VERSIONGUID
  2
{302A2CC8-8ACE-41AA-B348-7F69A3940F03}
  9
$EXTNAMES
290
     1
  9
$PSVPSCALE
 40
0.0
  9
$OLESTARTUP
290
     0
  0
ENDSEC
  0
SECTION
  2
CLASSES
  0
CLASS
  1
ACDBDICTIONARYWDFLT
  2
AcDbDictionaryWithDefault
  3
ObjectDBX Classes
 90
        0
280
     0
281
     0
  0
CLASS
  1
MATERIAL
  2
AcDbMaterial
  3
ObjectDBX Classes
 90
     1153
280
     0
281
     0
  0
CLASS
  1
SORTENTSTABLE
  2
AcDbSortentsTable
  3
ObjectDBX Classes
 90
        0
280
     0
281
     0
  0
CLASS
  1
SCALE
  2
AcDbScale
  3
ObjectDBX Classes
 90
     1153
280
     0
281
     0
  0
CLASS
  1
DICTIONARYVAR
  2
AcDbDictionaryVar
  3
ObjectDBX Classes
 90
        0
280
     0
281
     0
  0
CLASS
  1
VISUALSTYLE
  2
AcDbVisualStyle
  3
ObjectDBX Classes
 90
     4095
280
     0
281
     0
  0
CLASS
  1
MLEADERSTYLE
  2
AcDbMLeaderStyle
  3
ACDB_MLEADERSTYLE_CLASS
 90
     4095
280
     0
281
     0
  0
CLASS
  1
TABLESTYLE
  2
AcDbTableStyle
  3
ObjectDBX Classes
 90
     4095
280
     0
281
     0
  0
CLASS
  1
ACDBPLACEHOLDER
  2
AcDbPlaceHolder
  3
ObjectDBX Classes
 90
        0
280
     0
281
     0
  0
CLASS
  1
LAYOUT
  2
AcDbLayout
  3
ObjectDBX Classes
 90
        0
280
     0
281
     0
  0
ENDSEC
  0
SECTION
  2
TABLES
  0
TABLE
  2
VPORT
  5
25
102
{ACAD_XDICTIONARY
360
524
102
}
330
0
100
AcDbSymbolTable
 70
     2
  0
VPORT
  5
2B
330
25
100
AcDbSymbolTableRecord
100
AcDbViewportTableRecord
  2
*ACTIVE
 70
     0
 10
0.0
 20
0.0
 11
1.0
 21
1.0
 12
721.1761652480707
 22
342.9052695113879
 13
0.0
 23
0.0
 14
1.0
 24
1.0
 15
50.0
 25
50.0
 16
0.0
 26
0.0
 36
1.0
 17
0.0
 27
0.0
 37
0.0
 40
742.2793668274245
 41
2.174107142857143
 42
50.0
 43
0.0
 44
0.0
 50
0.0
 51
0.0
 71
     0
 72
  5000
 73
     1
 74
     0
 75
     0
 76
     0
 77
     0
 78
     0
281
     0
 65
     1
110
0.0
120
0.0
130
0.0
111
1.0
121
0.0
131
0.0
112
0.0
122
1.0
132
0.0
 79
     0
146
0.0
  0
ENDTAB
  0
TABLE
  2
LTYPE
  5
9
330
0
100
AcDbSymbolTable
 70
     2
  0
LTYPE
  5
A
330
9
100
AcDbSymbolTableRecord
100
AcDbLinetypeTableRecord
  2
BYBLOCK
 70
     0
  3

 72
    65
 73
     0
 40
0.0
  0
LTYPE
  5
B
330
9
100
AcDbSymbolTableRecord
100
AcDbLinetypeTableRecord
  2
BYLAYER
 70
     0
  3

 72
    65
 73
     0
 40
0.0
  0
LTYPE
  5
8
330
9
100
AcDbSymbolTableRecord
100
AcDbLinetypeTableRecord
  2
CONTINUOUS
 70
     0
  3
Solid line
 72
    65
 73
     0
 40
0.0
  0
LTYPE
  5
7E
330
9
100
AcDbSymbolTableRecord
100
AcDbLinetypeTableRecord
  2
CENTER
 70
     0
  3
____ _ ____ _ ____ _ ____ _ ____ _ ____ _ ____
 72
    65
 73
     4
 40
2.0
 49
1.25
 74
     0
 49
-0.25
 74
     0
 49
0.25
 74
     0
 49
-0.25
 74
     0
  0
ENDTAB
  0
TABLE
  2
LAYER
  5
2
330
0
100
AcDbSymbolTable
 70
     9
  0
LAYER
  5
19
330
2
100
AcDbSymbolTableRecord
100
AcDbLayerTableRecord
  2
0
 70
     0
 62
     7
  6
CONTINUOUS
370
    -3
390
3
  0
LAYER
  5
37F
330
2
100
AcDbSymbolTableRecord
100
AcDbLayerTableRecord
  2
1
 70
     0
 62
     9
  6
CONTINUOUS
370
    -3
390
3
  0
LAYER
  5
1
330
2
100
AcDbSymbolTableRecord
100
AcDbLayerTableRecord
  2
2
 70
     0
 62
     4
  6
CONTINUOUS
370
    -3
390
3
  0
LAYER
  5
80
330
2
100
AcDbSymbolTableRecord
100
AcDbLayerTableRecord
  2
4
 70
     0
 62
     3
  6
CONTINUOUS
370
    -3
390
3
  0
LAYER
  5
7D
330
2
100
AcDbSymbolTableRecord
100
AcDbLayerTableRecord
  2
L-CENTER
 70
     0
 62
     1
  6
CENTER
370
    -3
390
3
  0
LAYER
  5
74
330
2
100
AcDbSymbolTableRecord
100
AcDbLayerTableRecord
  2
3
 70
     0
 62
     2
  6
CONTINUOUS
370
    -3
390
3
  0
LAYER
  5
377
102
{ACAD_XDICTIONARY
360
378
102
}
330
2
100
AcDbSymbolTableRecord
100
AcDbLayerTableRecord
  2
5
 70
     0
 62
     6
  6
CONTINUOUS
370
    -3
390
3
  0
LAYER
  5
4BD
330
2
100
AcDbSymbolTableRecord
100
AcDbLayerTableRecord
  2
Defpoints
 70
     0
 62
     7
  6
CONTINUOUS
290
     0
370
    -3
390
3
  0
ENDTAB
  0
TABLE
  2
STYLE
  5
D
330
0
100
AcDbSymbolTable
 70
     2
  0
STYLE
  5
11
330
D
100
AcDbSymbolTableRecord
100
AcDbTextStyleTableRecord
  2
STANDARD
 70
     0
 40
0.0
 41
1.0
 50
0.0
 71
     0
 42
3.6
  3
TXT
  4

  0
STYLE
  5
C
330
D
100
AcDbSymbolTableRecord
100
AcDbTextStyleTableRecord
  2
KANJI
 70
     0
 40
0.0
 41
1.0
 50
0.0
 71
     0
 42
6.0
  3
TXT
  4
BIGFONT
  0
ENDTAB
  0
TABLE
  2
VIEW
  5
23
330
0
100
AcDbSymbolTable
 70
     0
  0
ENDTAB
  0
TABLE
  2
UCS
  5
24
330
0
100
AcDbSymbolTable
 70
     0
  0
ENDTAB
  0
TABLE
  2
APPID
  5
1E
330
0
100
AcDbSymbolTable
 70
     4
  0
APPID
  5
2A
330
1E
100
AcDbSymbolTableRecord
100
AcDbRegAppTableRecord
  2
ACAD
 70
     0
  0
APPID
  5
1D
330
1E
100
AcDbSymbolTableRecord
100
AcDbRegAppTableRecord
  2
ACAD_PSEXT
 70
     0
  0
APPID
  5
4B6
330
1E
100
AcDbSymbolTableRecord
100
AcDbRegAppTableRecord
  2
ACAD_MLEADERVER
 70
     0
  0
ENDTAB
  0
TABLE
  2
DIMSTYLE
  5
10
330
0
100
AcDbSymbolTable
 70
     1
100
AcDbDimStyleTable
  0
DIMSTYLE
105
F
330
10
100
AcDbSymbolTableRecord
100
AcDbDimStyleTableRecord
  2
STANDARD
 70
     0
178
     0
340
11
  0
ENDTAB
  0
TABLE
  2
BLOCK_RECORD
  5
14
330
0
100
AcDbSymbolTable
 70
     0
  0
BLOCK_RECORD
  5
15
102
{ACAD_XDICTIONARY
360
16
102
}
330
14
100
AcDbSymbolTableRecord
100
AcDbBlockTableRecord
  2
*MODEL_SPACE
340
1B
  0
BLOCK_RECORD
  5
1F
330
14
100
AcDbSymbolTableRecord
100
AcDbBlockTableRecord
  2
*PAPER_SPACE
340
22
  0
ENDTAB
  0
ENDSEC
  0
SECTION
  2
BLOCKS
  0
BLOCK
  5
18
330
15
100
AcDbEntity
  8
0
100
AcDbBlockBegin
  2
*MODEL_SPACE
 70
     0
 10
0.0
 20
0.0
 30
0.0
  3
*MODEL_SPACE
  1

  0
ENDBLK
  5
1A
330
15
100
AcDbEntity
  8
0
100
AcDbBlockEnd
  0
BLOCK
  5
20
330
1F
100
AcDbEntity
 67
     1
  8
0
100
AcDbBlockBegin
  2
*PAPER_SPACE
 70
     0
 10
0.0
 20
0.0
 30
0.0
  3
*PAPER_SPACE
  1

  0
ENDBLK
  5
21
330
1F
100
AcDbEntity
 67
     1
  8
0
100
AcDbBlockEnd
  0
ENDSEC
  0
SECTION
  2
ENTITIES
  0
TEXT
  5
73
330
15
100
AcDbEntity
  8
3
100
AcDbText
 10
394.7829639409478
 20
18.61702045030574
 30
0.0
 40
6.0
  1
LD1-04
  7
KANJI
 72
     1
 11
410.2829639409478
 21
18.61702045030574
 31
0.0
100
AcDbText
  0
LINE
  5
7C
330
15
100
AcDbEntity
  8
L-CENTER
 48
2.0
100
AcDbLine
 10
382.6614376104623
 20
70.61325782678097
 30
0.0
 11
85.3441139029593
 21
70.61325782678102
 31
0.0
  0
LINE
  5
7F
330
15
100
AcDbEntity
  8
4
100
AcDbLine
 10
349.0026532567107
 20
77.61325832678097
 30
0.0
 11
378.5026537567109
 21
77.61325832678097
 31
0.0
  0
LINE
  5
81
330
15
100
AcDbEntity
  8
4
100
AcDbLine
 10
379.0026532567107
 20
79.61325782678097
 30
0.0
 11
352.0026532567107
 21
79.61325782678097
 31
0.0
  0
LINE
  5
82
330
15
100
AcDbEntity
  8
4
100
AcDbLine
 10
349.0026532567107
 20
63.61325882678096
 30
0.0
 11
378.5026537567109
 21
63.61325882678096
 31
0.0
  0
CIRCLE
  5
83
330
15
100
AcDbEntity
  8
4
100
AcDbCircle
 10
211.8017722567107
 20
113.613075326781
 30
0.0
 40
31.0000005
  0
LINE
  5
84
330
15
100
AcDbEntity
  8
L-CENTER
 48
2.0
100
AcDbLine
 10
211.8017722567107
 20
67.67121182678102
 30
0.0
 11
211.8017722567107
 21
159.5549388267809
 31
0.0
  0
LINE
  5
85
330
15
100
AcDbEntity
  8
4
100
AcDbLine
 10
128.0027767567108
 20
53.11325882678096
 30
0.0
 11
128.0027767567108
 21
88.11325832678097
 31
0.0
  0
LINE
  5
86
330
15
100
AcDbEntity
  8
L-CENTER
 48
2.0
100
AcDbLine
 10
234.0027757567108
 20
20.97235682678098
 30
0.0
 11
234.0027757567108
 21
216.6270483267809
 31
0.0
  0
LINE
  5
87
330
15
100
AcDbEntity
  8
4
100
AcDbLine
 10
340.0026532567107
 20
88.11325832678097
 30
0.0
 11
340.0026532567107
 21
53.11325882678096
 31
0.0
  0
LINE
  5
88
330
15
100
AcDbEntity
  8
4
100
AcDbLine
 10
129.0027757567108
 20
96.61325882678096
 30
0.0
 11
129.0027757567108
 21
44.61325832678097
 31
0.0
  0
LINE
  5
89
330
15
100
AcDbEntity
  8
4
100
AcDbLine
 10
339.0026542567108
 20
96.61325882678096
 30
0.0
 11
339.0026542567108
 21
44.61325832678097
 31
0.0
  0
CIRCLE
  5
8A
330
15
100
AcDbEntity
  8
4
100
AcDbCircle
 10
234.0027757567108
 20
114.613075826781
 30
0.0
 40
88.000122
  0
ARC
  5
8B
330
15
100
AcDbEntity
  8
4
100
AcDbCircle
 10
211.8017722567107
 20
113.613075326781
 30
0.0
 40
40.9999995
100
AcDbArc
 50
36.99768600000012
 51
341.2696360000001
  0
ARC
  5
8C
330
15
100
AcDbEntity
  8
4
100
AcDbCircle
 10
274.0026547567107
 20
69.61325882678096
 30
0.0
 40
13.9999995
100
AcDbArc
 50
322.6073129999997
 51
300.6606509999998
  0
LINE
  5
8D
330
15
100
AcDbEntity
  8
L-CENTER
 48
2.0
100
AcDbLine
 10
274.0026547567107
 20
154.3908493523263
 30
0.0
 11
274.0026547567107
 21
50.55720450314971
 31
0.0
  0
ARC
  5
8E
330
15
100
AcDbEntity
  8
4
100
AcDbCircle
 10
234.0027757567108
 20
114.613075826781
 30
0.0
 40
74.000001
100
AcDbArc
 50
279.2445250000001
 51
260.756243
  0
ARC
  5
8F
330
15
100
AcDbEntity
  8
4
100
AcDbCircle
 10
170.0027767567107
 20
36.61325882678096
 30
0.0
 40
1.9999995
100
AcDbArc
 50
0.0
 51
90.0
  0
LINE
  5
90
330
15
100
AcDbEntity
  8
4
100
AcDbLine
 10
183.0027757567108
 20
38.61325832678097
 30
0.0
 11
139.0027762567107
 21
38.61325832678097
 31
0.0
  0
LINE
  5
91
330
15
100
AcDbEntity
  8
4
100
AcDbLine
 10
185.0027767567107
 20
20.61325832678097
 30
0.0
 11
139.0027762567107
 21
20.61325832678097
 31
0.0
  0
LINE
  5
92
330
15
100
AcDbEntity
  8
4
100
AcDbLine
 10
139.0027762567107
 20
41.61325832678097
 30
0.0
 11
139.0027762567107
 21
20.61325832678097
 31
0.0
  0
LINE
  5
93
330
15
100
AcDbEntity
  8
4
100
AcDbLine
 10
136.0027762567107
 20
44.61325832678097
 30
0.0
 11
129.0027757567108
 21
44.61325832678097
 31
0.0
  0
ARC
  5
94
330
15
100
AcDbEntity
  8
4
100
AcDbCircle
 10
136.0027762567107
 20
41.61325832678097
 30
0.0
 40
3.0
100
AcDbArc
 50
0.0
 51
90.0
  0
LINE
  5
95
330
15
100
AcDbEntity
  8
4
100
AcDbLine
 10
172.0027762567107
 20
36.61325882678096
 30
0.0
 11
172.0027762567107
 21
20.61325832678097
 31
0.0
  0
LINE
  5
96
330
15
100
AcDbEntity
  8
L-CENTER
 48
2.0
100
AcDbLine
 10
154.0027762567107
 20
14.61325832678097
 30
0.0
 11
154.0027762567107
 21
44.61325832678097
 31
0.0
  0
LINE
  5
97
330
15
100
AcDbEntity
  8
4
100
AcDbLine
 10
129.0027757567108
 20
54.00000782678097
 30
0.0
 11
170.2059622567107
 21
54.00000782678097
 31
0.0
  0
LINE
  5
98
330
15
100
AcDbEntity
  8
4
100
AcDbLine
 10
128.0027767567108
 20
53.11325882678096
 30
0.0
 11
129.0027757567108
 21
53.11325882678096
 31
0.0
  0
LINE
  5
99
330
15
100
AcDbEntity
  8
4
100
AcDbLine
 10
234.0027757567108
 20
24.61325882678096
 30
0.0
 11
279.0026542567108
 21
24.61325882678096
 31
0.0
  0
LINE
  5
9A
330
15
100
AcDbEntity
  8
L-CENTER
 48
2.0
100
AcDbLine
 10
256.6964922578182
 20
69.61325882678096
 30
0.0
 11
291.3088172556032
 21
69.61325882678096
 31
0.0
  0
LINE
  5
9B
330
15
100
AcDbEntity
  8
4
100
AcDbLine
 10
263.1774592567107
 20
63.36324332678095
 30
0.0
 11
274.0026547567107
 21
57.11324282678095
 31
0.0
  0
LINE
  5
9C
330
15
100
AcDbEntity
  8
4
100
AcDbLine
 10
274.0026547567107
 20
82.11325832678097
 30
0.0
 11
263.1774592567107
 21
75.86325782678097
 31
0.0
  0
CIRCLE
  5
9D
330
15
100
AcDbEntity
  8
4
100
AcDbCircle
 10
274.0026547567107
 20
69.61325882678096
 30
0.0
 40
12.4999995
  0
LINE
  5
9E
330
15
100
AcDbEntity
  8
4
100
AcDbLine
 10
234.0027757567108
 20
24.61325882678096
 30
0.0
 11
189.0027757567108
 21
24.61325882678096
 31
0.0
  0
ARC
  5
9F
330
15
100
AcDbEntity
  8
4
100
AcDbCircle
 10
234.0027757567108
 20
314.612830826781
 30
0.0
 40
250.0000005
100
AcDbArc
 50
255.987293
 51
276.0782669999999
  0
LINE
  5
A0
330
15
100
AcDbEntity
  8
4
100
AcDbLine
 10
185.0027767567107
 20
36.61325882678096
 30
0.0
 11
185.0027767567107
 21
20.61325832678097
 31
0.0
  0
ARC
  5
A1
330
15
100
AcDbEntity
  8
4
100
AcDbCircle
 10
189.0027757567108
 20
20.61325832678097
 30
0.0
 40
4.0000005
100
AcDbArc
 50
90.0
 51
180.0002149984452
  0
ARC
  5
A2
330
15
100
AcDbEntity
  8
4
100
AcDbCircle
 10
183.0027757567108
 20
36.61325882678096
 30
0.0
 40
1.9999995
100
AcDbArc
 50
0.0
 51
90.0
  0
ARC
  5
A3
330
15
100
AcDbEntity
  8
4
100
AcDbCircle
 10
245.5688932567108
 20
43.54831682678099
 30
0.0
 40
2.0000025
100
AcDbArc
 50
207.1642409999993
 51
279.2442830000011
  0
LINE
  5
A4
330
15
100
AcDbEntity
  8
L-CENTER
 48
2.0
100
AcDbLine
 10
221.9296251648619
 20
37.61325782678097
 30
0.0
 11
246.0759263485596
 21
37.61325782678097
 31
0.0
  0
LINE
  5
A5
330
15
100
AcDbEntity
  8
2
100
AcDbLine
 10
234.0027757567108
 20
41.40842282678096
 30
0.0
 11
230.7158797567107
 21
39.51077732678095
 31
0.0
  0
LINE
  5
A6
330
15
100
AcDbEntity
  8
2
100
AcDbLine
 10
230.7158797567107
 20
35.71576682678096
 30
0.0
 11
234.0027757567108
 21
33.81820232678098
 31
0.0
  0
CIRCLE
  5
A7
330
15
100
AcDbEntity
  8
2
100
AcDbCircle
 10
234.0027757567108
 20
37.61325782678097
 30
0.0
 40
4.949999999999999
  0
CIRCLE
  5
A8
330
15
100
AcDbEntity
  8
4
100
AcDbCircle
 10
234.0027757567108
 20
37.61325782678097
 30
0.0
 40
5.449999999999999
  0
ARC
  5
A9
330
15
100
AcDbEntity
  8
4
100
AcDbCircle
 10
234.0027757567108
 20
37.61325782678097
 30
0.0
 40
10.999998
100
AcDbArc
 50
27.16426199999951
 51
152.8362710000003
  0
LINE
  5
AA
330
15
100
AcDbEntity
  8
2
100
AcDbLine
 10
230.7158797567107
 20
39.51077732678095
 30
0.0
 11
230.7158797567107
 21
35.71576682678096
 31
0.0
  0
ARC
  5
AB
330
15
100
AcDbEntity
  8
4
100
AcDbCircle
 10
222.4366597567108
 20
43.54831682678099
 30
0.0
 40
2.0000025
100
AcDbArc
 50
260.7561409999972
 51
332.8367199999998
  0
LINE
  5
AC
330
15
100
AcDbEntity
  8
2
100
AcDbLine
 10
234.0027757567108
 20
41.40842282678096
 30
0.0
 11
237.2896732567109
 21
39.51077732678095
 31
0.0
  0
LINE
  5
AD
330
15
100
AcDbEntity
  8
2
100
AcDbLine
 10
237.2896732567109
 20
39.51077732678095
 30
0.0
 11
237.2896732567109
 21
35.71576682678096
 31
0.0
  0
LINE
  5
AE
330
15
100
AcDbEntity
  8
2
100
AcDbLine
 10
237.2896732567109
 20
35.71576682678096
 30
0.0
 11
234.0027757567108
 21
33.81820232678098
 31
0.0
  0
LINE
  5
AF
330
15
100
AcDbEntity
  8
4
100
AcDbLine
 10
263.1774592567107
 20
63.36324332678095
 30
0.0
 11
263.1774592567107
 21
75.86325782678097
 31
0.0
  0
LINE
  5
B0
330
15
100
AcDbEntity
  8
4
100
AcDbLine
 10
283.0026547567107
 20
20.61325832678097
 30
0.0
 11
329.0026537567109
 21
20.61325832678097
 31
0.0
  0
LINE
  5
B1
330
15
100
AcDbEntity
  8
4
100
AcDbLine
 10
285.0026542567108
 20
38.61325832678097
 30
0.0
 11
329.0026537567109
 21
38.61325832678097
 31
0.0
  0
LINE
  5
B2
330
15
100
AcDbEntity
  8
4
100
AcDbLine
 10
297.7995292567108
 20
54.00000782678097
 30
0.0
 11
339.0026542567108
 21
54.00000782678097
 31
0.0
  0
LINE
  5
B3
330
15
100
AcDbEntity
  8
4
100
AcDbLine
 10
283.0026547567107
 20
36.61325882678096
 30
0.0
 11
283.0026547567107
 21
20.61325832678097
 31
0.0
  0
ARC
  5
B4
330
15
100
AcDbEntity
  8
4
100
AcDbCircle
 10
279.0026542567108
 20
20.61325832678097
 30
0.0
 40
4.0000005
100
AcDbArc
 50
0.0
 51
90.0
  0
ARC
  5
B5
330
15
100
AcDbEntity
  8
4
100
AcDbCircle
 10
285.0026542567108
 20
36.61325882678096
 30
0.0
 40
1.9999995
100
AcDbArc
 50
90.0
 51
180.0004300002808
  0
LINE
  5
B6
330
15
100
AcDbEntity
  8
4
100
AcDbLine
 10
296.0026537567109
 20
36.61325882678096
 30
0.0
 11
296.0026537567109
 21
20.61325832678097
 31
0.0
  0
LINE
  5
B7
330
15
100
AcDbEntity
  8
L-CENTER
 48
2.0
100
AcDbLine
 10
314.0026537567109
 20
14.61325832678097
 30
0.0
 11
314.0026537567109
 21
44.61325832678097
 31
0.0
  0
ARC
  5
B8
330
15
100
AcDbEntity
  8
4
100
AcDbCircle
 10
298.0026532567107
 20
36.61325882678096
 30
0.0
 40
1.9999995
100
AcDbArc
 50
90.0
 51
180.0004300002808
  0
LINE
  5
B9
330
15
100
AcDbEntity
  8
4
100
AcDbLine
 10
284.8280947567108
 20
63.36325832678097
 30
0.0
 11
284.8280947567108
 21
75.86325782678097
 31
0.0
  0
LINE
  5
BA
330
15
100
AcDbEntity
  8
4
100
AcDbLine
 10
274.0026547567107
 20
57.11324282678095
 30
0.0
 11
284.8280947567108
 21
63.36325832678097
 31
0.0
  0
LINE
  5
BB
330
15
100
AcDbEntity
  8
4
100
AcDbLine
 10
284.8280947567108
 20
75.86325782678097
 30
0.0
 11
274.0026547567107
 21
82.11325832678097
 31
0.0
  0
ARC
  5
BC
330
15
100
AcDbEntity
  8
4
100
AcDbCircle
 10
234.0027757567108
 20
314.612830826781
 30
0.0
 40
250.000002
100
AcDbArc
 50
282.467937
 51
284.013583
  0
LINE
  5
BD
330
15
100
AcDbEntity
  8
4
100
AcDbLine
 10
329.0026537567109
 20
41.61325832678097
 30
0.0
 11
329.0026537567109
 21
20.61325832678097
 31
0.0
  0
LINE
  5
BE
330
15
100
AcDbEntity
  8
4
100
AcDbLine
 10
332.0026537567109
 20
44.61325832678097
 30
0.0
 11
339.0026542567108
 21
44.61325832678097
 31
0.0
  0
ARC
  5
BF
330
15
100
AcDbEntity
  8
4
100
AcDbCircle
 10
332.0026537567109
 20
41.61325832678097
 30
0.0
 40
3.0
100
AcDbArc
 50
90.0
 51
180.0002860014283
  0
LINE
  5
C0
330
15
100
AcDbEntity
  8
4
100
AcDbLine
 10
340.0026532567107
 20
78.11325782678097
 30
0.0
 11
349.0026532567107
 21
78.11325782678097
 31
0.0
  0
LINE
  5
C1
330
15
100
AcDbEntity
  8
4
100
AcDbLine
 10
340.0026532567107
 20
63.11325782678097
 30
0.0
 11
349.0026532567107
 21
63.11325782678097
 31
0.0
  0
LINE
  5
C2
330
15
100
AcDbEntity
  8
4
100
AcDbLine
 10
339.0026542567108
 20
53.11325882678096
 30
0.0
 11
340.0026532567107
 21
53.11325882678096
 31
0.0
  0
LINE
  5
C3
330
15
100
AcDbEntity
  8
4
100
AcDbLine
 10
349.0026532567107
 20
78.11325782678097
 30
0.0
 11
349.0026532567107
 21
63.11325782678097
 31
0.0
  0
LINE
  5
C4
330
15
100
AcDbEntity
  8
4
100
AcDbLine
 10
352.0026532567107
 20
79.61325782678097
 30
0.0
 11
352.0026532567107
 21
77.61325832678097
 31
0.0
  0
LINE
  5
C5
330
15
100
AcDbEntity
  8
L-CENTER
 48
2.0
100
AcDbLine
 10
165.8599087567108
 20
113.613075326781
 30
0.0
 11
257.7436357567107
 21
113.613075326781
 31
0.0
  0
ARC
  5
C6
330
15
100
AcDbEntity
  8
4
100
AcDbCircle
 10
234.0027757567108
 20
-145.386770673219
 30
0.0
 40
350.0000895000001
100
AcDbArc
 50
76.19737
 51
103.802864
  0
LINE
  5
C7
330
15
100
AcDbEntity
  8
L-CENTER
 48
2.0
100
AcDbLine
 10
135.9268628431847
 20
114.613075826781
 30
0.0
 11
332.0786886702368
 21
114.613075826781
 31
0.0
  0
ARC
  5
C8
330
15
100
AcDbEntity
  8
4
100
AcDbCircle
 10
489.0028972567108
 20
114.613075826781
 30
0.0
 40
350.000001
100
AcDbArc
 50
167.310181
 51
180.0002399984903
  0
LINE
  5
C9
330
15
100
AcDbEntity
  8
4
100
AcDbLine
 10
147.6574702567108
 20
87.22650932678096
 30
0.0
 11
129.0027757567108
 21
87.22650932678096
 31
0.0
  0
LINE
  5
CA
330
15
100
AcDbEntity
  8
4
100
AcDbLine
 10
139.0027762567107
 20
99.61325882678096
 30
0.0
 11
139.0027762567107
 21
114.613075826781
 31
0.0
  0
LINE
  5
CB
330
15
100
AcDbEntity
  8
4
100
AcDbLine
 10
136.0027762567107
 20
96.61325882678096
 30
0.0
 11
129.0027757567108
 21
96.61325882678096
 31
0.0
  0
LINE
  5
CC
330
15
100
AcDbEntity
  8
4
100
AcDbLine
 10
129.0027757567108
 20
88.11325832678097
 30
0.0
 11
128.0027767567108
 21
88.11325832678097
 31
0.0
  0
ARC
  5
CD
330
15
100
AcDbEntity
  8
4
100
AcDbCircle
 10
136.0027762567107
 20
99.61325882678096
 30
0.0
 40
3.0
100
AcDbArc
 50
270.0005919999992
 51
0.0
  0
ARC
  5
CE
330
15
100
AcDbEntity
  8
4
100
AcDbCircle
 10
147.6574702567108
 20
89.22650882678096
 30
0.0
 40
2.000004
100
AcDbArc
 50
270.0004300000007
 51
16.38396399999996
  0
ARC
  5
CF
330
15
100
AcDbEntity
  8
4
100
AcDbCircle
 10
151.4549857567107
 20
190.621864826781
 30
0.0
 40
4.000014
100
AcDbArc
 50
103.8027940000003
 51
167.3106040000002
  0
CIRCLE
  5
D0
330
15
100
AcDbEntity
  8
4
100
AcDbCircle
 10
274.0026547567107
 20
123.613075826781
 30
0.0
 40
17.5000005
  0
LINE
  5
D1
330
15
100
AcDbEntity
  8
L-CENTER
 48
2.0
100
AcDbLine
 10
304.7804282822561
 20
123.613075826781
 30
0.0
 11
243.2248812311653
 21
123.613075826781
 31
0.0
  0
ARC
  5
D2
330
15
100
AcDbEntity
  8
4
100
AcDbCircle
 10
234.0027757567108
 20
-85.38674217321903
 30
0.0
 40
250.0000935
100
AcDbArc
 50
75.98684300000004
 51
104.013173
  0
ARC
  5
D3
330
15
100
AcDbEntity
  8
4
100
AcDbCircle
 10
274.0026547567107
 20
123.613075826781
 30
0.0
 40
26.0000295
100
AcDbArc
 50
233.0439809999998
 51
145.2228439999999
  0
ARC
  5
D4
330
15
100
AcDbEntity
  8
4
100
AcDbCircle
 10
255.3654007567108
 20
98.84133182678096
 30
0.0
 40
4.9999995
100
AcDbArc
 50
53.04368199999967
 51
161.2694500000003
  0
ARC
  5
D5
330
15
100
AcDbEntity
  8
4
100
AcDbCircle
 10
248.5401307567107
 20
141.2952048267809
 30
0.0
 40
5.000004000000001
100
AcDbArc
 50
216.9988670000003
 51
325.2241360000003
  0
LINE
  5
D6
330
15
100
AcDbEntity
  8
4
100
AcDbLine
 10
248.0027767567107
 20
205.613074826781
 30
0.0
 11
220.0027762567107
 21
205.613074826781
 31
0.0
  0
LINE
  5
D7
330
15
100
AcDbEntity
  8
4
100
AcDbLine
 10
249.0027757567108
 20
168.613075826781
 30
0.0
 11
219.0027757567108
 21
168.613075826781
 31
0.0
  0
LINE
  5
D8
330
15
100
AcDbEntity
  8
4
100
AcDbLine
 10
249.0027757567108
 20
183.613075826781
 30
0.0
 11
219.0027757567108
 21
183.613075826781
 31
0.0
  0
LINE
  5
D9
330
15
100
AcDbEntity
  8
4
100
AcDbLine
 10
220.0027762567107
 20
181.113075326781
 30
0.0
 11
222.0027757567108
 21
181.113075326781
 31
0.0
  0
LINE
  5
DA
330
15
100
AcDbEntity
  8
4
100
AcDbLine
 10
220.0027762567107
 20
171.113074826781
 30
0.0
 11
227.0027767567107
 21
171.113074826781
 31
0.0
  0
LINE
  5
DB
330
15
100
AcDbEntity
  8
4
100
AcDbLine
 10
217.0027762567107
 20
170.613075326781
 30
0.0
 11
217.0027762567107
 21
181.613074826781
 31
0.0
  0
ARC
  5
DC
330
15
100
AcDbEntity
  8
4
100
AcDbCircle
 10
219.0027757567108
 20
170.613075326781
 30
0.0
 40
1.9999995
100
AcDbArc
 50
180.0
 51
270.0004580000016
  0
LINE
  5
DD
330
15
100
AcDbEntity
  8
4
100
AcDbLine
 10
220.0027762567107
 20
171.113074826781
 30
0.0
 11
220.0027762567107
 21
181.113075326781
 31
0.0
  0
ARC
  5
DE
330
15
100
AcDbEntity
  8
4
100
AcDbCircle
 10
219.0027757567108
 20
181.613074826781
 30
0.0
 40
1.9999995
100
AcDbArc
 50
90.0
 51
180.0
  0
LINE
  5
DF
330
15
100
AcDbEntity
  8
4
100
AcDbLine
 10
220.0027762567107
 20
205.613074826781
 30
0.0
 11
220.0027762567107
 21
204.333046826781
 31
0.0
  0
LINE
  5
E0
330
15
100
AcDbEntity
  8
4
100
AcDbLine
 10
246.0027757567108
 20
181.113075326781
 30
0.0
 11
244.0027762567107
 21
179.113075826781
 31
0.0
  0
LINE
  5
E1
330
15
100
AcDbEntity
  8
4
100
AcDbLine
 10
246.0027757567108
 20
179.113075826781
 30
0.0
 11
244.0027762567107
 21
179.113075826781
 31
0.0
  0
ARC
  5
E2
330
15
100
AcDbEntity
  8
4
100
AcDbCircle
 10
233.0027767567107
 20
178.113075326781
 30
0.0
 40
1.0000005
100
AcDbArc
 50
0.0
 51
90.0
  0
ARC
  5
E3
330
15
100
AcDbEntity
  8
4
100
AcDbCircle
 10
233.0027767567107
 20
174.113074826781
 30
0.0
 40
1.0000005
100
AcDbArc
 50
270.0009170000012
 51
0.0
  0
LINE
  5
E4
330
15
100
AcDbEntity
  8
4
100
AcDbLine
 10
229.0027762567107
 20
181.113075326781
 30
0.0
 11
234.0027757567108
 21
181.113075326781
 31
0.0
  0
LINE
  5
E5
330
15
100
AcDbEntity
  8
4
100
AcDbLine
 10
229.0027762567107
 20
171.113074826781
 30
0.0
 11
234.0027757567108
 21
171.113074826781
 31
0.0
  0
LINE
  5
E6
330
15
100
AcDbEntity
  8
4
100
AcDbLine
 10
222.0027757567108
 20
173.113075826781
 30
0.0
 11
222.0027757567108
 21
181.113075326781
 31
0.0
  0
LINE
  5
E7
330
15
100
AcDbEntity
  8
4
100
AcDbLine
 10
229.0027762567107
 20
181.113075326781
 30
0.0
 11
229.0027762567107
 21
171.113074826781
 31
0.0
  0
LINE
  5
E8
330
15
100
AcDbEntity
  8
4
100
AcDbLine
 10
227.0027767567107
 20
171.113074826781
 30
0.0
 11
227.0027767567107
 21
173.113075826781
 31
0.0
  0
LINE
  5
E9
330
15
100
AcDbEntity
  8
4
100
AcDbLine
 10
222.0027757567108
 20
173.113075826781
 30
0.0
 11
227.0027767567107
 21
173.113075826781
 31
0.0
  0
LINE
  5
EA
330
15
100
AcDbEntity
  8
4
100
AcDbLine
 10
231.0027757567108
 20
179.113075826781
 30
0.0
 11
233.0027767567107
 21
179.113075826781
 31
0.0
  0
LINE
  5
EB
330
15
100
AcDbEntity
  8
4
100
AcDbLine
 10
231.0027757567108
 20
173.113075826781
 30
0.0
 11
233.0027767567107
 21
173.113075826781
 31
0.0
  0
LINE
  5
EC
330
15
100
AcDbEntity
  8
4
100
AcDbLine
 10
231.0027757567108
 20
173.113075826781
 30
0.0
 11
231.0027757567108
 21
179.113075826781
 31
0.0
  0
ARC
  5
ED
330
15
100
AcDbEntity
  8
4
100
AcDbCircle
 10
234.0027757567108
 20
179.113075826781
 30
0.0
 40
1.9999995
100
AcDbArc
 50
0.0
 51
90.0
  0
LINE
  5
EE
330
15
100
AcDbEntity
  8
4
100
AcDbLine
 10
241.0027762567107
 20
177.113074826781
 30
0.0
 11
238.0027762567107
 21
177.113074826781
 31
0.0
  0
LINE
  5
EF
330
15
100
AcDbEntity
  8
4
100
AcDbLine
 10
241.0027762567107
 20
175.113075326781
 30
0.0
 11
238.0027762567107
 21
175.113075326781
 31
0.0
  0
ARC
  5
F0
330
15
100
AcDbEntity
  8
4
100
AcDbCircle
 10
234.0027757567108
 20
173.113075826781
 30
0.0
 40
1.9999995
100
AcDbArc
 50
270.0004580000016
 51
0.0
  0
LINE
  5
F1
330
15
100
AcDbEntity
  8
4
100
AcDbLine
 10
236.0027767567107
 20
173.113075826781
 30
0.0
 11
236.0027767567107
 21
179.113075826781
 31
0.0
  0
LINE
  5
F2
330
15
100
AcDbEntity
  8
4
100
AcDbLine
 10
234.0027757567108
 20
174.113074826781
 30
0.0
 11
234.0027757567108
 21
178.113075326781
 31
0.0
  0
LINE
  5
F3
330
15
100
AcDbEntity
  8
4
100
AcDbLine
 10
238.0027762567107
 20
177.113074826781
 30
0.0
 11
238.0027762567107
 21
175.113075326781
 31
0.0
  0
LINE
  5
F4
330
15
100
AcDbEntity
  8
4
100
AcDbLine
 10
241.0027762567107
 20
177.113074826781
 30
0.0
 11
241.0027762567107
 21
175.113075326781
 31
0.0
  0
LINE
  5
F5
330
15
100
AcDbEntity
  8
4
100
AcDbLine
 10
251.0027767567107
 20
181.613074826781
 30
0.0
 11
251.0027767567107
 21
170.613075326781
 31
0.0
  0
ARC
  5
F6
330
15
100
AcDbEntity
  8
4
100
AcDbCircle
 10
249.0027757567108
 20
170.613075326781
 30
0.0
 40
1.9999995
100
AcDbArc
 50
270.0004580000016
 51
0.0
  0
LINE
  5
F7
330
15
100
AcDbEntity
  8
4
100
AcDbLine
 10
248.0027767567107
 20
181.113075326781
 30
0.0
 11
248.0027767567107
 21
171.113074826781
 31
0.0
  0
LINE
  5
F8
330
15
100
AcDbEntity
  8
4
100
AcDbLine
 10
248.0027767567107
 20
171.113074826781
 30
0.0
 11
246.0027757567108
 21
171.113074826781
 31
0.0
  0
LINE
  5
F9
330
15
100
AcDbEntity
  8
4
100
AcDbLine
 10
246.0027757567108
 20
179.113075826781
 30
0.0
 11
246.0027757567108
 21
171.113074826781
 31
0.0
  0
ARC
  5
FA
330
15
100
AcDbEntity
  8
4
100
AcDbCircle
 10
249.0027757567108
 20
181.613074826781
 30
0.0
 40
1.9999995
100
AcDbArc
 50
0.0
 51
90.0
  0
LINE
  5
FB
330
15
100
AcDbEntity
  8
4
100
AcDbLine
 10
248.0027767567107
 20
181.113075326781
 30
0.0
 11
246.0027757567108
 21
181.113075326781
 31
0.0
  0
LINE
  5
FC
330
15
100
AcDbEntity
  8
4
100
AcDbLine
 10
221.5027762567107
 20
207.113074826781
 30
0.0
 11
246.5027767567107
 21
207.113074826781
 31
0.0
  0
LINE
  5
FD
330
15
100
AcDbEntity
  8
4
100
AcDbLine
 10
221.5027762567107
 20
209.113075826781
 30
0.0
 11
246.5027767567107
 21
209.113075826781
 31
0.0
  0
LINE
  5
FE
330
15
100
AcDbEntity
  8
4
100
AcDbLine
 10
221.5027762567107
 20
213.113319326781
 30
0.0
 11
246.5027767567107
 21
213.113319326781
 31
0.0
  0
LINE
  5
FF
330
15
100
AcDbEntity
  8
4
100
AcDbLine
 10
222.5027767567107
 20
205.613074826781
 30
0.0
 11
245.5027762567107
 21
205.613074826781
 31
0.0
  0
LINE
  5
100
330
15
100
AcDbEntity
  8
4
100
AcDbLine
 10
222.5027767567107
 20
205.613074826781
 30
0.0
 11
222.5027767567107
 21
207.113074826781
 31
0.0
  0
LINE
  5
101
330
15
100
AcDbEntity
  8
4
100
AcDbLine
 10
221.5027762567107
 20
207.113074826781
 30
0.0
 11
221.5027762567107
 21
213.113319326781
 31
0.0
  0
LINE
  5
102
330
15
100
AcDbEntity
  8
4
100
AcDbLine
 10
227.7527767567107
 20
209.113075826781
 30
0.0
 11
227.7527767567107
 21
213.113319326781
 31
0.0
  0
LINE
  5
103
330
15
100
AcDbEntity
  8
4
100
AcDbLine
 10
240.2527762567107
 20
209.113075826781
 30
0.0
 11
240.2527762567107
 21
213.113319326781
 31
0.0
  0
LINE
  5
104
330
15
100
AcDbEntity
  8
4
100
AcDbLine
 10
245.5027762567107
 20
205.613074826781
 30
0.0
 11
245.5027762567107
 21
207.113074826781
 31
0.0
  0
LINE
  5
105
330
15
100
AcDbEntity
  8
4
100
AcDbLine
 10
248.0027767567107
 20
205.613074826781
 30
0.0
 11
248.0027767567107
 21
204.333046826781
 31
0.0
  0
LINE
  5
106
330
15
100
AcDbEntity
  8
4
100
AcDbLine
 10
246.5027767567107
 20
207.113074826781
 30
0.0
 11
246.5027767567107
 21
213.113319326781
 31
0.0
  0
ARC
  5
107
330
15
100
AcDbEntity
  8
4
100
AcDbCircle
 10
-20.99748224328926
 20
114.613075826781
 30
0.0
 40
349.999926
100
AcDbArc
 50
0.0
 51
12.690107
  0
ARC
  5
108
330
15
100
AcDbEntity
  8
4
100
AcDbCircle
 10
320.3478682567107
 20
89.22650882678096
 30
0.0
 40
1.9999575
100
AcDbArc
 50
163.6157039999997
 51
270.0
  0
LINE
  5
109
330
15
100
AcDbEntity
  8
4
100
AcDbLine
 10
329.0026537567109
 20
99.61325882678096
 30
0.0
 11
329.0026537567109
 21
114.613075826781
 31
0.0
  0
LINE
  5
10A
330
15
100
AcDbEntity
  8
4
100
AcDbLine
 10
332.0026537567109
 20
96.61325882678096
 30
0.0
 11
339.0026542567108
 21
96.61325882678096
 31
0.0
  0
LINE
  5
10B
330
15
100
AcDbEntity
  8
4
100
AcDbLine
 10
320.3478682567107
 20
87.22650932678096
 30
0.0
 11
339.0026542567108
 21
87.22650932678096
 31
0.0
  0
ARC
  5
10C
330
15
100
AcDbEntity
  8
4
100
AcDbCircle
 10
332.0026537567109
 20
99.61325882678096
 30
0.0
 40
3.0
100
AcDbArc
 50
180.0002860014283
 51
270.0
  0
LINE
  5
10D
330
15
100
AcDbEntity
  8
4
100
AcDbLine
 10
340.0026532567107
 20
88.11325832678097
 30
0.0
 11
339.0026542567108
 21
88.11325832678097
 31
0.0
  0
ARC
  5
10E
330
15
100
AcDbEntity
  8
4
100
AcDbCircle
 10
316.5505057567108
 20
190.621864826781
 30
0.0
 40
4.0000395
100
AcDbArc
 50
12.68925200000004
 51
76.19699699999836
  0
CIRCLE
  5
10F
330
15
100
AcDbEntity
  8
4
100
AcDbCircle
 10
542.755083093647
 20
70.61325782678097
 30
0.0
 40
17.5000005
  0
LINE
  5
110
330
15
100
AcDbEntity
  8
4
100
AcDbLine
 10
500.755083093647
 20
144.613075826781
 30
0.0
 11
500.755083093647
 21
82.61307482678097
 31
0.0
  0
CIRCLE
  5
111
330
15
100
AcDbEntity
  8
4
100
AcDbCircle
 10
542.755083093647
 20
70.61325782678097
 30
0.0
 40
25.9999995
  0
ARC
  5
112
330
15
100
AcDbEntity
  8
4
100
AcDbCircle
 10
1508.755081593647
 20
114.613075826781
 30
0.0
 40
999.9999315
100
AcDbArc
 50
175.756499
 51
184.244025
  0
LINE
  5
113
330
15
100
AcDbEntity
  8
4
100
AcDbLine
 10
583.7550825936471
 20
45.61325882678096
 30
0.0
 11
583.7550825936471
 21
203.613075326781
 31
0.0
  0
LINE
  5
114
330
15
100
AcDbEntity
  8
4
100
AcDbLine
 10
585.755083593647
 20
40.71427082678099
 30
0.0
 11
585.755083593647
 21
202.613074826781
 31
0.0
  0
LINE
  5
115
330
15
100
AcDbEntity
  8
4
100
AcDbLine
 10
512.755083093647
 20
38.61325832678097
 30
0.0
 11
512.755083093647
 21
201.613075826781
 31
0.0
  0
LINE
  5
116
330
15
100
AcDbEntity
  8
4
100
AcDbLine
 10
604.7550825936471
 20
154.613074826781
 30
0.0
 11
604.7550825936471
 21
50.61307532678097
 31
0.0
  0
LINE
  5
117
330
15
100
AcDbEntity
  8
4
100
AcDbLine
 10
593.755083093647
 20
38.61325832678097
 30
0.0
 11
593.755083093647
 21
201.613075826781
 31
0.0
  0
LINE
  5
118
330
15
100
AcDbEntity
  8
4
100
AcDbLine
 10
501.755083593647
 20
154.613074826781
 30
0.0
 11
501.755020593647
 21
55.61325782678097
 31
0.0
  0
ARC
  5
119
330
15
100
AcDbEntity
  8
4
100
AcDbCircle
 10
-402.2449154063529
 20
114.613075826781
 30
0.0
 40
1000.0001175
100
AcDbArc
 50
356.2397832284685
 51
359.7135199424214
  0
LINE
  5
11A
330
15
100
AcDbEntity
  8
4
100
AcDbLine
 10
605.755083093647
 20
144.613075826781
 30
0.0
 11
605.755083093647
 21
82.61307482678097
 31
0.0
  0
LINE
  5
11B
330
15
100
AcDbEntity
  8
L-CENTER
 48
2.0
100
AcDbLine
 10
542.755083093647
 20
40.52880303064268
 30
0.0
 11
542.755083093647
 21
100.6977126229193
 31
0.0
  0
LINE
  5
11C
330
15
100
AcDbEntity
  8
L-CENTER
 48
2.0
100
AcDbLine
 10
553.255083093647
 20
15.74367482678099
 30
0.0
 11
553.255083093647
 21
216.6270483267809
 31
0.0
  0
LINE
  5
11D
330
15
100
AcDbEntity
  8
4
100
AcDbLine
 10
623.255083593647
 20
20.61325832678097
 30
0.0
 11
483.2550825936471
 21
20.61325832678097
 31
0.0
  0
ARC
  5
11E
330
15
100
AcDbEntity
  8
4
100
AcDbCircle
 10
590.755083093647
 20
45.61325882678096
 30
0.0
 40
7.000000499999999
100
AcDbArc
 50
180.0002460009165
 51
270.0
  0
LINE
  5
11F
330
15
100
AcDbEntity
  8
4
100
AcDbLine
 10
485.255083593647
 20
38.61325832678097
 30
0.0
 11
515.755083093647
 21
38.61325832678097
 31
0.0
  0
LINE
  5
120
330
15
100
AcDbEntity
  8
4
100
AcDbLine
 10
379.0026532567107
 20
79.61325782678097
 30
0.0
 11
379.0026532567107
 21
64.11325832678097
 31
0.0
  0
LINE
  5
121
330
15
100
AcDbEntity
  8
4
100
AcDbLine
 10
378.5026537567109
 20
77.61325832678097
 30
0.0
 11
378.5026537567109
 21
63.61325882678096
 31
0.0
  0
LINE
  5
122
330
15
100
AcDbEntity
  8
4
100
AcDbLine
 10
378.5026537567109
 20
63.61325882678096
 30
0.0
 11
379.0026532567107
 21
64.11325832678097
 31
0.0
  0
LINE
  5
123
330
15
100
AcDbEntity
  8
4
100
AcDbLine
 10
379.0026532567107
 20
77.11325882678096
 30
0.0
 11
378.5026537567109
 21
77.61325832678097
 31
0.0
  0
LINE
  5
124
330
15
100
AcDbEntity
  8
4
100
AcDbLine
 10
483.2550825936471
 20
36.61325882678096
 30
0.0
 11
483.2550825936471
 21
20.61325832678097
 31
0.0
  0
ARC
  5
125
330
15
100
AcDbEntity
  8
4
100
AcDbCircle
 10
485.255083593647
 20
36.61325882678096
 30
0.0
 40
1.9999995
100
AcDbArc
 50
90.0
 51
180.0004300002808
  0
LINE
  5
126
330
15
100
AcDbEntity
  8
L-CENTER
 48
2.0
100
AcDbLine
 10
498.2550825936471
 20
44.61325832678097
 30
0.0
 11
498.2550825936471
 21
14.61325832678097
 31
0.0
  0
ARC
  5
127
330
15
100
AcDbEntity
  8
4
100
AcDbCircle
 10
542.755083093647
 20
70.61325782678097
 30
0.0
 40
6.9999975
100
AcDbArc
 50
110.9248389999998
 51
69.07516100000016
  0
LINE
  5
128
330
15
100
AcDbEntity
  8
L-CENTER
 48
2.0
100
AcDbLine
 10
512.6706282975088
 20
70.61325782678097
 30
0.0
 11
572.8395378897853
 21
70.61325782678097
 31
0.0
  0
LINE
  5
129
330
15
100
AcDbEntity
  8
4
100
AcDbLine
 10
522.755083593647
 20
45.61325882678096
 30
0.0
 11
522.755083593647
 21
54.00000782678097
 31
0.0
  0
ARC
  5
12A
330
15
100
AcDbEntity
  8
4
100
AcDbCircle
 10
515.755083093647
 20
45.61325882678096
 30
0.0
 40
7.000000499999999
100
AcDbArc
 50
270.0
 51
0.0
  0
LINE
  5
12B
330
15
100
AcDbEntity
  8
4
100
AcDbLine
 10
512.755083093647
 20
40.61322782678099
 30
0.0
 11
511.4967825936471
 21
40.61322782678099
 31
0.0
  0
LINE
  5
12C
330
15
100
AcDbEntity
  8
4
100
AcDbLine
 10
493.2550215936469
 20
57.11325782678097
 30
0.0
 11
493.2550215936469
 21
82.11325832678097
 31
0.0
  0
LINE
  5
12D
330
15
100
AcDbEntity
  8
4
100
AcDbLine
 10
498.255022593647
 20
57.11325782678097
 30
0.0
 11
498.255022593647
 21
82.11325832678097
 31
0.0
  0
LINE
  5
12E
330
15
100
AcDbEntity
  8
4
100
AcDbLine
 10
500.2550220936471
 20
57.11325782678097
 30
0.0
 11
500.2550220936471
 21
82.11325832678097
 31
0.0
  0
LINE
  5
12F
330
15
100
AcDbEntity
  8
4
100
AcDbLine
 10
493.2550215936469
 20
57.11325782678097
 30
0.0
 11
500.2550220936471
 21
57.11325782678097
 31
0.0
  0
LINE
  5
130
330
15
100
AcDbEntity
  8
4
100
AcDbLine
 10
498.255022593647
 20
63.36327332678098
 30
0.0
 11
493.2550215936469
 21
63.36327332678098
 31
0.0
  0
LINE
  5
131
330
15
100
AcDbEntity
  8
4
100
AcDbLine
 10
501.7550220936471
 20
55.61325782678097
 30
0.0
 11
510.497026593647
 21
55.61325782678097
 31
0.0
  0
LINE
  5
132
330
15
100
AcDbEntity
  8
4
100
AcDbLine
 10
501.7550220936471
 20
58.11325832678097
 30
0.0
 11
500.2550220936471
 21
58.11325832678097
 31
0.0
  0
LINE
  5
133
330
15
100
AcDbEntity
  8
L-CENTER
 48
2.0
100
AcDbLine
 10
491.7459885936471
 20
69.61325882678096
 30
0.0
 11
514.8505658941351
 21
69.61325882678096
 31
0.0
  0
LINE
  5
134
330
15
100
AcDbEntity
  8
4
100
AcDbLine
 10
500.2550220936471
 20
82.11325832678097
 30
0.0
 11
493.2550215936469
 21
82.11325832678097
 31
0.0
  0
LINE
  5
135
330
15
100
AcDbEntity
  8
4
100
AcDbLine
 10
498.255022593647
 20
75.86325782678097
 30
0.0
 11
493.2550215936469
 21
75.86325782678097
 31
0.0
  0
LINE
  5
136
330
15
100
AcDbEntity
  8
4
100
AcDbLine
 10
500.755083093647
 20
82.61307482678097
 30
0.0
 11
501.7550370936472
 21
82.61307482678097
 31
0.0
  0
LINE
  5
137
330
15
100
AcDbEntity
  8
4
100
AcDbLine
 10
501.7550220936471
 20
81.11325782678097
 30
0.0
 11
500.2550220936471
 21
81.11325782678097
 31
0.0
  0
LINE
  5
138
330
15
100
AcDbEntity
  8
4
100
AcDbLine
 10
545.255083593647
 20
74.61325832678097
 30
0.0
 11
545.255083593647
 21
79.61325782678097
 31
0.0
  0
LINE
  5
139
330
15
100
AcDbEntity
  8
4
100
AcDbLine
 10
540.2550825936471
 20
79.61325782678097
 30
0.0
 11
540.2550825936471
 21
74.61325832678097
 31
0.0
  0
LINE
  5
13A
330
15
100
AcDbEntity
  8
4
100
AcDbLine
 10
540.2550825936471
 20
74.61325832678097
 30
0.0
 11
545.255083593647
 21
74.61325832678097
 31
0.0
  0
LINE
  5
13B
330
15
100
AcDbEntity
  8
4
100
AcDbLine
 10
540.2550825936471
 20
79.61325782678097
 30
0.0
 11
545.255083593647
 21
79.61325782678097
 31
0.0
  0
LINE
  5
13C
330
15
100
AcDbEntity
  8
L-CENTER
 48
2.0
100
AcDbLine
 10
608.255083593647
 20
44.61325832678097
 30
0.0
 11
608.255083593647
 21
14.61325832678097
 31
0.0
  0
LINE
  5
13D
330
15
100
AcDbEntity
  8
4
100
AcDbLine
 10
590.755083093647
 20
38.61325832678097
 30
0.0
 11
621.2550825936471
 21
38.61325832678097
 31
0.0
  0
LINE
  5
13E
330
15
100
AcDbEntity
  8
4
100
AcDbLine
 10
602.755083093647
 20
20.61325832678097
 30
0.0
 11
602.755083093647
 21
38.61325832678097
 31
0.0
  0
ARC
  5
13F
330
15
100
AcDbEntity
  8
4
100
AcDbCircle
 10
588.216997593647
 20
29.98705382678099
 30
0.0
 40
2.371338
100
AcDbArc
 50
293.5512900000008
 51
36.97253199999825
  0
ARC
  5
140
330
15
100
AcDbEntity
  8
4
100
AcDbCircle
 10
588.216997593647
 20
29.98705382678099
 30
0.0
 40
2.371338
100
AcDbArc
 50
293.5512900000008
 51
36.97253199999825
  0
ARC
  5
141
330
15
100
AcDbEntity
  8
4
100
AcDbCircle
 10
586.3231980936471
 20
22.787056826781
 30
0.0
 40
2.371338
100
AcDbArc
 50
293.5513120000041
 51
36.972532000001
  0
ARC
  5
142
330
15
100
AcDbEntity
  8
4
100
AcDbCircle
 10
586.3231980936471
 20
22.787056826781
 30
0.0
 40
2.371338
100
AcDbArc
 50
293.5513120000041
 51
36.972532000001
  0
ARC
  5
143
330
15
100
AcDbEntity
  8
4
100
AcDbCircle
 10
590.112259593647
 20
25.63945832678098
 30
0.0
 40
2.371338
100
AcDbArc
 50
113.5512990000009
 51
216.972550999997
  0
ARC
  5
144
330
15
100
AcDbEntity
  8
4
100
AcDbCircle
 10
590.112259593647
 20
25.63945832678098
 30
0.0
 40
2.371338
100
AcDbArc
 50
113.5512990000009
 51
216.972550999997
  0
ARC
  5
145
330
15
100
AcDbEntity
  8
4
100
AcDbCircle
 10
590.111040093647
 20
37.18705082678099
 30
0.0
 40
2.371338
100
AcDbArc
 50
293.5512900000003
 51
36.97253199999825
  0
ARC
  5
146
330
15
100
AcDbEntity
  8
4
100
AcDbCircle
 10
590.111040093647
 20
37.18705082678099
 30
0.0
 40
2.371338
100
AcDbArc
 50
293.5512900000003
 51
36.97253199999825
  0
ARC
  5
147
330
15
100
AcDbEntity
  8
4
100
AcDbCircle
 10
592.0063035936471
 20
32.83945532678098
 30
0.0
 40
2.371338
100
AcDbArc
 50
113.5512990000009
 51
216.972550999997
  0
ARC
  5
148
330
15
100
AcDbEntity
  8
4
100
AcDbCircle
 10
592.0063035936471
 20
32.83945532678098
 30
0.0
 40
2.371338
100
AcDbArc
 50
113.5512990000009
 51
216.972550999997
  0
LINE
  5
149
330
15
100
AcDbEntity
  8
4
100
AcDbLine
 10
613.7550825936471
 20
20.61325832678097
 30
0.0
 11
613.7550825936471
 21
38.61325832678097
 31
0.0
  0
LINE
  5
14A
330
15
100
AcDbEntity
  8
4
100
AcDbLine
 10
623.255083593647
 20
36.61325882678096
 30
0.0
 11
623.255083593647
 21
20.61325832678097
 31
0.0
  0
ARC
  5
14B
330
15
100
AcDbEntity
  8
4
100
AcDbCircle
 10
621.2550825936471
 20
36.61325882678096
 30
0.0
 40
1.9999995
100
AcDbArc
 50
0.0
 51
90.0
  0
LINE
  5
14C
330
15
100
AcDbEntity
  8
4
100
AcDbLine
 10
604.7550825936471
 20
50.61307532678097
 30
0.0
 11
595.705101093647
 21
50.61307532678097
 31
0.0
  0
LINE
  5
14D
330
15
100
AcDbEntity
  8
4
100
AcDbLine
 10
604.7550825936471
 20
78.61307582678097
 30
0.0
 11
597.106992093647
 21
78.61307582678097
 31
0.0
  0
LINE
  5
14E
330
15
100
AcDbEntity
  8
4
100
AcDbLine
 10
605.755083093647
 20
82.61307482678097
 30
0.0
 11
604.7551290936469
 21
82.61307482678097
 31
0.0
  0
LINE
  5
14F
330
15
100
AcDbEntity
  8
4
100
AcDbLine
 10
583.7550825936471
 20
202.613074826781
 30
0.0
 11
585.755083593647
 21
202.613074826781
 31
0.0
  0
LINE
  5
150
330
15
100
AcDbEntity
  8
4
100
AcDbLine
 10
592.7550825936471
 20
202.613074826781
 30
0.0
 11
583.7550825936471
 21
202.613074826781
 31
0.0
  0
LINE
  5
151
330
15
100
AcDbEntity
  8
L-CENTER
 48
2.0
100
AcDbLine
 10
668.128389093647
 20
113.613075326781
 30
0.0
 11
498.1126445988223
 21
113.613075326781
 31
0.0
  0
LINE
  5
152
330
15
100
AcDbEntity
  8
4
100
AcDbLine
 10
522.755083593647
 20
87.22650932678096
 30
0.0
 11
522.755083593647
 21
203.613075326781
 31
0.0
  0
LINE
  5
153
330
15
100
AcDbEntity
  8
4
100
AcDbLine
 10
501.7550220936471
 20
83.61325832678097
 30
0.0
 11
509.2357950936471
 21
83.61325832678097
 31
0.0
  0
LINE
  5
154
330
15
100
AcDbEntity
  8
4
100
AcDbLine
 10
508.899613593647
 20
97.61325782678097
 30
0.0
 11
501.755083593647
 21
97.61325782678097
 31
0.0
  0
LINE
  5
155
330
15
100
AcDbEntity
  8
4
100
AcDbLine
 10
500.755083093647
 20
106.113075326781
 30
0.0
 11
501.755083593647
 21
106.113075326781
 31
0.0
  0
LINE
  5
156
330
15
100
AcDbEntity
  8
4
100
AcDbLine
 10
500.755083093647
 20
141.113074826781
 30
0.0
 11
501.755083593647
 21
141.113074826781
 31
0.0
  0
LINE
  5
157
330
15
100
AcDbEntity
  8
4
100
AcDbLine
 10
509.3678760936471
 20
149.613075326781
 30
0.0
 11
501.755083593647
 21
149.613075326781
 31
0.0
  0
LINE
  5
158
330
15
100
AcDbEntity
  8
4
100
AcDbLine
 10
500.755083093647
 20
144.613075826781
 30
0.0
 11
501.755083593647
 21
144.613075826781
 31
0.0
  0
LINE
  5
159
330
15
100
AcDbEntity
  8
4
100
AcDbLine
 10
582.755083593647
 20
204.613075826781
 30
0.0
 11
523.7550825936471
 21
204.613075826781
 31
0.0
  0
LINE
  5
15A
330
15
100
AcDbEntity
  8
4
100
AcDbLine
 10
509.5553760936471
 20
154.613074826781
 30
0.0
 11
501.755083593647
 21
154.613074826781
 31
0.0
  0
ARC
  5
15B
330
15
100
AcDbEntity
  8
4
100
AcDbCircle
 10
523.7550825936471
 20
203.613075326781
 30
0.0
 40
1.0000005
100
AcDbArc
 50
90.0
 51
180.0
  0
LINE
  5
15C
330
15
100
AcDbEntity
  8
4
100
AcDbLine
 10
512.755083093647
 20
188.613075326781
 30
0.0
 11
511.4967825936471
 21
188.613075326781
 31
0.0
  0
LINE
  5
15D
330
15
100
AcDbEntity
  8
4
100
AcDbLine
 10
513.755083593647
 20
202.613074826781
 30
0.0
 11
522.755083593647
 21
202.613074826781
 31
0.0
  0
ARC
  5
15E
330
15
100
AcDbEntity
  8
4
100
AcDbCircle
 10
513.755083593647
 20
201.613075826781
 30
0.0
 40
1.0000005
100
AcDbArc
 50
90.0
 51
180.0
  0
LINE
  5
15F
330
15
100
AcDbEntity
  8
4
100
AcDbLine
 10
567.2550825936471
 20
205.613074826781
 30
0.0
 11
539.255083593647
 21
205.613074826781
 31
0.0
  0
LINE
  5
160
330
15
100
AcDbEntity
  8
4
100
AcDbLine
 10
539.255083593647
 20
205.613074826781
 30
0.0
 11
567.2550825936471
 21
205.613074826781
 31
0.0
  0
LINE
  5
161
330
15
100
AcDbEntity
  8
4
100
AcDbLine
 10
564.755083593647
 20
205.613074826781
 30
0.0
 11
541.7550825936471
 21
205.613074826781
 31
0.0
  0
LINE
  5
162
330
15
100
AcDbEntity
  8
4
100
AcDbLine
 10
565.7550825936471
 20
207.113074826781
 30
0.0
 11
540.755083593647
 21
207.113074826781
 31
0.0
  0
LINE
  5
163
330
15
100
AcDbEntity
  8
4
100
AcDbLine
 10
565.7550825936471
 20
209.113075826781
 30
0.0
 11
540.755083593647
 21
209.113075826781
 31
0.0
  0
LINE
  5
164
330
15
100
AcDbEntity
  8
4
100
AcDbLine
 10
564.0802785936471
 20
213.113319326781
 30
0.0
 11
542.429643093647
 21
213.113319326781
 31
0.0
  0
LINE
  5
165
330
15
100
AcDbEntity
  8
4
100
AcDbLine
 10
539.255083593647
 20
204.613075826781
 30
0.0
 11
539.255083593647
 21
205.613074826781
 31
0.0
  0
LINE
  5
166
330
15
100
AcDbEntity
  8
4
100
AcDbLine
 10
541.7550825936471
 20
205.613074826781
 30
0.0
 11
541.7550825936471
 21
207.113074826781
 31
0.0
  0
LINE
  5
167
330
15
100
AcDbEntity
  8
4
100
AcDbLine
 10
540.755083593647
 20
207.113074826781
 30
0.0
 11
540.755083593647
 21
209.113075826781
 31
0.0
  0
LINE
  5
168
330
15
100
AcDbEntity
  8
4
100
AcDbLine
 10
542.429643093647
 20
209.113075826781
 30
0.0
 11
542.429643093647
 21
213.113319326781
 31
0.0
  0
LINE
  5
169
330
15
100
AcDbEntity
  8
4
100
AcDbLine
 10
567.2550825936471
 20
204.613075826781
 30
0.0
 11
567.2550825936471
 21
205.613074826781
 31
0.0
  0
ARC
  5
16A
330
15
100
AcDbEntity
  8
4
100
AcDbCircle
 10
582.755083593647
 20
203.613075326781
 30
0.0
 40
1.0000005
100
AcDbArc
 50
0.0
 51
90.0
  0
LINE
  5
16B
330
15
100
AcDbEntity
  8
4
100
AcDbLine
 10
564.755083593647
 20
205.613074826781
 30
0.0
 11
564.755083593647
 21
207.113074826781
 31
0.0
  0
LINE
  5
16C
330
15
100
AcDbEntity
  8
4
100
AcDbLine
 10
564.0802785936471
 20
209.113075826781
 30
0.0
 11
564.0802785936471
 21
213.113319326781
 31
0.0
  0
LINE
  5
16D
330
15
100
AcDbEntity
  8
4
100
AcDbLine
 10
565.7550825936471
 20
207.113074826781
 30
0.0
 11
565.7550825936471
 21
209.113075826781
 31
0.0
  0
ARC
  5
16E
330
15
100
AcDbEntity
  8
4
100
AcDbCircle
 10
-402.2449154063529
 20
114.613075826781
 30
0.0
 40
999.9999645
100
AcDbArc
 50
0.2864801014104185
 51
3.760217347672117
  0
LINE
  5
16F
330
15
100
AcDbEntity
  8
4
100
AcDbLine
 10
614.755083093647
 20
99.61307582678097
 30
0.0
 11
663.755083593647
 21
99.61307582678097
 31
0.0
  0
LINE
  5
170
330
15
100
AcDbEntity
  8
4
100
AcDbLine
 10
614.755083093647
 20
127.613074826781
 30
0.0
 11
663.755083593647
 21
127.613074826781
 31
0.0
  0
LINE
  5
171
330
15
100
AcDbEntity
  8
4
100
AcDbLine
 10
664.7550825936471
 20
130.613074826781
 30
0.0
 11
619.7550825936471
 21
130.613074826781
 31
0.0
  0
LINE
  5
172
330
15
100
AcDbEntity
  8
4
100
AcDbLine
 10
614.755083093647
 20
128.613075326781
 30
0.0
 11
614.755083093647
 21
98.61307532678097
 31
0.0
  0
LINE
  5
173
330
15
100
AcDbEntity
  8
4
100
AcDbLine
 10
605.755083093647
 20
98.61307532678097
 30
0.0
 11
614.755083093647
 21
98.61307532678097
 31
0.0
  0
LINE
  5
174
330
15
100
AcDbEntity
  8
4
100
AcDbLine
 10
597.610551093647
 20
97.61325782678097
 30
0.0
 11
604.7550825936471
 21
97.61325782678097
 31
0.0
  0
LINE
  5
175
330
15
100
AcDbEntity
  8
4
100
AcDbLine
 10
605.755083093647
 20
106.113075326781
 30
0.0
 11
604.7550825936471
 21
106.113075326781
 31
0.0
  0
LINE
  5
176
330
15
100
AcDbEntity
  8
4
100
AcDbLine
 10
605.755083093647
 20
128.613075326781
 30
0.0
 11
614.755083093647
 21
128.613075326781
 31
0.0
  0
LINE
  5
177
330
15
100
AcDbEntity
  8
4
100
AcDbLine
 10
597.142290093647
 20
149.613075326781
 30
0.0
 11
604.7550825936471
 21
149.613075326781
 31
0.0
  0
LINE
  5
178
330
15
100
AcDbEntity
  8
4
100
AcDbLine
 10
605.755083093647
 20
141.113074826781
 30
0.0
 11
604.7550825936471
 21
141.113074826781
 31
0.0
  0
LINE
  5
179
330
15
100
AcDbEntity
  8
4
100
AcDbLine
 10
605.755083093647
 20
144.613075826781
 30
0.0
 11
604.7550825936471
 21
144.613075826781
 31
0.0
  0
LINE
  5
17A
330
15
100
AcDbEntity
  8
4
100
AcDbLine
 10
619.7550825936471
 20
130.613074826781
 30
0.0
 11
619.7550825936471
 21
127.613074826781
 31
0.0
  0
LINE
  5
17B
330
15
100
AcDbEntity
  8
4
100
AcDbLine
 10
663.755083593647
 20
127.613074826781
 30
0.0
 11
663.755083593647
 21
99.61307582678097
 31
0.0
  0
LINE
  5
17C
330
15
100
AcDbEntity
  8
4
100
AcDbLine
 10
664.7550825936471
 20
130.613074826781
 30
0.0
 11
664.7550825936471
 21
100.613074826781
 31
0.0
  0
LINE
  5
17D
330
15
100
AcDbEntity
  8
4
100
AcDbLine
 10
663.755083593647
 20
99.61307582678097
 30
0.0
 11
664.7550825936471
 21
100.613074826781
 31
0.0
  0
LINE
  5
17E
330
15
100
AcDbEntity
  8
4
100
AcDbLine
 10
664.7550825936471
 20
126.613075826781
 30
0.0
 11
663.755083593647
 21
127.613074826781
 31
0.0
  0
LINE
  5
17F
330
15
100
AcDbEntity
  8
4
100
AcDbLine
 10
596.954790093647
 20
154.613074826781
 30
0.0
 11
604.7550825936471
 21
154.613074826781
 31
0.0
  0
ARC
  5
180
330
15
100
AcDbEntity
  8
4
100
AcDbCircle
 10
592.7550825936471
 20
201.613075826781
 30
0.0
 40
1.0000005
100
AcDbArc
 50
0.0
 51
90.0
  0
LINE
  5
203
330
15
100
AcDbEntity
  8
L-CENTER
 48
2.0
100
AcDbLine
 10
124.0027757567107
 20
426.2541634899131
 30
0.0
 11
344.0027757567105
 21
426.2541634899131
 31
0.0
  0
LINE
  5
204
330
15
100
AcDbEntity
  8
4
100
AcDbLine
 10
329.0027757567105
 20
359.2541634899131
 30
0.0
 11
329.0027757567108
 21
493.2541634899131
 31
0.0
  0
LINE
  5
205
330
15
100
AcDbEntity
  8
4
100
AcDbLine
 10
339.0027757567105
 20
389.7541634899131
 30
0.0
 11
339.0027757567105
 21
441.7541634899131
 31
0.0
  0
LINE
  5
206
330
15
100
AcDbEntity
  8
4
100
AcDbLine
 10
139.0027757567108
 20
359.2541634899131
 30
0.0
 11
139.0027757567108
 21
493.2541634899131
 31
0.0
  0
LINE
  5
207
330
15
100
AcDbEntity
  8
4
100
AcDbLine
 10
129.0027757567107
 20
389.754163489913
 30
0.0
 11
129.0027757567107
 21
441.754163489913
 31
0.0
  0
LINE
  5
208
330
15
100
AcDbEntity
  8
L-CENTER
 48
2.0
100
AcDbLine
 10
234.0027757567108
 20
369.7541634899131
 30
0.0
 11
234.0027757567108
 21
480.6081457367412
 31
0.0
  0
LINE
  5
209
330
15
100
AcDbEntity
  8
4
100
AcDbLine
 10
170.5167757567109
 20
374.7541634899131
 30
0.0
 11
300.5167757567107
 21
374.7541634899131
 31
0.0
  0
LINE
  5
20A
330
15
100
AcDbEntity
  8
4
100
AcDbLine
 10
169.8318199217591
 20
356.2541634899131
 30
0.0
 11
142.0027757567108
 21
356.2541634899131
 31
0.0
  0
ARC
  5
20B
330
15
100
AcDbEntity
  8
4
100
AcDbCircle
 10
150.0027757567108
 20
389.7541634899133
 30
0.0
 40
4.0
100
AcDbArc
 50
180.0
 51
270.0
  0
LINE
  5
20C
330
15
100
AcDbEntity
  8
L-CENTER
 48
2.0
100
AcDbLine
 10
164.0027757567108
 20
371.2541634899131
 30
0.0
 11
144.0027757567109
 21
371.2541634899131
 31
0.0
  0
ARC
  5
20D
330
15
100
AcDbEntity
  8
4
100
AcDbCircle
 10
142.0027757567108
 20
359.2541634899131
 30
0.0
 40
3.0
100
AcDbArc
 50
180.0
 51
270.0
  0
LINE
  5
20E
330
15
100
AcDbEntity
  8
4
100
AcDbLine
 10
136.0027757567107
 20
389.754163489913
 30
0.0
 11
129.0027757567107
 21
389.754163489913
 31
0.0
  0
LINE
  5
20F
330
15
100
AcDbEntity
  8
4
100
AcDbLine
 10
146.0027757567108
 20
392.7541634899131
 30
0.0
 11
146.0027757567108
 21
389.7541634899133
 31
0.0
  0
ARC
  5
210
330
15
100
AcDbEntity
  8
4
100
AcDbCircle
 10
136.0027757567107
 20
386.754163489913
 30
0.0
 40
3.0
100
AcDbArc
 50
0.0
 51
90.0
  0
ARC
  5
211
330
15
100
AcDbEntity
  8
4
100
AcDbCircle
 10
140.0027757567107
 20
396.7541634899131
 30
0.0
 40
1.0
100
AcDbArc
 50
180.0
 51
270.0
  0
ARC
  5
212
330
15
100
AcDbEntity
  8
4
100
AcDbCircle
 10
143.0027757567108
 20
392.7541634899131
 30
0.0
 40
3.0
100
AcDbArc
 50
0.0
 51
90.0
  0
LINE
  5
213
330
15
100
AcDbEntity
  8
4
100
AcDbLine
 10
140.0027757567107
 20
395.7541634899131
 30
0.0
 11
328.0027757567108
 21
395.7541634899131
 31
0.0
  0
LINE
  5
214
330
15
100
AcDbEntity
  8
4
100
AcDbLine
 10
170.5167757567109
 20
374.7541634899131
 30
0.0
 11
170.5167757567109
 21
380.2162121219413
 31
0.0
  0
LINE
  5
215
330
15
100
AcDbEntity
  8
L-CENTER
 48
2.0
100
AcDbLine
 10
154.0027757567109
 20
361.2541634899122
 30
0.0
 11
154.0027757567108
 21
381.2541634899131
 31
0.0
  0
CIRCLE
  5
216
330
15
100
AcDbEntity
  8
4
100
AcDbCircle
 10
154.0027757567108
 20
371.2541634899131
 30
0.0
 40
5.5
  0
LINE
  5
217
330
15
100
AcDbEntity
  8
4
100
AcDbLine
 10
178.0913833516476
 20
374.7541634899131
 30
0.0
 11
172.6814563777274
 21
358.3163084537715
 31
0.0
  0
ARC
  5
218
330
15
100
AcDbEntity
  8
4
100
AcDbCircle
 10
169.8318199217591
 20
359.2541634899131
 30
0.0
 40
3.0
100
AcDbArc
 50
270.0
 51
341.7829048021748
  0
ARC
  5
219
330
15
100
AcDbEntity
  8
4
100
AcDbCircle
 10
234.0027757567105
 20
1382.012404869748
 30
0.0
 40
1001.0
100
AcDbArc
 50
265.7604804306142
 51
266.2030310082794
  0
LINE
  5
21A
330
15
100
AcDbEntity
  8
4
100
AcDbLine
 10
150.0027757567108
 20
385.7541634899133
 30
0.0
 11
318.0027757567108
 21
385.7541634899133
 31
0.0
  0
LINE
  5
21B
330
15
100
AcDbEntity
  8
4
100
AcDbLine
 10
160.0027757567108
 20
383.7514169512575
 30
0.0
 11
160.0027757567108
 21
384.7541634899133
 31
0.0
  0
ARC
  5
21C
330
15
100
AcDbEntity
  8
4
100
AcDbCircle
 10
159.0027757567108
 20
384.7541634899133
 30
0.0
 40
1.0
100
AcDbArc
 50
0.0
 51
90.0
  0
ARC
  5
21D
330
15
100
AcDbEntity
  8
4
100
AcDbCircle
 10
167.5167757567109
 20
380.2162121219413
 30
0.0
 40
3.0
100
AcDbArc
 50
0.0
 51
86.20303100827913
  0
ARC
  5
21E
330
15
100
AcDbEntity
  8
4
100
AcDbCircle
 10
234.0027757567105
 20
1382.012404869748
 30
0.0
 40
1001.0
100
AcDbArc
 50
273.970167183595
 51
274.2395195693858
  0
LINE
  5
21F
330
15
100
AcDbEntity
  8
4
100
AcDbLine
 10
326.0027757567105
 20
356.2541634899131
 30
0.0
 11
298.1737315916624
 21
356.2541634899131
 31
0.0
  0
LINE
  5
220
330
15
100
AcDbEntity
  8
L-CENTER
 48
2.0
100
AcDbLine
 10
304.0027757567108
 20
371.2541634899131
 30
0.0
 11
324.0027757567108
 21
371.2541634899131
 31
0.0
  0
LINE
  5
221
330
15
100
AcDbEntity
  8
4
100
AcDbLine
 10
300.5167757567107
 20
374.7541634899131
 30
0.0
 11
300.5167757567107
 21
380.4217680305247
 31
0.0
  0
LINE
  5
222
330
15
100
AcDbEntity
  8
4
100
AcDbLine
 10
289.914168161774
 20
374.7541634899131
 30
0.0
 11
295.3240951356939
 21
358.3163084537717
 31
0.0
  0
ARC
  5
223
330
15
100
AcDbEntity
  8
4
100
AcDbCircle
 10
298.1737315916624
 20
359.2541634899131
 30
0.0
 40
3.0
100
AcDbArc
 50
198.2170951978252
 51
270.0
  0
ARC
  5
224
330
15
100
AcDbEntity
  8
4
100
AcDbCircle
 10
303.5167757567107
 20
380.4217680305247
 30
0.0
 40
3.0
100
AcDbArc
 50
93.97016718359183
 51
180.0
  0
LINE
  5
225
330
15
100
AcDbEntity
  8
L-CENTER
 48
2.0
100
AcDbLine
 10
314.0027757567108
 20
361.2541634899122
 30
0.0
 11
314.002775756711
 21
381.2541634899131
 31
0.0
  0
CIRCLE
  5
226
330
15
100
AcDbEntity
  8
4
100
AcDbCircle
 10
314.002775756711
 20
371.2541634899131
 30
0.0
 40
5.5
  0
ARC
  5
227
330
15
100
AcDbEntity
  8
4
100
AcDbCircle
 10
326.0027757567105
 20
359.2541634899131
 30
0.0
 40
3.0
100
AcDbArc
 50
270.0
 51
0.0
  0
ARC
  5
228
330
15
100
AcDbEntity
  8
4
100
AcDbCircle
 10
325.0027757567108
 20
392.7541634899131
 30
0.0
 40
3.0
100
AcDbArc
 50
90.0
 51
180.0
  0
LINE
  5
229
330
15
100
AcDbEntity
  8
4
100
AcDbLine
 10
322.0027757567108
 20
392.7541634899131
 30
0.0
 11
322.0027757567108
 21
389.7541634899133
 31
0.0
  0
ARC
  5
22A
330
15
100
AcDbEntity
  8
4
100
AcDbCircle
 10
309.0027757567105
 20
384.7541634899133
 30
0.0
 40
1.0
100
AcDbArc
 50
90.0
 51
180.0
  0
LINE
  5
22B
330
15
100
AcDbEntity
  8
4
100
AcDbLine
 10
308.0027757567105
 20
383.7514169512575
 30
0.0
 11
308.0027757567105
 21
384.7541634899133
 31
0.0
  0
ARC
  5
22C
330
15
100
AcDbEntity
  8
4
100
AcDbCircle
 10
318.0027757567108
 20
389.7541634899133
 30
0.0
 40
4.0
100
AcDbArc
 50
270.0
 51
0.0
  0
ARC
  5
22D
330
15
100
AcDbEntity
  8
4
100
AcDbCircle
 10
332.0027757567105
 20
386.7541634899131
 30
0.0
 40
3.0
100
AcDbArc
 50
90.0
 51
180.0
  0
LINE
  5
22E
330
15
100
AcDbEntity
  8
4
100
AcDbLine
 10
339.0027757567108
 20
389.7541634899131
 30
0.0
 11
332.0027757567105
 21
389.7541634899131
 31
0.0
  0
ARC
  5
22F
330
15
100
AcDbEntity
  8
4
100
AcDbCircle
 10
328.0027757567108
 20
396.7541634899131
 30
0.0
 40
1.0
100
AcDbArc
 50
270.0
 51
0.0
  0
ARC
  5
230
330
15
100
AcDbEntity
  8
4
100
AcDbCircle
 10
328.0027757567105
 20
396.7541634899131
 30
0.0
 40
1.0
100
AcDbArc
 50
270.0
 51
0.0
  0
LINE
  5
231
330
15
100
AcDbEntity
  8
4
100
AcDbLine
 10
146.0027757567107
 20
458.7541634899131
 30
0.0
 11
322.0027757567108
 21
458.7541634899131
 31
0.0
  0
LINE
  5
232
330
15
100
AcDbEntity
  8
4
100
AcDbLine
 10
169.8318199217591
 20
496.2541634899131
 30
0.0
 11
142.0027757567108
 21
496.2541634899131
 31
0.0
  0
LINE
  5
233
330
15
100
AcDbEntity
  8
L-CENTER
 48
2.0
100
AcDbLine
 10
164.0027757567108
 20
481.2541634899134
 30
0.0
 11
144.0027757567109
 21
481.2541634899134
 31
0.0
  0
LINE
  5
234
330
15
100
AcDbEntity
  8
4
100
AcDbLine
 10
136.0027757567107
 20
441.754163489913
 30
0.0
 11
129.0027757567107
 21
441.754163489913
 31
0.0
  0
ARC
  5
235
330
15
100
AcDbEntity
  8
4
100
AcDbCircle
 10
136.0027757567107
 20
444.754163489913
 30
0.0
 40
3.0
100
AcDbArc
 50
270.0
 51
0.0
  0
ARC
  5
236
330
15
100
AcDbEntity
  8
4
100
AcDbCircle
 10
140.0027757567107
 20
455.7541634899131
 30
0.0
 40
1.0
100
AcDbArc
 50
90.0
 51
180.0
  0
LINE
  5
237
330
15
100
AcDbEntity
  8
4
100
AcDbLine
 10
146.0027757567108
 20
457.7541634899131
 30
0.0
 11
146.0027757567108
 21
458.7541634899131
 31
0.0
  0
LINE
  5
238
330
15
100
AcDbEntity
  8
4
100
AcDbLine
 10
140.0027757567107
 20
456.7541634899131
 30
0.0
 11
328.0027757567105
 21
456.7541634899173
 31
0.0
  0
ARC
  5
239
330
15
100
AcDbEntity
  8
4
100
AcDbCircle
 10
145.0027757567108
 20
457.7541634899133
 30
0.0
 40
1.0
100
AcDbArc
 50
270.0
 51
0.0
  0
ARC
  5
23A
330
15
100
AcDbEntity
  8
4
100
AcDbCircle
 10
142.0027757567108
 20
493.2541634899131
 30
0.0
 40
3.0
100
AcDbArc
 50
90.0
 51
180.0
  0
LINE
  5
23B
330
15
100
AcDbEntity
  8
4
100
AcDbLine
 10
172.6814563777274
 20
494.1920185260545
 30
0.0
 11
178.0913833516478
 21
477.7541634899122
 31
0.0
  0
LINE
  5
23C
330
15
100
AcDbEntity
  8
L-CENTER
 48
2.0
100
AcDbLine
 10
154.0027757567109
 20
491.2541634899143
 30
0.0
 11
154.0027757567108
 21
471.2541634899134
 31
0.0
  0
CIRCLE
  5
23D
330
15
100
AcDbEntity
  8
4
100
AcDbCircle
 10
154.0027757567108
 20
481.2541634899134
 30
0.0
 40
5.5
  0
ARC
  5
23E
330
15
100
AcDbEntity
  8
4
100
AcDbCircle
 10
169.8318199217591
 20
493.2541634899131
 30
0.0
 40
3.0
100
AcDbArc
 50
18.21709519782523
 51
90.0
  0
ARC
  5
23F
330
15
100
AcDbEntity
  8
4
100
AcDbCircle
 10
332.0027757567105
 20
444.7541634899131
 30
0.0
 40
3.0
100
AcDbArc
 50
180.0
 51
270.0
  0
LINE
  5
240
330
15
100
AcDbEntity
  8
4
100
AcDbLine
 10
339.0027757567108
 20
441.7541634899131
 30
0.0
 11
332.0027757567105
 21
441.7541634899131
 31
0.0
  0
LINE
  5
241
330
15
100
AcDbEntity
  8
4
100
AcDbLine
 10
326.0027757567108
 20
496.2541634899131
 30
0.0
 11
298.1737315916624
 21
496.2541634899131
 31
0.0
  0
LINE
  5
242
330
15
100
AcDbEntity
  8
L-CENTER
 48
2.0
100
AcDbLine
 10
304.0027757567108
 20
481.2541634899134
 30
0.0
 11
324.0027757567108
 21
481.2541634899134
 31
0.0
  0
LINE
  5
243
330
15
100
AcDbEntity
  8
4
100
AcDbLine
 10
295.3240951356939
 20
494.1920185260548
 30
0.0
 11
290.2432820858243
 21
478.7541634899121
 31
0.0
  0
ARC
  5
244
330
15
100
AcDbEntity
  8
4
100
AcDbCircle
 10
298.1737315916624
 20
493.2541634899131
 30
0.0
 40
3.0
100
AcDbArc
 50
90.0
 51
161.7829048021748
  0
LINE
  5
245
330
15
100
AcDbEntity
  8
L-CENTER
 48
2.0
100
AcDbLine
 10
314.0027757567108
 20
491.2541634899143
 30
0.0
 11
314.002775756711
 21
471.2541634899134
 31
0.0
  0
ARC
  5
246
330
15
100
AcDbEntity
  8
4
100
AcDbCircle
 10
323.0027757567108
 20
457.7541634899131
 30
0.0
 40
1.0
100
AcDbArc
 50
180.0
 51
270.0
  0
LINE
  5
247
330
15
100
AcDbEntity
  8
4
100
AcDbLine
 10
322.0027757567108
 20
457.7541634899131
 30
0.0
 11
322.0027757567108
 21
458.7541634899131
 31
0.0
  0
ARC
  5
248
330
15
100
AcDbEntity
  8
4
100
AcDbCircle
 10
328.0027757567105
 20
455.7541634899131
 30
0.0
 40
1.0
100
AcDbArc
 50
0.0
 51
90.0
  0
CIRCLE
  5
249
330
15
100
AcDbEntity
  8
4
100
AcDbCircle
 10
314.002775756711
 20
481.2541634899134
 30
0.0
 40
5.5
  0
ARC
  5
24A
330
15
100
AcDbEntity
  8
4
100
AcDbCircle
 10
326.0027757567108
 20
493.2541634899131
 30
0.0
 40
3.0
100
AcDbArc
 50
0.0
 51
90.0
  0
LINE
  5
24B
330
15
100
AcDbEntity
  8
4
100
AcDbLine
 10
308.0027757567105
 20
383.7514169512575
 30
0.0
 11
160.0027757567101
 21
383.7514169512575
 31
0.0
  0
LINE
  5
24C
330
15
100
AcDbEntity
  8
4
100
AcDbLine
 10
223.5027757567108
 20
440.2541634899131
 30
0.0
 11
244.5027757567108
 21
440.2541634899131
 31
0.0
  0
LINE
  5
24D
330
15
100
AcDbEntity
  8
4
100
AcDbLine
 10
223.5027757567108
 20
440.2541634899131
 30
0.0
 11
220.0027757567108
 21
436.7541634899131
 31
0.0
  0
LINE
  5
24E
330
15
100
AcDbEntity
  8
4
100
AcDbLine
 10
220.0027757567108
 20
415.7541634899131
 30
0.0
 11
220.0027757567108
 21
436.7541634899131
 31
0.0
  0
LINE
  5
24F
330
15
100
AcDbEntity
  8
4
100
AcDbLine
 10
223.5027757567108
 20
412.2541634899131
 30
0.0
 11
244.5027757567108
 21
412.2541634899131
 31
0.0
  0
LINE
  5
250
330
15
100
AcDbEntity
  8
4
100
AcDbLine
 10
220.0027757567108
 20
415.7541634899131
 30
0.0
 11
223.5027757567108
 21
412.2541634899131
 31
0.0
  0
LINE
  5
251
330
15
100
AcDbEntity
  8
4
100
AcDbLine
 10
244.5027757567108
 20
412.2541634899131
 30
0.0
 11
248.0027757567108
 21
415.7541634899131
 31
0.0
  0
LINE
  5
252
330
15
100
AcDbEntity
  8
4
100
AcDbLine
 10
248.0027757567108
 20
415.7541634899131
 30
0.0
 11
248.0027757567108
 21
436.7541634899131
 31
0.0
  0
LINE
  5
253
330
15
100
AcDbEntity
  8
4
100
AcDbLine
 10
248.0027757567108
 20
436.7541634899131
 30
0.0
 11
244.5027757567108
 21
440.2541634899131
 31
0.0
  0
LINE
  5
254
330
15
100
AcDbEntity
  8
4
100
AcDbLine
 10
146.723743918667
 20
466.754163489912
 30
0.0
 11
321.05533868757
 21
466.7541634899135
 31
0.0
  0
LINE
  5
255
330
15
100
AcDbEntity
  8
4
100
AcDbLine
 10
145.7237439186669
 20
459.0541634899122
 30
0.0
 11
322.05533868757
 21
459.0541634899139
 31
0.0
  0
LINE
  5
256
330
15
100
AcDbEntity
  8
4
100
AcDbLine
 10
145.723743918667
 20
465.754163489912
 30
0.0
 11
145.723743918667
 21
459.0541634899122
 31
0.0
  0
ARC
  5
257
330
15
100
AcDbEntity
  8
4
100
AcDbCircle
 10
146.7237439186671
 20
465.7541634899121
 30
0.0
 40
1.0
100
AcDbArc
 50
90.0
 51
180.0
  0
LINE
  5
258
330
15
100
AcDbEntity
  8
4
100
AcDbLine
 10
322.0553386875698
 20
465.7541634899121
 30
0.0
 11
322.05533868757
 21
459.0541634899123
 31
0.0
  0
LINE
  5
259
330
15
100
AcDbEntity
  8
4
100
AcDbLine
 10
257.0167757567109
 20
478.7541634899122
 30
0.0
 11
292.0167757567109
 21
478.7541634899121
 31
0.0
  0
LINE
  5
25A
330
15
100
AcDbEntity
  8
4
100
AcDbLine
 10
170.5167757567109
 20
477.7541634899121
 30
0.0
 11
300.5167757567109
 21
477.7541634899121
 31
0.0
  0
ARC
  5
25B
330
15
100
AcDbEntity
  8
4
100
AcDbCircle
 10
234.0027757567108
 20
-529.5040778899224
 30
0.0
 40
1000.0
100
AcDbArc
 50
85.75623314519632
 51
87.37780280711955
  0
LINE
  5
25C
330
15
100
AcDbEntity
  8
4
100
AcDbLine
 10
180.5167757567109
 20
478.7541634899121
 30
0.0
 11
242.5167757567109
 21
478.7541634899121
 31
0.0
  0
LINE
  5
25D
330
15
100
AcDbEntity
  8
4
100
AcDbLine
 10
170.5167757567107
 20
477.7541634899122
 30
0.0
 11
170.5167757567109
 21
472.2921148578841
 31
0.0
  0
ARC
  5
25E
330
15
100
AcDbEntity
  8
4
100
AcDbCircle
 10
234.0027757567108
 20
-529.5040778899224
 30
0.0
 40
1001.0
100
AcDbArc
 50
93.7969689917206
 51
94.23951956938579
  0
ARC
  5
25F
330
15
100
AcDbEntity
  8
4
100
AcDbCircle
 10
159.0027757567108
 20
467.7541634899121
 30
0.0
 40
1.0
100
AcDbArc
 50
270.0
 51
0.0
  0
LINE
  5
260
330
15
100
AcDbEntity
  8
4
100
AcDbLine
 10
160.0027757567108
 20
468.756910028568
 30
0.0
 11
160.0027757567108
 21
467.7541634899121
 31
0.0
  0
ARC
  5
261
330
15
100
AcDbEntity
  8
4
100
AcDbCircle
 10
167.5167757567109
 20
472.2921148578841
 30
0.0
 40
3.0
100
AcDbArc
 50
273.7969689917252
 51
0.0
  0
LINE
  5
262
330
15
100
AcDbEntity
  8
4
100
AcDbLine
 10
180.5167757567109
 20
477.7541634899121
 30
0.0
 11
180.5167757567109
 21
478.7541634899121
 31
0.0
  0
LINE
  5
263
330
15
100
AcDbEntity
  8
4
100
AcDbLine
 10
242.5167757567109
 20
477.7541634899121
 30
0.0
 11
242.5167757567109
 21
478.7541634899121
 31
0.0
  0
LINE
  5
264
330
15
100
AcDbEntity
  8
4
100
AcDbLine
 10
257.0167757567109
 20
477.7541634899122
 30
0.0
 11
257.0167757567109
 21
478.7541634899121
 31
0.0
  0
LINE
  5
265
330
15
100
AcDbEntity
  8
4
100
AcDbLine
 10
292.0167757567109
 20
477.7541634899122
 30
0.0
 11
292.0167757567109
 21
478.7541634899121
 31
0.0
  0
LINE
  5
266
330
15
100
AcDbEntity
  8
4
100
AcDbLine
 10
300.5167757567109
 20
477.7541634899121
 30
0.0
 11
300.5167757567109
 21
472.0865589493005
 31
0.0
  0
ARC
  5
267
330
15
100
AcDbEntity
  8
4
100
AcDbCircle
 10
234.0027757567108
 20
-529.5040778899224
 30
0.0
 40
1001.0
100
AcDbArc
 50
85.76048043061421
 51
86.02983281640505
  0
ARC
  5
268
330
15
100
AcDbEntity
  8
4
100
AcDbCircle
 10
303.5167757567109
 20
472.0865589493005
 30
0.0
 40
3.0
100
AcDbArc
 50
180.0
 51
266.0298328164038
  0
LINE
  5
269
330
15
100
AcDbEntity
  8
4
100
AcDbLine
 10
308.0027757567108
 20
468.756910028568
 30
0.0
 11
308.0027757567108
 21
467.7541634899123
 31
0.0
  0
ARC
  5
26A
330
15
100
AcDbEntity
  8
4
100
AcDbCircle
 10
309.0027757567108
 20
467.7541634899123
 30
0.0
 40
1.0
100
AcDbArc
 50
180.0
 51
270.0
  0
ARC
  5
26B
330
15
100
AcDbEntity
  8
4
100
AcDbCircle
 10
321.05533868757
 20
465.7541634899121
 30
0.0
 40
1.0
100
AcDbArc
 50
0.0
 51
90.0
  0
LINE
  5
26C
330
15
100
AcDbEntity
  8
L-CENTER
 48
2.0
100
AcDbLine
 10
211.5167757567109
 20
544.0508090271252
 30
0.0
 11
211.5167757567109
 21
369.3842873643652
 31
0.0
  0
LINE
  5
26D
330
15
100
AcDbEntity
  8
L-CENTER
 48
2.0
100
AcDbLine
 10
274.5167757567109
 20
482.7541634899123
 30
0.0
 11
274.5167757567109
 21
362.8521051355903
 31
0.0
  0
LINE
  5
26E
330
15
100
AcDbEntity
  8
L-CENTER
 48
2.0
100
AcDbLine
 10
84.3441139029593
 20
415.7541634899131
 30
0.0
 11
383.6614376104623
 21
415.7541634899131
 31
0.0
  0
CIRCLE
  5
26F
330
15
100
AcDbEntity
  8
4
100
AcDbCircle
 10
234.0027757567108
 20
426.2541634899131
 30
0.0
 40
12.5
  0
LWPOLYLINE
  5
270
330
15
100
AcDbEntity
  8
4
100
AcDbPolyline
 90
        6
 70
     1
 43
0.0
 10
246.5027757567108
 20
426.2541634899131
 10
240.2527757567108
 20
437.0794810372187
 10
227.7527757567108
 20
437.0794810372187
 10
221.5027757567108
 20
426.2541634899131
 10
227.7527757567108
 20
415.4288459426076
 10
240.2527757567108
 20
415.4288459426076
  0
LINE
  5
271
330
15
100
AcDbEntity
  8
4
100
AcDbLine
 10
128.0027767567108
 20
398.254164489913
 30
0.0
 11
128.0027767567108
 21
433.2541639899131
 31
0.0
  0
LINE
  5
272
330
15
100
AcDbEntity
  8
4
100
AcDbLine
 10
128.0027767567108
 20
398.254164489913
 30
0.0
 11
129.0027757567108
 21
398.254164489913
 31
0.0
  0
LINE
  5
273
330
15
100
AcDbEntity
  8
4
100
AcDbLine
 10
129.0027757567108
 20
433.2541639899131
 30
0.0
 11
128.0027767567108
 21
433.2541639899131
 31
0.0
  0
LINE
  5
274
330
15
100
AcDbEntity
  8
4
100
AcDbLine
 10
340.0026532567107
 20
433.2541639899131
 30
0.0
 11
340.0026532567107
 21
398.254164489913
 31
0.0
  0
LINE
  5
275
330
15
100
AcDbEntity
  8
4
100
AcDbLine
 10
339.0026542567108
 20
398.254164489913
 30
0.0
 11
340.0026532567107
 21
398.254164489913
 31
0.0
  0
LINE
  5
276
330
15
100
AcDbEntity
  8
4
100
AcDbLine
 10
340.0026532567107
 20
433.2541639899131
 30
0.0
 11
339.0026542567108
 21
433.2541639899131
 31
0.0
  0
LINE
  5
277
330
15
100
AcDbEntity
  8
4
100
AcDbLine
 10
350.0167757567109
 20
422.754163489913
 30
0.0
 11
379.0167757567109
 21
422.754163489913
 31
0.0
  0
LINE
  5
278
330
15
100
AcDbEntity
  8
4
100
AcDbLine
 10
355.0167757567109
 20
418.254163489913
 30
0.0
 11
379.5167757567109
 21
418.254163489913
 31
0.0
  0
LINE
  5
279
330
15
100
AcDbEntity
  8
4
100
AcDbLine
 10
355.0167757567109
 20
413.254163489913
 30
0.0
 11
379.5167757567109
 21
413.254163489913
 31
0.0
  0
LINE
  5
27A
330
15
100
AcDbEntity
  8
4
100
AcDbLine
 10
350.0167757567109
 20
408.754163489913
 30
0.0
 11
379.0167757567109
 21
408.754163489913
 31
0.0
  0
ARC
  5
27B
330
15
100
AcDbEntity
  8
4
100
AcDbCircle
 10
355.0167757567109
 20
415.754163489913
 30
0.0
 40
2.5
100
AcDbArc
 50
90.0
 51
270.0
  0
LINE
  5
27C
330
15
100
AcDbEntity
  8
4
100
AcDbLine
 10
349.5167757567109
 20
423.254163489913
 30
0.0
 11
349.5167757567109
 21
408.254163489913
 31
0.0
  0
ARC
  5
27D
330
15
100
AcDbEntity
  8
4
100
AcDbCircle
 10
350.0167757567109
 20
408.254163489913
 30
0.0
 40
0.5
100
AcDbArc
 50
90.0
 51
180.0
  0
ARC
  5
27E
330
15
100
AcDbEntity
  8
4
100
AcDbCircle
 10
350.0167757567109
 20
423.254163489913
 30
0.0
 40
0.5
100
AcDbArc
 50
180.0
 51
270.0
  0
LINE
  5
27F
330
15
100
AcDbEntity
  8
4
100
AcDbLine
 10
379.5167757567109
 20
422.254163489913
 30
0.0
 11
379.5167757567109
 21
409.254163489913
 31
0.0
  0
LINE
  5
280
330
15
100
AcDbEntity
  8
4
100
AcDbLine
 10
379.5167757567109
 20
409.254163489913
 30
0.0
 11
379.0167757567109
 21
408.754163489913
 31
0.0
  0
LINE
  5
281
330
15
100
AcDbEntity
  8
4
100
AcDbLine
 10
379.0167757567109
 20
413.254163489913
 30
0.0
 11
379.0167757567109
 21
408.754163489913
 31
0.0
  0
LINE
  5
282
330
15
100
AcDbEntity
  8
4
100
AcDbLine
 10
379.5167757567109
 20
422.254163489913
 30
0.0
 11
379.0167757567109
 21
422.754163489913
 31
0.0
  0
LINE
  5
283
330
15
100
AcDbEntity
  8
4
100
AcDbLine
 10
379.0167757567109
 20
422.754163489913
 30
0.0
 11
379.0167757567109
 21
418.254163489913
 31
0.0
  0
LINE
  5
284
330
15
100
AcDbEntity
  8
4
100
AcDbLine
 10
340.0026532567107
 20
423.2541634899131
 30
0.0
 11
349.5167757567109
 21
423.2541634899131
 31
0.0
  0
LINE
  5
285
330
15
100
AcDbEntity
  8
4
100
AcDbLine
 10
340.0026532567107
 20
408.2541634899131
 30
0.0
 11
349.5167757567109
 21
408.2541634899131
 31
0.0
  0
LINE
  5
286
330
15
100
AcDbEntity
  8
4
100
AcDbLine
 10
257.0167757567109
 20
373.754163489914
 30
0.0
 11
292.0167757567109
 21
373.7541634899142
 31
0.0
  0
LINE
  5
287
330
15
100
AcDbEntity
  8
4
100
AcDbLine
 10
180.5167757567109
 20
373.7541634899142
 30
0.0
 11
242.5167757567109
 21
373.7541634899142
 31
0.0
  0
LINE
  5
288
330
15
100
AcDbEntity
  8
4
100
AcDbLine
 10
180.5167757567109
 20
374.7541634899142
 30
0.0
 11
180.5167757567109
 21
373.7541634899142
 31
0.0
  0
LINE
  5
289
330
15
100
AcDbEntity
  8
4
100
AcDbLine
 10
242.5167757567109
 20
374.7541634899142
 30
0.0
 11
242.5167757567109
 21
373.7541634899142
 31
0.0
  0
LINE
  5
28A
330
15
100
AcDbEntity
  8
4
100
AcDbLine
 10
257.0167757567109
 20
374.754163489914
 30
0.0
 11
257.0167757567109
 21
373.7541634899142
 31
0.0
  0
LINE
  5
28B
330
15
100
AcDbEntity
  8
4
100
AcDbLine
 10
292.0167757567109
 20
374.754163489914
 30
0.0
 11
292.0167757567109
 21
373.7541634899142
 31
0.0
  0
LINE
  5
28C
330
15
100
AcDbEntity
  8
4
100
AcDbLine
 10
197.5167757567109
 20
536.7541634899127
 30
0.0
 11
208.0167757567109
 21
536.7541634899129
 31
0.0
  0
LINE
  5
28D
330
15
100
AcDbEntity
  8
4
100
AcDbLine
 10
198.5167757567109
 20
537.7541634899129
 30
0.0
 11
224.5167757567109
 21
537.7541634899129
 31
0.0
  0
LINE
  5
28E
330
15
100
AcDbEntity
  8
4
100
AcDbLine
 10
196.5167757567104
 20
487.7541634899129
 30
0.0
 11
226.5167757567109
 21
487.7541634899129
 31
0.0
  0
LINE
  5
28F
330
15
100
AcDbEntity
  8
4
  6
Continuous
100
AcDbLine
 10
208.0167757567109
 20
496.2541634899129
 30
0.0
 11
208.0167757567109
 21
537.7541634899127
 31
0.0
  0
LINE
  5
290
330
15
100
AcDbEntity
  8
4
  6
Continuous
100
AcDbLine
 10
215.0167757567109
 20
496.2541634899129
 30
0.0
 11
215.0167757567109
 21
537.7541634899127
 31
0.0
  0
LINE
  5
291
330
15
100
AcDbEntity
  8
4
  6
Continuous
100
AcDbLine
 10
225.5167757567109
 20
488.2541634899129
 30
0.0
 11
225.5167757567109
 21
536.7541634899129
 31
0.0
  0
ARC
  5
292
330
15
100
AcDbEntity
  8
4
100
AcDbCircle
 10
211.5167757567109
 20
496.254163489913
 30
0.0
 40
3.5
100
AcDbArc
 50
270.0
 51
0.0
  0
ARC
  5
293
330
15
100
AcDbEntity
  8
4
100
AcDbCircle
 10
211.5167757567109
 20
496.254163489913
 30
0.0
 40
3.5
100
AcDbArc
 50
180.0
 51
270.0
  0
ARC
  5
294
330
15
100
AcDbEntity
  8
4
100
AcDbCircle
 10
226.0167757567109
 20
488.254163489913
 30
0.0
 40
0.5
100
AcDbArc
 50
180.0
 51
270.0
  0
LINE
  5
295
330
15
100
AcDbEntity
  8
4
100
AcDbLine
 10
211.5167757567109
 20
492.7541634899129
 30
0.0
 11
211.5167757567109
 21
492.7541634899129
 31
0.0
  0
LINE
  5
296
330
15
100
AcDbEntity
  8
4
100
AcDbLine
 10
215.0167757567109
 20
536.7541634899129
 30
0.0
 11
225.5167757567109
 21
536.7541634899129
 31
0.0
  0
LINE
  5
297
330
15
100
AcDbEntity
  8
4
100
AcDbLine
 10
225.5167757567109
 20
536.7541634899129
 30
0.0
 11
224.5167757567109
 21
537.7541634899129
 31
0.0
  0
LINE
  5
298
330
15
100
AcDbEntity
  8
4
  6
Continuous
100
AcDbLine
 10
197.5167757567109
 20
488.2541634899129
 30
0.0
 11
197.5167757567109
 21
536.7541634899129
 31
0.0
  0
ARC
  5
299
330
15
100
AcDbEntity
  8
4
100
AcDbCircle
 10
197.0167757567109
 20
488.254163489913
 30
0.0
 40
0.5
100
AcDbArc
 50
270.0
 51
0.0
  0
LINE
  5
29A
330
15
100
AcDbEntity
  8
4
100
AcDbLine
 10
198.5167757567109
 20
537.7541634899129
 30
0.0
 11
197.5167757567109
 21
536.7541634899129
 31
0.0
  0
LINE
  5
29B
330
15
100
AcDbEntity
  8
4
  6
Continuous
100
AcDbLine
 10
196.5167757567107
 20
478.7541634899122
 30
0.0
 11
196.5167757567104
 21
487.7541634899129
 31
0.0
  0
LINE
  5
29C
330
15
100
AcDbEntity
  8
4
  6
Continuous
100
AcDbLine
 10
226.5167757567109
 20
478.7541634899122
 30
0.0
 11
226.5167757567109
 21
487.7541634899129
 31
0.0
  0
LINE
  5
29D
330
15
100
AcDbEntity
  8
4
100
AcDbLine
 10
285.3420933040164
 20
366.2541634899131
 30
0.0
 11
263.6914582094054
 21
366.2541634899131
 31
0.0
  0
LINE
  5
29E
330
15
100
AcDbEntity
  8
4
100
AcDbLine
 10
287.0167757567109
 20
371.2541634899131
 30
0.0
 11
262.0167757567109
 21
371.2541634899131
 31
0.0
  0
LINE
  5
29F
330
15
100
AcDbEntity
  8
4
100
AcDbLine
 10
287.0167757567109
 20
373.2541634899131
 30
0.0
 11
262.0167757567109
 21
373.2541634899131
 31
0.0
  0
LWPOLYLINE
  5
2A0
330
15
100
AcDbEntity
  8
4
100
AcDbPolyline
 90
        2
 70
     0
 43
0.0
 10
263.6914582094054
 20
371.2541634899131
 10
263.6914582094054
 20
366.2541634899131
  0
LINE
  5
2A1
330
15
100
AcDbEntity
  8
4
100
AcDbLine
 10
263.0167757567109
 20
373.2541634899131
 30
0.0
 11
263.0167757567109
 21
373.754163489914
 31
0.0
  0
LINE
  5
2A2
330
15
100
AcDbEntity
  8
4
100
AcDbLine
 10
262.0167757567109
 20
371.2541634899134
 30
0.0
 11
262.0167757567109
 21
373.2541634899131
 31
0.0
  0
LWPOLYLINE
  5
2A3
330
15
100
AcDbEntity
  8
4
100
AcDbPolyline
 90
        2
 70
     0
 43
0.0
 10
285.3420933040164
 20
366.2541634899131
 10
285.3420933040164
 20
371.2541634899131
  0
LINE
  5
2A4
330
15
100
AcDbEntity
  8
4
100
AcDbLine
 10
286.0167757567109
 20
373.2541634899131
 30
0.0
 11
286.0167757567109
 21
373.7541634899142
 31
0.0
  0
LINE
  5
2A5
330
15
100
AcDbEntity
  8
4
100
AcDbLine
 10
287.0167757567109
 20
371.2541634899131
 30
0.0
 11
287.0167757567109
 21
373.2541634899131
 31
0.0
  0
LINE
  5
2A6
330
15
100
AcDbEntity
  8
L-CENTER
 48
2.0
100
AcDbLine
 10
315.5027757567108
 20
475.5337718353125
 30
0.0
 11
315.5027757567108
 21
451.6343772369933
 31
0.0
  0
LINE
  5
2A7
330
15
100
AcDbEntity
  8
L-CENTER
 48
2.0
100
AcDbLine
 10
274.7527757567108
 20
475.5337718353125
 30
0.0
 11
274.7527757567108
 21
451.634377236993
 31
0.0
  0
ARC
  5
2A8
330
15
100
AcDbEntity
  8
4
100
AcDbCircle
 10
234.0027757567108
 20
-529.5040778899224
 30
0.0
 40
1000.0
100
AcDbArc
 50
87.95123931690581
 51
92.04876068309419
  0
LINE
  5
2A9
330
15
100
AcDbEntity
  8
L-CENTER
 48
2.0
100
AcDbLine
 10
152.5027757567104
 20
475.5337718353118
 30
0.0
 11
152.5027757567108
 21
451.634377236992
 31
0.0
  0
LINE
  5
2AA
330
15
100
AcDbEntity
  8
4
100
AcDbLine
 10
199.0262784486068
 20
466.7541634899127
 30
0.0
 11
187.4792730648143
 21
466.7541634899125
 31
0.0
  0
LINE
  5
2AB
330
15
100
AcDbEntity
  8
L-CENTER
 48
2.0
100
AcDbLine
 10
193.2527757567105
 20
475.5337718353125
 30
0.0
 11
193.2527757567108
 21
451.6343772369925
 31
0.0
  0
ARC
  5
2AC
330
15
100
AcDbEntity
  8
4
100
AcDbCircle
 10
234.0027757567108
 20
-529.5040778899224
 30
0.0
 40
1000.0
100
AcDbArc
 50
92.62219719288044
 51
94.24376685480368
  0
LINE
  5
2AD
330
15
100
AcDbEntity
  8
L-CENTER
 48
2.0
100
AcDbLine
 10
603.2186534130367
 20
185.1941462352127
 30
0.0
 11
578.635296840727
 21
185.1941462352127
 31
0.0
  0
LINE
  5
2AE
330
15
100
AcDbEntity
  8
L-CENTER
 48
2.0
100
AcDbLine
 10
603.2186534130367
 20
114.613075826781
 30
0.0
 11
578.635296840727
 21
114.613075826781
 31
0.0
  0
LINE
  5
2AF
330
15
100
AcDbEntity
  8
L-CENTER
 48
2.0
100
AcDbLine
 10
603.2186534130367
 20
44.03200541834923
 30
0.0
 11
578.635296840727
 21
44.03200541834923
 31
0.0
  0
LINE
  5
2B0
330
15
100
AcDbEntity
  8
4
100
AcDbLine
 10
595.255083093647
 20
179.4441462352127
 30
0.0
 11
595.255083093647
 21
190.9441462352127
 31
0.0
  0
LINE
  5
2B1
330
15
100
AcDbEntity
  8
4
100
AcDbLine
 10
601.255083093647
 20
180.1941462352127
 30
0.0
 11
601.255083093647
 21
190.1941462352127
 31
0.0
  0
LINE
  5
2B2
330
15
100
AcDbEntity
  8
4
100
AcDbLine
 10
601.255083093647
 20
190.1941462352127
 30
0.0
 11
595.2550830936468
 21
190.1941462352127
 31
0.0
  0
LINE
  5
2B3
330
15
100
AcDbEntity
  8
4
100
AcDbLine
 10
601.255083093647
 20
180.1941462352127
 30
0.0
 11
595.2550830936468
 21
180.1941462352127
 31
0.0
  0
LINE
  5
2B4
330
15
100
AcDbEntity
  8
4
100
AcDbLine
 10
595.255083093647
 20
190.9441462352127
 30
0.0
 11
593.755083093647
 21
190.9441462352127
 31
0.0
  0
LINE
  5
2B5
330
15
100
AcDbEntity
  8
4
100
AcDbLine
 10
595.255083093647
 20
179.4441462352127
 30
0.0
 11
593.755083093647
 21
179.4441462352128
 31
0.0
  0
LINE
  5
2B6
330
15
100
AcDbEntity
  8
2
100
AcDbLine
 10
593.755083093647
 20
185.1941462352127
 30
0.0
 11
595.255083093647
 21
186.6941462352127
 31
0.0
  0
LINE
  5
2B7
330
15
100
AcDbEntity
  8
2
100
AcDbLine
 10
593.755083093647
 20
183.0728258916531
 30
0.0
 11
595.255083093647
 21
184.5728258916531
 31
0.0
  0
LINE
  5
2B8
330
15
100
AcDbEntity
  8
4
100
AcDbLine
 10
601.255083093647
 20
119.613075826781
 30
0.0
 11
595.2550830936468
 21
119.613075826781
 31
0.0
  0
LINE
  5
2B9
330
15
100
AcDbEntity
  8
4
100
AcDbLine
 10
601.255083093647
 20
109.613075826781
 30
0.0
 11
595.2550830936468
 21
109.6130758267809
 31
0.0
  0
LINE
  5
2BA
330
15
100
AcDbEntity
  8
4
100
AcDbLine
 10
595.255083093647
 20
108.863075826781
 30
0.0
 11
595.255083093647
 21
120.363075826781
 31
0.0
  0
LINE
  5
2BB
330
15
100
AcDbEntity
  8
2
100
AcDbLine
 10
593.755083093647
 20
114.613075826781
 30
0.0
 11
595.255083093647
 21
116.113075826781
 31
0.0
  0
LINE
  5
2BC
330
15
100
AcDbEntity
  8
2
100
AcDbLine
 10
593.755083093647
 20
112.4917554832214
 30
0.0
 11
595.255083093647
 21
113.9917554832214
 31
0.0
  0
LINE
  5
2BD
330
15
100
AcDbEntity
  8
4
100
AcDbLine
 10
595.255083093647
 20
108.863075826781
 30
0.0
 11
593.755083093647
 21
108.863075826781
 31
0.0
  0
LINE
  5
2BE
330
15
100
AcDbEntity
  8
4
100
AcDbLine
 10
595.255083093647
 20
120.363075826781
 30
0.0
 11
593.755083093647
 21
120.3630758267809
 31
0.0
  0
LINE
  5
2BF
330
15
100
AcDbEntity
  8
4
100
AcDbLine
 10
601.255083093647
 20
109.613075826781
 30
0.0
 11
601.255083093647
 21
119.613075826781
 31
0.0
  0
LINE
  5
2C0
330
15
100
AcDbEntity
  8
4
100
AcDbLine
 10
601.255083093647
 20
39.03200541834923
 30
0.0
 11
595.2550830936468
 21
39.03200541834917
 31
0.0
  0
LINE
  5
2C1
330
15
100
AcDbEntity
  8
4
100
AcDbLine
 10
601.255083093647
 20
49.03200541834923
 30
0.0
 11
595.2550830936468
 21
49.03200541834923
 31
0.0
  0
LINE
  5
2C2
330
15
100
AcDbEntity
  8
4
100
AcDbLine
 10
595.255083093647
 20
38.61325832678097
 30
0.0
 11
595.255083093647
 21
49.78200541834923
 31
0.0
  0
LINE
  5
2C3
330
15
100
AcDbEntity
  8
4
100
AcDbLine
 10
595.255083093647
 20
49.78200541834923
 30
0.0
 11
593.755083093647
 21
49.78200541834917
 31
0.0
  0
LINE
  5
2C4
330
15
100
AcDbEntity
  8
2
100
AcDbLine
 10
593.755083093647
 20
41.91068507478963
 30
0.0
 11
595.255083093647
 21
43.41068507478963
 31
0.0
  0
LINE
  5
2C5
330
15
100
AcDbEntity
  8
2
100
AcDbLine
 10
593.755083093647
 20
44.03200541834923
 30
0.0
 11
595.255083093647
 21
45.53200541834923
 31
0.0
  0
LINE
  5
2C6
330
15
100
AcDbEntity
  8
4
100
AcDbLine
 10
601.255083093647
 20
39.03200541834923
 30
0.0
 11
601.255083093647
 21
49.03200541834923
 31
0.0
  0
LINE
  5
2C7
330
15
100
AcDbEntity
  8
4
100
AcDbLine
 10
188.2527757567108
 20
474.2541634899123
 30
0.0
 11
188.2527757567108
 21
468.2541634899122
 31
0.0
  0
LINE
  5
2C8
330
15
100
AcDbEntity
  8
4
100
AcDbLine
 10
187.5027757567108
 20
468.2541634899123
 30
0.0
 11
187.5027757567108
 21
466.7541634899123
 31
0.0
  0
LINE
  5
2C9
330
15
100
AcDbEntity
  8
4
100
AcDbLine
 10
199.0027757567108
 20
468.2541634899123
 30
0.0
 11
187.5027757567108
 21
468.2541634899123
 31
0.0
  0
LINE
  5
2CA
330
15
100
AcDbEntity
  8
4
100
AcDbLine
 10
198.2527757567108
 20
474.2541634899123
 30
0.0
 11
188.2527757567108
 21
474.2541634899123
 31
0.0
  0
LINE
  5
2CB
330
15
100
AcDbEntity
  8
4
100
AcDbLine
 10
198.2527757567108
 20
474.2541634899123
 30
0.0
 11
198.2527757567108
 21
468.2541634899122
 31
0.0
  0
LINE
  5
2CC
330
15
100
AcDbEntity
  8
4
100
AcDbLine
 10
199.0027757567108
 20
468.2541634899123
 30
0.0
 11
199.0027757567105
 21
466.7541634899123
 31
0.0
  0
LINE
  5
2CD
330
15
100
AcDbEntity
  8
4
100
AcDbLine
 10
147.5027757567105
 20
474.254163489912
 30
0.0
 11
147.5027757567105
 21
468.2541634899119
 31
0.0
  0
LINE
  5
2CE
330
15
100
AcDbEntity
  8
4
100
AcDbLine
 10
157.5027757567105
 20
474.254163489912
 30
0.0
 11
157.5027757567108
 21
468.2541634899119
 31
0.0
  0
LINE
  5
2CF
330
15
100
AcDbEntity
  8
4
100
AcDbLine
 10
158.2527757567105
 20
468.254163489912
 30
0.0
 11
146.7527757567105
 21
468.254163489912
 31
0.0
  0
LINE
  5
2D0
330
15
100
AcDbEntity
  8
4
100
AcDbLine
 10
158.2762784486068
 20
466.7541634899123
 30
0.0
 11
146.7292730648143
 21
466.7541634899121
 31
0.0
  0
LINE
  5
2D1
330
15
100
AcDbEntity
  8
4
100
AcDbLine
 10
146.7527757567105
 20
468.254163489912
 30
0.0
 11
146.7527757567108
 21
466.754163489912
 31
0.0
  0
LINE
  5
2D2
330
15
100
AcDbEntity
  8
4
100
AcDbLine
 10
158.2527757567105
 20
468.254163489912
 30
0.0
 11
158.2527757567105
 21
466.754163489912
 31
0.0
  0
LINE
  5
2D3
330
15
100
AcDbEntity
  8
4
100
AcDbLine
 10
157.5027757567105
 20
474.254163489912
 30
0.0
 11
147.5027757567105
 21
474.254163489912
 31
0.0
  0
LINE
  5
2D4
330
15
100
AcDbEntity
  8
4
100
AcDbLine
 10
269.7527757567108
 20
474.2541634899129
 30
0.0
 11
269.7527757567108
 21
468.2541634899128
 31
0.0
  0
LINE
  5
2D5
330
15
100
AcDbEntity
  8
4
100
AcDbLine
 10
279.7527757567108
 20
474.2541634899129
 30
0.0
 11
279.7527757567108
 21
468.2541634899128
 31
0.0
  0
LINE
  5
2D6
330
15
100
AcDbEntity
  8
4
100
AcDbLine
 10
280.5027757567108
 20
468.2541634899129
 30
0.0
 11
269.0027757567108
 21
468.2541634899129
 31
0.0
  0
LINE
  5
2D7
330
15
100
AcDbEntity
  8
4
100
AcDbLine
 10
280.5262784486071
 20
466.7541634899133
 30
0.0
 11
268.9792730648145
 21
466.754163489913
 31
0.0
  0
LINE
  5
2D8
330
15
100
AcDbEntity
  8
4
100
AcDbLine
 10
269.0027757567108
 20
468.2541634899129
 30
0.0
 11
269.0027757567108
 21
466.7541634899129
 31
0.0
  0
LINE
  5
2D9
330
15
100
AcDbEntity
  8
4
100
AcDbLine
 10
280.5027757567108
 20
468.2541634899129
 30
0.0
 11
280.5027757567108
 21
466.7541634899129
 31
0.0
  0
LINE
  5
2DA
330
15
100
AcDbEntity
  8
4
100
AcDbLine
 10
279.7527757567108
 20
474.2541634899129
 30
0.0
 11
269.7527757567108
 21
474.2541634899129
 31
0.0
  0
LINE
  5
2DB
330
15
100
AcDbEntity
  8
4
100
AcDbLine
 10
320.5027757567108
 20
474.2541634899133
 30
0.0
 11
320.502775756711
 21
468.2541634899131
 31
0.0
  0
LINE
  5
2DC
330
15
100
AcDbEntity
  8
4
100
AcDbLine
 10
310.5027757567108
 20
474.2541634899133
 30
0.0
 11
310.5027757567108
 21
468.2541634899131
 31
0.0
  0
LINE
  5
2DD
330
15
100
AcDbEntity
  8
4
100
AcDbLine
 10
321.2762784486071
 20
466.7541634899136
 30
0.0
 11
309.7292730648145
 21
466.7541634899134
 31
0.0
  0
LINE
  5
2DE
330
15
100
AcDbEntity
  8
4
100
AcDbLine
 10
321.2527757567108
 20
468.2541634899133
 30
0.0
 11
309.7527757567108
 21
468.2541634899133
 31
0.0
  0
LINE
  5
2DF
330
15
100
AcDbEntity
  8
4
100
AcDbLine
 10
309.7527757567108
 20
468.2541634899133
 30
0.0
 11
309.752775756711
 21
466.7541634899133
 31
0.0
  0
LINE
  5
2E0
330
15
100
AcDbEntity
  8
4
100
AcDbLine
 10
321.2527757567108
 20
468.2541634899133
 30
0.0
 11
321.2527757567108
 21
466.7541634899133
 31
0.0
  0
LINE
  5
2E1
330
15
100
AcDbEntity
  8
4
100
AcDbLine
 10
320.5027757567108
 20
474.2541634899133
 30
0.0
 11
310.5027757567108
 21
474.2541634899133
 31
0.0
  0
ARC
  5
464
330
15
100
AcDbEntity
  8
4
100
AcDbCircle
 10
708.6124050441805
 20
113.613075326781
 30
0.0
 40
14.000004
100
AcDbArc
 50
104.4775079591588
 51
75.52249599999591
  0
LINE
  5
47D
330
15
100
AcDbEntity
  8
4
100
AcDbLine
 10
705.1124050441805
 20
130.613075326781
 30
0.0
 11
712.1124050441805
 21
130.613075326781
 31
0.0
  0
LINE
  5
47E
330
15
100
AcDbEntity
  8
4
100
AcDbLine
 10
712.1124050441805
 20
123.613075326781
 30
0.0
 11
705.1124050441805
 21
123.613075326781
 31
0.0
  0
LINE
  5
480
330
15
100
AcDbEntity
  8
L-CENTER
 48
2.0
100
AcDbLine
 10
708.6124050441805
 20
133.1596423011608
 30
0.0
 11
708.6124050441805
 21
94.06650835240112
 31
0.0
  0
LINE
  5
481
330
15
100
AcDbEntity
  8
4
100
AcDbLine
 10
705.1124050441805
 20
130.613075326781
 30
0.0
 11
705.1124050441805
 21
123.613075326781
 31
0.0
  0
LINE
  5
482
330
15
100
AcDbEntity
  8
4
100
AcDbLine
 10
712.1124050441805
 20
130.613075326781
 30
0.0
 11
712.1124050441805
 21
123.613075326781
 31
0.0
  0
LINE
  5
489
330
15
100
AcDbEntity
  8
L-CENTER
 48
2.0
100
AcDbLine
 10
689.0658380698002
 20
113.613075326781
 30
0.0
 11
728.1589720185601
 21
113.613075326781
 31
0.0
  0
LINE
  5
4EA
330
15
100
AcDbEntity
  8
4
100
AcDbLine
 10
117.9887757567107
 20
422.754163489913
 30
0.0
 11
88.98877575671065
 21
422.754163489913
 31
0.0
  0
LINE
  5
4EB
330
15
100
AcDbEntity
  8
4
100
AcDbLine
 10
112.9887757567107
 20
418.254163489913
 30
0.0
 11
88.48877575671065
 21
418.254163489913
 31
0.0
  0
LINE
  5
4EC
330
15
100
AcDbEntity
  8
4
100
AcDbLine
 10
112.9887757567107
 20
413.254163489913
 30
0.0
 11
88.48877575671065
 21
413.254163489913
 31
0.0
  0
LINE
  5
4ED
330
15
100
AcDbEntity
  8
4
100
AcDbLine
 10
117.9887757567107
 20
408.754163489913
 30
0.0
 11
88.98877575671065
 21
408.754163489913
 31
0.0
  0
ARC
  5
4EE
330
15
100
AcDbEntity
  8
4
100
AcDbCircle
 10
112.9887757567107
 20
415.754163489913
 30
0.0
 40
2.5
100
AcDbArc
 50
270.0
 51
90.0
  0
LINE
  5
4EF
330
15
100
AcDbEntity
  8
4
100
AcDbLine
 10
118.4887757567107
 20
423.254163489913
 30
0.0
 11
118.4887757567107
 21
408.254163489913
 31
0.0
  0
ARC
  5
4F0
330
15
100
AcDbEntity
  8
4
100
AcDbCircle
 10
117.9887757567107
 20
408.254163489913
 30
0.0
 40
0.5
100
AcDbArc
 50
0.0
 51
90.0
  0
ARC
  5
4F1
330
15
100
AcDbEntity
  8
4
100
AcDbCircle
 10
117.9887757567107
 20
423.254163489913
 30
0.0
 40
0.5
100
AcDbArc
 50
270.0
 51
0.0
  0
LINE
  5
4F2
330
15
100
AcDbEntity
  8
4
100
AcDbLine
 10
88.48877575671065
 20
422.254163489913
 30
0.0
 11
88.48877575671065
 21
409.254163489913
 31
0.0
  0
LINE
  5
4F3
330
15
100
AcDbEntity
  8
4
100
AcDbLine
 10
88.48877575671065
 20
409.254163489913
 30
0.0
 11
88.98877575671065
 21
408.754163489913
 31
0.0
  0
LINE
  5
4F4
330
15
100
AcDbEntity
  8
4
100
AcDbLine
 10
88.98877575671065
 20
413.254163489913
 30
0.0
 11
88.98877575671065
 21
408.754163489913
 31
0.0
  0
LINE
  5
4F5
330
15
100
AcDbEntity
  8
4
100
AcDbLine
 10
88.48877575671065
 20
422.254163489913
 30
0.0
 11
88.98877575671065
 21
422.754163489913
 31
0.0
  0
LINE
  5
4F6
330
15
100
AcDbEntity
  8
4
100
AcDbLine
 10
88.98877575671065
 20
422.754163489913
 30
0.0
 11
88.98877575671065
 21
418.254163489913
 31
0.0
  0
LINE
  5
4F7
330
15
100
AcDbEntity
  8
4
100
AcDbLine
 10
128.0028982567109
 20
423.2541634899131
 30
0.0
 11
118.4887757567107
 21
423.2541634899131
 31
0.0
  0
LINE
  5
4F8
330
15
100
AcDbEntity
  8
4
100
AcDbLine
 10
128.0028982567109
 20
408.2541634899131
 30
0.0
 11
118.4887757567107
 21
408.2541634899131
 31
0.0
  0
LINE
  5
4FA
330
15
100
AcDbEntity
  8
4
100
AcDbLine
 10
119.0028982567109
 20
77.61325832678097
 30
0.0
 11
89.5028977567107
 21
77.61325832678097
 31
0.0
  0
LINE
  5
4FB
330
15
100
AcDbEntity
  8
4
100
AcDbLine
 10
89.00289825671086
 20
79.61325782678097
 30
0.0
 11
116.0028982567109
 21
79.61325782678097
 31
0.0
  0
LINE
  5
4FC
330
15
100
AcDbEntity
  8
4
100
AcDbLine
 10
119.0028982567109
 20
63.61325882678096
 30
0.0
 11
89.5028977567107
 21
63.61325882678096
 31
0.0
  0
LINE
  5
4FD
330
15
100
AcDbEntity
  8
4
100
AcDbLine
 10
128.0028982567109
 20
78.11325782678097
 30
0.0
 11
119.0028982567109
 21
78.11325782678097
 31
0.0
  0
LINE
  5
4FE
330
15
100
AcDbEntity
  8
4
100
AcDbLine
 10
128.0028982567109
 20
63.11325782678097
 30
0.0
 11
119.0028982567109
 21
63.11325782678097
 31
0.0
  0
LINE
  5
4FF
330
15
100
AcDbEntity
  8
4
100
AcDbLine
 10
119.0028982567109
 20
78.11325782678097
 30
0.0
 11
119.0028982567109
 21
63.11325782678097
 31
0.0
  0
LINE
  5
500
330
15
100
AcDbEntity
  8
4
100
AcDbLine
 10
116.0028982567109
 20
79.61325782678097
 30
0.0
 11
116.0028982567109
 21
77.61325832678097
 31
0.0
  0
LINE
  5
501
330
15
100
AcDbEntity
  8
4
100
AcDbLine
 10
89.00289825671086
 20
79.61325782678097
 30
0.0
 11
89.00289825671086
 21
64.11325832678097
 31
0.0
  0
LINE
  5
502
330
15
100
AcDbEntity
  8
4
100
AcDbLine
 10
89.5028977567107
 20
77.61325832678097
 30
0.0
 11
89.5028977567107
 21
63.61325882678096
 31
0.0
  0
LINE
  5
503
330
15
100
AcDbEntity
  8
4
100
AcDbLine
 10
89.5028977567107
 20
63.61325882678096
 30
0.0
 11
89.00289825671086
 21
64.11325832678097
 31
0.0
  0
LINE
  5
504
330
15
100
AcDbEntity
  8
4
100
AcDbLine
 10
89.00289825671086
 20
77.11325882678096
 30
0.0
 11
89.5028977567107
 21
77.61325832678097
 31
0.0
  0
ENDSEC
  0
SECTION
  2
OBJECTS
  0
DICTIONARY
  5
5
330
0
100
AcDbDictionary
281
     1
  3
ACAD_COLOR
350
28
  3
ACAD_GROUP
350
26
  3
ACAD_LAYOUT
350
1C
  3
ACAD_MATERIAL
350
7
  3
ACAD_MLEADERSTYLE
350
49A
  3
ACAD_MLINESTYLE
350
13
  3
ACAD_PLOTSETTINGS
350
27
  3
ACAD_PLOTSTYLENAME
350
4
  3
ACAD_SCALELIST
350
2D
  3
ACAD_TABLESTYLE
350
499
  3
ACAD_VISUALSTYLE
350
29
  3
ACDBHEADERROUNDTRIPXREC
350
520
  3
AcDbVariableDictionary
350
497
  3
DWGPROPS
350
523
  0
DICTIONARY
  5
524
330
25
100
AcDbDictionary
280
     1
281
     1
  3
ACAD_XREC_ROUNDTRIP
360
525
  0
DICTIONARY
  5
378
330
377
100
AcDbDictionary
280
     1
281
     1
  3
ADSK_XREC_LAYER_RECONCILED
360
379
  0
DICTIONARY
  5
16
330
15
100
AcDbDictionary
280
     1
281
     1
  3
ACAD_SORTENTS
360
17
  0
DICTIONARY
  5
28
102
{ACAD_REACTORS
330
5
102
}
330
5
100
AcDbDictionary
281
     1
  0
DICTIONARY
  5
26
102
{ACAD_REACTORS
330
5
102
}
330
5
100
AcDbDictionary
281
     1
  0
DICTIONARY
  5
1C
102
{ACAD_REACTORS
330
5
102
}
330
5
100
AcDbDictionary
281
     1
  3
Model
350
1B
  3
ﾚｲｱｳﾄ1
350
22
  0
DICTIONARY
  5
7
102
{ACAD_REACTORS
330
5
102
}
330
5
100
AcDbDictionary
281
     1
  3
ByBlock
350
70
  3
ByLayer
350
E
  3
Global
350
6
  0
DICTIONARY
  5
49A
102
{ACAD_REACTORS
330
5
102
}
330
5
100
AcDbDictionary
281
     1
  3
Standard
350
4B5
  0
DICTIONARY
  5
13
102
{ACAD_REACTORS
330
5
102
}
330
5
100
AcDbDictionary
281
     1
  3
STANDARD
350
12
  0
DICTIONARY
  5
27
102
{ACAD_REACTORS
330
5
102
}
330
5
100
AcDbDictionary
281
     1
  0
ACDBDICTIONARYWDFLT
  5
4
102
{ACAD_REACTORS
330
5
102
}
330
5
100
AcDbDictionary
281
     1
  3
Normal
350
3
100
AcDbDictionaryWithDefault
340
3
  0
DICTIONARY
  5
2D
102
{ACAD_REACTORS
330
5
102
}
330
5
100
AcDbDictionary
281
     1
  3
*A1
350
4F
  3
*A10
350
58
  3
*A11
350
59
  3
*A12
350
5A
  3
*A13
350
5B
  3
*A14
350
5C
  3
*A15
350
5D
  3
*A16
350
5E
  3
*A17
350
5F
  3
*A18
350
60
  3
*A19
350
61
  3
*A2
350
50
  3
*A20
350
62
  3
*A21
350
63
  3
*A22
350
64
  3
*A23
350
65
  3
*A24
350
66
  3
*A25
350
67
  3
*A26
350
68
  3
*A27
350
69
  3
*A28
350
6A
  3
*A29
350
6B
  3
*A3
350
51
  3
*A30
350
6C
  3
*A31
350
6D
  3
*A32
350
6E
  3
*A33
350
6F
  3
*A4
350
52
  3
*A5
350
53
  3
*A6
350
54
  3
*A7
350
55
  3
*A8
350
56
  3
*A9
350
57
  0
DICTIONARY
  5
499
102
{ACAD_REACTORS
330
5
102
}
330
5
100
AcDbDictionary
281
     1
  3
Standard
350
51C
  0
DICTIONARY
  5
29
102
{ACAD_REACTORS
330
5
102
}
330
5
100
AcDbDictionary
281
     1
  3
2dWireframe
350
4A1
  3
Basic
350
4A4
  3
Brighten
350
4A8
  3
ColorChange
350
4AC
  3
Conceptual
350
4A6
  3
Dim
350
4A7
  3
EdgeColorOff
350
4AF
  3
Facepattern
350
4AB
  3
Flat
350
49D
  3
FlatWithEdges
350
49E
  3
Gouraud
350
49F
  3
GouraudWithEdges
350
4A0
  3
Hidden
350
4A3
  3
JitterOff
350
4AD
  3
Linepattern
350
4AA
  3
OverhangOff
350
4AE
  3
Realistic
350
4A5
  3
Shaded
350
4B4
  3
Shaded with edges
350
4B3
  3
Shades of Gray
350
4B0
  3
Sketchy
350
4B1
  3
Thicken
350
4A9
  3
Wireframe
350
4A2
  3
X-Ray
350
4B2
  0
DICTIONARY
  5
520
102
{ACAD_REACTORS
330
5
102
}
330
5
100
AcDbDictionary
281
     1
  3
COLORDICT
350
521
  3
MATERIALDICT
350
522
  0
DICTIONARY
  5
497
102
{ACAD_REACTORS
330
5
102
}
330
5
100
AcDbDictionary
281
     1
  3
CANNOSCALE
350
498
  3
CMLEADERSTYLE
350
4B7
  3
CTABLESTYLE
350
51D
  3
DIMASSOC
350
51E
  3
HIDETEXT
350
51F
  3
MSLTSCALE
350
526
  0
XRECORD
  5
523
102
{ACAD_REACTORS
330
5
102
}
330
5
100
AcDbXrecord
280
     1
  1
DWGPROPS COOKIE
  2

  3

  4

  6

  7

  8
sg-d04
  9

300
=
301
=
302
=
303
=
304
=
305
=
306
=
307
=
308
=
309
=
 40
0.0
 41
2449812.756805555
 42
2457906.017183183
  1

 90
        0
  0
XRECORD
  5
525
102
{ACAD_REACTORS
330
524
102
}
330
524
100
AcDbXrecord
280
     1
102
VTR_0.000_0.000_1.000_1.000_VISUALSTYLE
340
4A1
102
VTR_0.000_0.000_1.000_1.000_GRIDDISPLAY
 70
     3
102
VTR_0.000_0.000_1.000_1.000_GRIDMAJOR
 70
     5
102
VTR_0.000_0.000_1.000_1.000_DEFAULTLIGHTING
280
     1
102
VTR_0.000_0.000_1.000_1.000_DEFAULTLIGHTINGTYPE
 70
     1
102
VTR_0.000_0.000_1.000_1.000_BRIGHTNESS
141
0.0
102
VTR_0.000_0.000_1.000_1.000_CONTRAST
142
0.0
  0
XRECORD
  5
379
102
{ACAD_REACTORS
330
378
102
}
330
378
100
AcDbXrecord
280
     1
290
     1
  0
SORTENTSTABLE
  5
17
102
{ACAD_REACTORS
330
16
102
}
330
16
100
AcDbSortentsTable
330
15
  0
LAYOUT
  5
1B
102
{ACAD_REACTORS
330
1C
102
}
330
1C
100
AcDbPlotSettings
  1

  2
Bullzip PDF Printer.pc3
  4
A3
  6

 40
0.2
 41
0.0
 42
0.0
 43
0.0
 44
420.2
 45
297.1
 46
25.0
 47
12.0
 48
39.99999990666663
 49
0.0
140
803.9999981566667
141
544.9999987283333
142
1.0
143
2.0
 70
 11936
 72
     1
 73
     0
 74
     4
  7
monochrome.ctb
 75
     0
147
1.0
148
-39.99999990666663
149
0.0
100
AcDbLayout
  1
Model
 70
     0
 71
     0
 10
0.0
 20
0.0
 11
12.0
 21
9.0
 12
0.0
 22
0.0
 32
0.0
 14
84.3441139029593
 24
14.61325832678097
 34
0.0
 15
728.1589720185601
 25
544.0508090271252
 35
0.0
146
0.0
 13
0.0
 23
0.0
 33
0.0
 16
1.0
 26
0.0
 36
0.0
 17
0.0
 27
1.0
 37
0.0
 76
     0
330
15
331
2B
1001
ACAD_PSEXT
1000
Bullzip PDF Printer.pc3
1000
Bullzip PDF Printer
1000
BULLZIP
1000
Bullzip PDF Printer 10.1.0.1871
1070
     0
  0
LAYOUT
  5
22
102
{ACAD_REACTORS
330
1C
102
}
330
1C
100
AcDbPlotSettings
  1

  2
SR-LP8300F
  4

  6

 40
0.0
 41
0.0
 42
0.0
 43
0.0
 44
0.0
 45
0.0
 46
0.0
 47
0.0
 48
0.0
 49
0.0
140
0.0
141
0.0
142
1.0
143
1.0
 70
   688
 72
     0
 73
     0
 74
     5
  7
monochrome.ctb
 75
    16
147
1.0
148
0.0
149
0.0
100
AcDbLayout
  1
ﾚｲｱｳﾄ1
 70
     0
 71
     1
 10
0.0
 20
0.0
 11
12.0
 21
9.0
 12
0.0
 22
0.0
 32
0.0
 14
1.000000000000000E+20
 24
1.000000000000000E+20
 34
1.000000000000000E+20
 15
-1.000000000000000E+20
 25
-1.000000000000000E+20
 35
-1.000000000000000E+20
146
0.0
 13
0.0
 23
0.0
 33
0.0
 16
1.0
 26
0.0
 36
0.0
 17
0.0
 27
1.0
 37
0.0
 76
     0
330
1F
  0
MATERIAL
  5
70
102
{ACAD_REACTORS
330
7
102
}
102
{ACAD_XDICTIONARY
360
52B
102
}
330
7
100
AcDbMaterial
  1
ByBlock
  0
MATERIAL
  5
E
102
{ACAD_REACTORS
330
7
102
}
102
{ACAD_XDICTIONARY
360
527
102
}
330
7
100
AcDbMaterial
  1
ByLayer
  0
MATERIAL
  5
6
102
{ACAD_REACTORS
330
7
102
}
102
{ACAD_XDICTIONARY
360
529
102
}
330
7
100
AcDbMaterial
  1
Global
  0
MLEADERSTYLE
  5
4B5
102
{ACAD_REACTORS
330
49A
102
}
102
{ACAD_XDICTIONARY
360
55D
102
}
330
49A
100
AcDbMLeaderStyle
170
     2
171
     1
172
     0
 90
        2
 40
0.0
 41
0.0
173
     1
 91
-1056964608
340
B
 92
       -2
290
     1
 42
0.09
291
     1
 43
0.36
  3
Standard
341
0
 44
0.18
300

342
C
174
     1
178
     6
175
     1
176
     0
 93
-1056964608
 45
0.18
292
     0
297
     0
 46
0.18
343
0
 94
-1056964608
 47
1.0
 49
1.0
140
1.0
293
     1
141
0.0
294
     1
177
     0
142
1.0
295
     0
296
     0
143
0.125
1001
ACAD_MLEADERVER
1070
     2
  0
MLINESTYLE
  5
12
102
{ACAD_REACTORS
330
13
102
}
330
13
100
AcDbMlineStyle
  2
STANDARD
 70
     0
  3

 62
     0
 51
90.0
 52
90.0
 71
     2
 49
0.5
 62
   256
  6
BYLAYER
 49
-0.5
 62
   256
  6
BYLAYER
  0
ACDBPLACEHOLDER
  5
3
102
{ACAD_REACTORS
330
4
102
}
330
4
  0
SCALE
  5
4F
102
{ACAD_REACTORS
330
2D
102
}
330
2D
100
AcDbScale
 70
     0
300
1:1
140
1.0
141
1.0
290
     1
  0
SCALE
  5
58
102
{ACAD_REACTORS
330
2D
102
}
330
2D
100
AcDbScale
 70
     0
300
1:40
140
1.0
141
40.0
290
     0
  0
SCALE
  5
59
102
{ACAD_REACTORS
330
2D
102
}
330
2D
100
AcDbScale
 70
     0
300
1:50
140
1.0
141
50.0
290
     0
  0
SCALE
  5
5A
102
{ACAD_REACTORS
330
2D
102
}
330
2D
100
AcDbScale
 70
     0
300
1:100
140
1.0
141
100.0
290
     0
  0
SCALE
  5
5B
102
{ACAD_REACTORS
330
2D
102
}
330
2D
100
AcDbScale
 70
     0
300
2:1
140
2.0
141
1.0
290
     0
  0
SCALE
  5
5C
102
{ACAD_REACTORS
330
2D
102
}
330
2D
100
AcDbScale
 70
     0
300
4:1
140
4.0
141
1.0
290
     0
  0
SCALE
  5
5D
102
{ACAD_REACTORS
330
2D
102
}
330
2D
100
AcDbScale
 70
     0
300
8:1
140
8.0
141
1.0
290
     0
  0
SCALE
  5
5E
102
{ACAD_REACTORS
330
2D
102
}
330
2D
100
AcDbScale
 70
     0
300
10:1
140
10.0
141
1.0
290
     0
  0
SCALE
  5
5F
102
{ACAD_REACTORS
330
2D
102
}
330
2D
100
AcDbScale
 70
     0
300
100:1
140
100.0
141
1.0
290
     0
  0
SCALE
  5
60
102
{ACAD_REACTORS
330
2D
102
}
330
2D
100
AcDbScale
 70
     0
300
1/128" = 1'-0"
140
0.0078125
141
12.0
290
     0
  0
SCALE
  5
61
102
{ACAD_REACTORS
330
2D
102
}
330
2D
100
AcDbScale
 70
     0
300
1/64" = 1'-0"
140
0.015625
141
12.0
290
     0
  0
SCALE
  5
50
102
{ACAD_REACTORS
330
2D
102
}
330
2D
100
AcDbScale
 70
     0
300
1:2
140
1.0
141
2.0
290
     0
  0
SCALE
  5
62
102
{ACAD_REACTORS
330
2D
102
}
330
2D
100
AcDbScale
 70
     0
300
1/32" = 1'-0"
140
0.03125
141
12.0
290
     0
  0
SCALE
  5
63
102
{ACAD_REACTORS
330
2D
102
}
330
2D
100
AcDbScale
 70
     0
300
1/16" = 1'-0"
140
0.0625
141
12.0
290
     0
  0
SCALE
  5
64
102
{ACAD_REACTORS
330
2D
102
}
330
2D
100
AcDbScale
 70
     0
300
3/32" = 1'-0"
140
0.09375
141
12.0
290
     0
  0
SCALE
  5
65
102
{ACAD_REACTORS
330
2D
102
}
330
2D
100
AcDbScale
 70
     0
300
1/8" = 1'-0"
140
0.125
141
12.0
290
     0
  0
SCALE
  5
66
102
{ACAD_REACTORS
330
2D
102
}
330
2D
100
AcDbScale
 70
     0
300
3/16" = 1'-0"
140
0.1875
141
12.0
290
     0
  0
SCALE
  5
67
102
{ACAD_REACTORS
330
2D
102
}
330
2D
100
AcDbScale
 70
     0
300
1/4" = 1'-0"
140
0.25
141
12.0
290
     0
  0
SCALE
  5
68
102
{ACAD_REACTORS
330
2D
102
}
330
2D
100
AcDbScale
 70
     0
300
3/8" = 1'-0"
140
0.375
141
12.0
290
     0
  0
SCALE
  5
69
102
{ACAD_REACTORS
330
2D
102
}
330
2D
100
AcDbScale
 70
     0
300
1/2" = 1'-0"
140
0.5
141
12.0
290
     0
  0
SCALE
  5
6A
102
{ACAD_REACTORS
330
2D
102
}
330
2D
100
AcDbScale
 70
     0
300
3/4" = 1'-0"
140
0.75
141
12.0
290
     0
  0
SCALE
  5
6B
102
{ACAD_REACTORS
330
2D
102
}
330
2D
100
AcDbScale
 70
     0
300
1" = 1'-0"
140
1.0
141
12.0
290
     0
  0
SCALE
  5
51
102
{ACAD_REACTORS
330
2D
102
}
330
2D
100
AcDbScale
 70
     0
300
1:4
140
1.0
141
4.0
290
     0
  0
SCALE
  5
6C
102
{ACAD_REACTORS
330
2D
102
}
330
2D
100
AcDbScale
 70
     0
300
1-1/2" = 1'-0"
140
1.5
141
12.0
290
     0
  0
SCALE
  5
6D
102
{ACAD_REACTORS
330
2D
102
}
330
2D
100
AcDbScale
 70
     0
300
3" = 1'-0"
140
3.0
141
12.0
290
     0
  0
SCALE
  5
6E
102
{ACAD_REACTORS
330
2D
102
}
330
2D
100
AcDbScale
 70
     0
300
6" = 1'-0"
140
6.0
141
12.0
290
     0
  0
SCALE
  5
6F
102
{ACAD_REACTORS
330
2D
102
}
330
2D
100
AcDbScale
 70
     0
300
1'-0" = 1'-0"
140
12.0
141
12.0
290
     0
  0
SCALE
  5
52
102
{ACAD_REACTORS
330
2D
102
}
330
2D
100
AcDbScale
 70
     0
300
1:5
140
1.0
141
5.0
290
     0
  0
SCALE
  5
53
102
{ACAD_REACTORS
330
2D
102
}
330
2D
100
AcDbScale
 70
     0
300
1:8
140
1.0
141
8.0
290
     0
  0
SCALE
  5
54
102
{ACAD_REACTORS
330
2D
102
}
330
2D
100
AcDbScale
 70
     0
300
1:10
140
1.0
141
10.0
290
     0
  0
SCALE
  5
55
102
{ACAD_REACTORS
330
2D
102
}
330
2D
100
AcDbScale
 70
     0
300
1:16
140
1.0
141
16.0
290
     0
  0
SCALE
  5
56
102
{ACAD_REACTORS
330
2D
102
}
330
2D
100
AcDbScale
 70
     0
300
1:20
140
1.0
141
20.0
290
     0
  0
SCALE
  5
57
102
{ACAD_REACTORS
330
2D
102
}
330
2D
100
AcDbScale
 70
     0
300
1:30
140
1.0
141
30.0
290
     0
  0
TABLESTYLE
  5
51C
102
{ACAD_REACTORS
330
499
102
}
330
499
100
AcDbTableStyle
  3
Standard
 70
     0
 71
     0
 40
0.06
 41
0.06
280
     0
281
     0
  7
STANDARD
140
0.18
170
     2
 62
     0
 63
   257
283
     0
274
    -2
284
     1
 64
     0
275
    -2
285
     1
 65
     0
276
    -2
286
     1
 66
     0
277
    -2
287
     1
 67
     0
278
    -2
288
     1
 68
     0
279
    -2
289
     1
 69
     0
  7
STANDARD
140
0.25
170
     5
 62
     0
 63
   257
283
     0
274
    -2
284
     1
 64
     0
275
    -2
285
     1
 65
     0
276
    -2
286
     1
 66
     0
277
    -2
287
     1
 67
     0
278
    -2
288
     1
 68
     0
279
    -2
289
     1
 69
     0
  7
STANDARD
140
0.18
170
     5
 62
     0
 63
   257
283
     0
274
    -2
284
     1
 64
     0
275
    -2
285
     1
 65
     0
276
    -2
286
     1
 66
     0
277
    -2
287
     1
 67
     0
278
    -2
288
     1
 68
     0
279
    -2
289
     1
 69
     0
  0
VISUALSTYLE
  5
4A1
102
{ACAD_REACTORS
330
29
102
}
102
{ACAD_XDICTIONARY
360
535
102
}
330
29
100
AcDbVisualStyle
  2
2dWireframe
 70
     4
 71
     0
 72
     2
 73
     0
 90
        0
 40
0.6
 41
30.0
 62
     5
 63
     7
 74
     1
 91
        4
 64
     7
 65
   257
 75
     1
175
     1
 42
1.0
 92
        0
 66
   257
 43
1.0
 76
     1
 77
     6
 78
     2
 67
     7
 79
     5
170
     0
171
     0
290
     0
174
     0
 93
        1
 44
0.0
173
     0
291
     0
 45
0.0
1001
ACAD
1000
AcDbSavedByObjectVersion
1070
     0
  0
VISUALSTYLE
  5
4A4
102
{ACAD_REACTORS
330
29
102
}
102
{ACAD_XDICTIONARY
360
53B
102
}
330
29
100
AcDbVisualStyle
  2
Basic
 70
     7
 71
     1
 72
     0
 73
     1
 90
        0
 40
0.6
 41
30.0
 62
     5
 63
     7
 74
     0
 91
        4
 64
     7
 65
   257
 75
     1
175
     1
 42
1.0
 92
        8
 66
     7
 43
1.0
 76
     1
 77
     6
 78
     2
 67
     7
 79
     5
170
     0
171
     0
290
     0
174
     0
 93
        1
 44
0.0
173
     0
291
     1
 45
0.0
1001
ACAD
1000
AcDbSavedByObjectVersion
1070
     0
  0
VISUALSTYLE
  5
4A8
102
{ACAD_REACTORS
330
29
102
}
102
{ACAD_XDICTIONARY
360
543
102
}
330
29
100
AcDbVisualStyle
  2
Brighten
 70
    12
 71
     2
 72
     2
 73
     0
 90
        0
 40
0.6
 41
30.0
 62
     5
 63
     7
 74
     1
 91
        4
 64
     7
 65
   257
 75
     1
175
     1
 42
1.0
 92
        8
 66
     7
 43
1.0
 76
     1
 77
     6
 78
     2
 67
     7
 79
     5
170
     0
171
     0
290
     0
174
     0
 93
        1
 44
50.0
173
     0
291
     1
 45
0.0
1001
ACAD
1000
AcDbSavedByObjectVersion
1070
     0
  0
VISUALSTYLE
  5
4AC
102
{ACAD_REACTORS
330
29
102
}
102
{ACAD_XDICTIONARY
360
54B
102
}
330
29
100
AcDbVisualStyle
  2
ColorChange
 70
    16
 71
     2
 72
     2
 73
     3
 90
        0
 40
0.6
 41
30.0
 62
     5
 63
     8
 74
     1
 91
        4
 64
     7
 65
   257
 75
     1
175
     1
 42
1.0
 92
        8
 66
     8
 43
1.0
 76
     1
 77
     6
 78
     2
 67
     7
 79
     5
170
     0
171
     0
290
     0
174
     0
 93
        1
 44
0.0
173
     0
291
     1
 45
0.0
1001
ACAD
1000
AcDbSavedByObjectVersion
1070
     0
  0
VISUALSTYLE
  5
4A6
102
{ACAD_REACTORS
330
29
102
}
102
{ACAD_XDICTIONARY
360
53F
102
}
330
29
100
AcDbVisualStyle
  2
Conceptual
 70
     9
 71
     3
 72
     2
 73
     0
 90
        0
 40
0.6
 41
30.0
 62
     5
 63
     7
 74
     2
 91
        2
 64
     7
 65
   257
 75
     1
175
     1
 42
40.0
 92
        8
 66
     7
 43
1.0
 76
     1
 77
     6
 78
     2
 67
     7
 79
     3
170
     0
171
     0
290
     0
174
     0
 93
        1
 44
0.0
173
     0
291
     0
 45
0.0
1001
ACAD
1000
AcDbSavedByObjectVersion
1070
     0
  0
VISUALSTYLE
  5
4A7
102
{ACAD_REACTORS
330
29
102
}
102
{ACAD_XDICTIONARY
360
541
102
}
330
29
100
AcDbVisualStyle
  2
Dim
 70
    11
 71
     2
 72
     2
 73
     0
 90
        0
 40
0.6
 41
30.0
 62
     5
 63
     7
 74
     1
 91
        4
 64
     7
 65
   257
 75
     1
175
     1
 42
1.0
 92
        8
 66
     7
 43
1.0
 76
     1
 77
     6
 78
     2
 67
     7
 79
     5
170
     0
171
     0
290
     0
174
     0
 93
        1
 44
-50.0
173
     0
291
     1
 45
0.0
1001
ACAD
1000
AcDbSavedByObjectVersion
1070
     0
  0
VISUALSTYLE
  5
4AF
102
{ACAD_REACTORS
330
29
102
}
102
{ACAD_XDICTIONARY
360
551
102
}
330
29
100
AcDbVisualStyle
  2
EdgeColorOff
 70
    22
 71
     2
 72
     2
 73
     0
 90
        0
 40
0.6
 41
30.0
 62
     5
 63
     7
 74
     1
 91
        4
 64
     7
 65
   257
 75
     1
175
     1
 42
1.0
 92
        8
 66
     7
 43
1.0
 76
     1
 77
     6
 78
     2
 67
     7
 79
     5
170
     0
171
     0
290
     0
174
     0
 93
        1
 44
0.0
173
     0
291
     1
 45
0.0
1001
ACAD
1000
AcDbSavedByObjectVersion
1070
     0
  0
VISUALSTYLE
  5
4AB
102
{ACAD_REACTORS
330
29
102
}
102
{ACAD_XDICTIONARY
360
549
102
}
330
29
100
AcDbVisualStyle
  2
Facepattern
 70
    15
 71
     2
 72
     2
 73
     0
 90
        0
 40
0.6
 41
30.0
 62
     5
 63
     7
 74
     1
 91
        4
 64
     7
 65
   257
 75
     1
175
     1
 42
1.0
 92
        8
 66
     7
 43
1.0
 76
     1
 77
     6
 78
     2
 67
     7
 79
     5
170
     0
171
     0
290
     0
174
     0
 93
        1
 44
0.0
173
     0
291
     1
 45
0.0
1001
ACAD
1000
AcDbSavedByObjectVersion
1070
     0
  0
VISUALSTYLE
  5
49D
102
{ACAD_REACTORS
330
29
102
}
102
{ACAD_XDICTIONARY
360
52D
102
}
330
29
100
AcDbVisualStyle
  2
Flat
 70
     0
 71
     2
 72
     1
 73
     1
 90
        2
 40
0.6
 41
30.0
 62
     5
 63
     7
 74
     0
 91
        4
 64
     7
 65
   257
 75
     1
175
     1
 42
1.0
 92
        8
 66
     7
 43
1.0
 76
     1
 77
     6
 78
     2
 67
     7
 79
     5
170
     0
171
     0
290
     0
174
     0
 93
       13
 44
0.0
173
     0
291
     1
 45
0.0
1001
ACAD
1000
AcDbSavedByObjectVersion
1070
     0
  0
VISUALSTYLE
  5
49E
102
{ACAD_REACTORS
330
29
102
}
102
{ACAD_XDICTIONARY
360
52F
102
}
330
29
100
AcDbVisualStyle
  2
FlatWithEdges
 70
     1
 71
     2
 72
     1
 73
     1
 90
        2
 40
0.6
 41
30.0
 62
     5
 63
     7
 74
     1
 91
        4
 64
     7
 65
   257
 75
     1
175
     1
 42
1.0
 92
        0
 66
   257
 43
1.0
 76
     1
 77
     6
 78
     2
 67
     7
 79
     5
170
     0
171
     0
290
     0
174
     0
 93
       13
 44
0.0
173
     0
291
     1
 45
0.0
1001
ACAD
1000
AcDbSavedByObjectVersion
1070
     0
  0
VISUALSTYLE
  5
49F
102
{ACAD_REACTORS
330
29
102
}
102
{ACAD_XDICTIONARY
360
531
102
}
330
29
100
AcDbVisualStyle
  2
Gouraud
 70
     2
 71
     2
 72
     2
 73
     1
 90
        2
 40
0.6
 41
30.0
 62
     5
 63
     7
 74
     0
 91
        4
 64
     7
 65
   257
 75
     1
175
     1
 42
1.0
 92
        0
 66
     7
 43
1.0
 76
     1
 77
     6
 78
     2
 67
     7
 79
     5
170
     0
171
     0
290
     0
174
     0
 93
       13
 44
0.0
173
     0
291
     1
 45
0.0
1001
ACAD
1000
AcDbSavedByObjectVersion
1070
     0
  0
VISUALSTYLE
  5
4A0
102
{ACAD_REACTORS
330
29
102
}
102
{ACAD_XDICTIONARY
360
533
102
}
330
29
100
AcDbVisualStyle
  2
GouraudWithEdges
 70
     3
 71
     2
 72
     2
 73
     1
 90
        2
 40
0.6
 41
30.0
 62
     5
 63
     7
 74
     1
 91
        4
 64
     7
 65
   257
 75
     1
175
     1
 42
1.0
 92
        0
 66
   257
 43
1.0
 76
     1
 77
     6
 78
     2
 67
     7
 79
     5
170
     0
171
     0
290
     0
174
     0
 93
       13
 44
0.0
173
     0
291
     1
 45
0.0
1001
ACAD
1000
AcDbSavedByObjectVersion
1070
     0
  0
VISUALSTYLE
  5
4A3
102
{ACAD_REACTORS
330
29
102
}
102
{ACAD_XDICTIONARY
360
539
102
}
330
29
100
AcDbVisualStyle
  2
Hidden
 70
     6
 71
     1
 72
     2
 73
     2
 90
        0
 40
0.6
 41
30.0
 62
     5
 63
     7
 74
     2
 91
        2
 64
     7
 65
   257
 75
     2
175
     1
 42
40.0
 92
        0
 66
   257
 43
1.0
 76
     1
 77
     6
 78
     2
 67
     7
 79
     3
170
     0
171
     0
290
     0
174
     0
 93
        1
 44
0.0
173
     0
291
     0
 45
0.0
1001
ACAD
1000
AcDbSavedByObjectVersion
1070
     0
  0
VISUALSTYLE
  5
4AD
102
{ACAD_REACTORS
330
29
102
}
102
{ACAD_XDICTIONARY
360
54D
102
}
330
29
100
AcDbVisualStyle
  2
JitterOff
 70
    20
 71
     2
 72
     2
 73
     0
 90
        0
 40
0.6
 41
30.0
 62
     5
 63
     7
 74
     1
 91
        4
 64
     7
 65
   257
 75
     1
175
     1
 42
1.0
 92
       10
 66
     7
 43
1.0
 76
     1
 77
     6
 78
     2
 67
     7
 79
     5
170
     0
171
     0
290
     0
174
     0
 93
        1
 44
0.0
173
     0
291
     1
 45
0.0
1001
ACAD
1000
AcDbSavedByObjectVersion
1070
     0
  0
VISUALSTYLE
  5
4AA
102
{ACAD_REACTORS
330
29
102
}
102
{ACAD_XDICTIONARY
360
547
102
}
330
29
100
AcDbVisualStyle
  2
Linepattern
 70
    14
 71
     2
 72
     2
 73
     0
 90
        0
 40
0.6
 41
30.0
 62
     5
 63
     7
 74
     1
 91
        4
 64
     7
 65
   257
 75
     7
175
     7
 42
1.0
 92
        8
 66
     7
 43
1.0
 76
     1
 77
     6
 78
     2
 67
     7
 79
     5
170
     0
171
     0
290
     0
174
     0
 93
        1
 44
0.0
173
     0
291
     1
 45
0.0
1001
ACAD
1000
AcDbSavedByObjectVersion
1070
     0
  0
VISUALSTYLE
  5
4AE
102
{ACAD_REACTORS
330
29
102
}
102
{ACAD_XDICTIONARY
360
54F
102
}
330
29
100
AcDbVisualStyle
  2
OverhangOff
 70
    21
 71
     2
 72
     2
 73
     0
 90
        0
 40
0.6
 41
30.0
 62
     5
 63
     7
 74
     1
 91
        4
 64
     7
 65
   257
 75
     1
175
     1
 42
1.0
 92
        9
 66
     7
 43
1.0
 76
     1
 77
     6
 78
     2
 67
     7
 79
     5
170
     0
171
     0
290
     0
174
     0
 93
        1
 44
0.0
173
     0
291
     1
 45
0.0
1001
ACAD
1000
AcDbSavedByObjectVersion
1070
     0
  0
VISUALSTYLE
  5
4A5
102
{ACAD_REACTORS
330
29
102
}
102
{ACAD_XDICTIONARY
360
53D
102
}
330
29
100
AcDbVisualStyle
  2
Realistic
 70
     8
 71
     2
 72
     3
 73
     0
 90
        2
 40
0.6
 41
30.0
 62
     5
 63
     7
 74
     0
 91
        0
 64
     7
 65
   257
 75
     1
175
     1
 42
1.0
 92
        8
 66
   257
 43
1.0
 76
     1
 77
     6
 78
     2
 67
     7
 79
     3
170
     0
171
     0
290
     0
174
     0
 93
       13
 44
0.0
173
     0
291
     0
 45
0.0
1001
ACAD
1000
AcDbSavedByObjectVersion
1070
     0
  0
VISUALSTYLE
  5
4B4
102
{ACAD_REACTORS
330
29
102
}
102
{ACAD_XDICTIONARY
360
55B
102
}
330
29
100
AcDbVisualStyle
  2
Shaded
 70
    27
 71
     2
 72
     2
 73
     1
 90
        2
 40
0.6
 41
30.0
 62
     5
 63
     7
 74
     0
 91
        4
 64
     7
 65
   257
 75
     1
175
     1
 42
1.0
 92
        8
 66
   257
 43
1.0
 76
     1
 77
     6
 78
     2
 67
   251
 79
     3
170
     0
171
     0
290
     0
174
     0
 93
        5
 44
0.0
173
     0
291
     0
 45
0.0
1001
ACAD
1000
AcDbSavedByObjectVersion
1070
     0
  0
VISUALSTYLE
  5
4B3
102
{ACAD_REACTORS
330
29
102
}
102
{ACAD_XDICTIONARY
360
559
102
}
330
29
100
AcDbVisualStyle
  2
Shaded with edges
 70
    26
 71
     2
 72
     2
 73
     1
 90
        2
 40
0.6
 41
30.0
 62
     5
 63
     7
 74
     1
 91
       10
 64
     7
 65
   257
 75
     2
175
     1
 42
1.0
 92
        8
 66
   257
 43
1.0
 76
     1
 77
     6
 78
     2
 67
     7
 79
     3
170
     0
171
     0
290
     0
174
     0
 93
        5
 44
0.0
173
     0
291
     0
 45
0.0
1001
ACAD
1000
AcDbSavedByObjectVersion
1070
     0
  0
VISUALSTYLE
  5
4B0
102
{ACAD_REACTORS
330
29
102
}
102
{ACAD_XDICTIONARY
360
553
102
}
330
29
100
AcDbVisualStyle
  2
Shades of Gray
 70
    23
 71
     2
 72
     2
 73
     3
 90
        0
 40
0.6
 41
30.0
 62
     5
 63
     7
 74
     2
 91
        2
 64
     7
 65
     7
 75
     1
175
     1
 42
40.0
 92
        8
 66
     7
 43
1.0
 76
     1
 77
     6
 78
     2
 67
     7
 79
     3
170
     0
171
     0
290
     0
174
     0
 93
        1
 44
0.0
173
     0
291
     0
 45
0.0
1001
ACAD
1000
AcDbSavedByObjectVersion
1070
     0
  0
VISUALSTYLE
  5
4B1
102
{ACAD_REACTORS
330
29
102
}
102
{ACAD_XDICTIONARY
360
555
102
}
330
29
100
AcDbVisualStyle
  2
Sketchy
 70
    24
 71
     1
 72
     2
 73
     2
 90
        0
 40
0.6
 41
30.0
 62
     5
 63
     7
 74
     2
 91
        2
 64
     7
 65
     7
 75
     1
175
     1
 42
40.0
 92
       11
 66
     7
 43
1.0
 76
     1
 77
     6
 78
     2
 67
     7
 79
     6
170
     0
171
     0
290
     0
174
     0
 93
        1
 44
0.0
173
     0
291
     0
 45
0.0
1001
ACAD
1000
AcDbSavedByObjectVersion
1070
     0
  0
VISUALSTYLE
  5
4A9
102
{ACAD_REACTORS
330
29
102
}
102
{ACAD_XDICTIONARY
360
545
102
}
330
29
100
AcDbVisualStyle
  2
Thicken
 70
    13
 71
     2
 72
     2
 73
     0
 90
        0
 40
0.6
 41
30.0
 62
     5
 63
     7
 74
     1
 91
        4
 64
     7
 65
   257
 75
     1
175
     1
 42
1.0
 92
       12
 66
     7
 43
1.0
 76
     1
 77
     6
 78
     2
 67
     7
 79
     5
170
     0
171
     0
290
     0
174
     0
 93
        1
 44
0.0
173
     0
291
     1
 45
0.0
1001
ACAD
1000
AcDbSavedByObjectVersion
1070
     0
  0
VISUALSTYLE
  5
4A2
102
{ACAD_REACTORS
330
29
102
}
102
{ACAD_XDICTIONARY
360
537
102
}
330
29
100
AcDbVisualStyle
  2
Wireframe
 70
     5
 71
     0
 72
     2
 73
     0
 90
        0
 40
0.6
 41
30.0
 62
     5
 63
     7
 74
     1
 91
        4
 64
     7
 65
   257
 75
     1
175
     1
 42
1.0
 92
        0
 66
   257
 43
1.0
 76
     1
 77
     6
 78
     2
 67
     7
 79
     5
170
     0
171
     0
290
     0
174
     0
 93
        1
 44
0.0
173
     0
291
     0
 45
0.0
1001
ACAD
1000
AcDbSavedByObjectVersion
1070
     0
  0
VISUALSTYLE
  5
4B2
102
{ACAD_REACTORS
330
29
102
}
102
{ACAD_XDICTIONARY
360
557
102
}
330
29
100
AcDbVisualStyle
  2
X-Ray
 70
    25
 71
     2
 72
     2
 73
     1
 90
        1
 40
0.5
 41
30.0
 62
     5
 63
     7
 74
     1
 91
        0
 64
     7
 65
   257
 75
     1
175
     1
 42
1.0
 92
        8
 66
     7
 43
1.0
 76
     1
 77
     6
 78
     2
 67
     7
 79
     3
170
     0
171
     0
290
     0
174
     0
 93
       13
 44
0.0
173
     0
291
     0
 45
0.0
1001
ACAD
1000
AcDbSavedByObjectVersion
1070
     0
  0
XRECORD
  5
521
102
{ACAD_REACTORS
330
520
102
}
330
520
100
AcDbXrecord
280
     1
340
28
  0
XRECORD
  5
522
102
{ACAD_REACTORS
330
520
102
}
330
520
100
AcDbXrecord
280
     1
340
7
  0
DICTIONARYVAR
  5
498
102
{ACAD_REACTORS
330
497
102
}
330
497
100
DictionaryVariables
280
     0
  1
1:1
  0
DICTIONARYVAR
  5
4B7
102
{ACAD_REACTORS
330
497
102
}
330
497
100
DictionaryVariables
280
     0
  1
Standard
  0
DICTIONARYVAR
  5
51D
102
{ACAD_REACTORS
330
497
102
}
330
497
100
DictionaryVariables
280
     0
  1
Standard
  0
DICTIONARYVAR
  5
51E
102
{ACAD_REACTORS
330
497
102
}
330
497
100
DictionaryVariables
280
     0
  1
0
  0
DICTIONARYVAR
  5
51F
102
{ACAD_REACTORS
330
497
102
}
330
497
100
DictionaryVariables
280
     0
  1
1
  0
DICTIONARYVAR
  5
526
102
{ACAD_REACTORS
330
497
102
}
330
497
100
DictionaryVariables
280
     0
  1
1
  0
DICTIONARY
  5
52B
330
70
100
AcDbDictionary
280
     1
281
     1
  3
ACAD_XREC_ROUNDTRIP
360
52C
  0
DICTIONARY
  5
527
330
E
100
AcDbDictionary
280
     1
281
     1
  3
ACAD_XREC_ROUNDTRIP
360
528
  0
DICTIONARY
  5
529
330
6
100
AcDbDictionary
280
     1
281
     1
  3
ACAD_XREC_ROUNDTRIP
360
52A
  0
DICTIONARY
  5
55D
330
4B5
100
AcDbDictionary
280
     1
281
     1
  3
ACAD_XREC_ROUNDTRIP
360
55E
  0
DICTIONARY
  5
535
330
4A1
100
AcDbDictionary
280
     1
281
     1
  3
ACAD_XREC_ROUNDTRIP
360
536
  0
DICTIONARY
  5
53B
330
4A4
100
AcDbDictionary
280
     1
281
     1
  3
ACAD_XREC_ROUNDTRIP
360
53C
  0
DICTIONARY
  5
543
330
4A8
100
AcDbDictionary
280
     1
281
     1
  3
ACAD_XREC_ROUNDTRIP
360
544
  0
DICTIONARY
  5
54B
330
4AC
100
AcDbDictionary
280
     1
281
     1
  3
ACAD_XREC_ROUNDTRIP
360
54C
  0
DICTIONARY
  5
53F
330
4A6
100
AcDbDictionary
280
     1
281
     1
  3
ACAD_XREC_ROUNDTRIP
360
540
  0
DICTIONARY
  5
541
330
4A7
100
AcDbDictionary
280
     1
281
     1
  3
ACAD_XREC_ROUNDTRIP
360
542
  0
DICTIONARY
  5
551
330
4AF
100
AcDbDictionary
280
     1
281
     1
  3
ACAD_XREC_ROUNDTRIP
360
552
  0
DICTIONARY
  5
549
330
4AB
100
AcDbDictionary
280
     1
281
     1
  3
ACAD_XREC_ROUNDTRIP
360
54A
  0
DICTIONARY
  5
52D
330
49D
100
AcDbDictionary
280
     1
281
     1
  3
ACAD_XREC_ROUNDTRIP
360
52E
  0
DICTIONARY
  5
52F
330
49E
100
AcDbDictionary
280
     1
281
     1
  3
ACAD_XREC_ROUNDTRIP
360
530
  0
DICTIONARY
  5
531
330
49F
100
AcDbDictionary
280
     1
281
     1
  3
ACAD_XREC_ROUNDTRIP
360
532
  0
DICTIONARY
  5
533
330
4A0
100
AcDbDictionary
280
     1
281
     1
  3
ACAD_XREC_ROUNDTRIP
360
534
  0
DICTIONARY
  5
539
330
4A3
100
AcDbDictionary
280
     1
281
     1
  3
ACAD_XREC_ROUNDTRIP
360
53A
  0
DICTIONARY
  5
54D
330
4AD
100
AcDbDictionary
280
     1
281
     1
  3
ACAD_XREC_ROUNDTRIP
360
54E
  0
DICTIONARY
  5
547
330
4AA
100
AcDbDictionary
280
     1
281
     1
  3
ACAD_XREC_ROUNDTRIP
360
548
  0
DICTIONARY
  5
54F
330
4AE
100
AcDbDictionary
280
     1
281
     1
  3
ACAD_XREC_ROUNDTRIP
360
550
  0
DICTIONARY
  5
53D
330
4A5
100
AcDbDictionary
280
     1
281
     1
  3
ACAD_XREC_ROUNDTRIP
360
53E
  0
DICTIONARY
  5
55B
330
4B4
100
AcDbDictionary
280
     1
281
     1
  3
ACAD_XREC_ROUNDTRIP
360
55C
  0
DICTIONARY
  5
559
330
4B3
100
AcDbDictionary
280
     1
281
     1
  3
ACAD_XREC_ROUNDTRIP
360
55A
  0
DICTIONARY
  5
553
330
4B0
100
AcDbDictionary
280
     1
281
     1
  3
ACAD_XREC_ROUNDTRIP
360
554
  0
DICTIONARY
  5
555
330
4B1
100
AcDbDictionary
280
     1
281
     1
  3
ACAD_XREC_ROUNDTRIP
360
556
  0
DICTIONARY
  5
545
330
4A9
100
AcDbDictionary
280
     1
281
     1
  3
ACAD_XREC_ROUNDTRIP
360
546
  0
DICTIONARY
  5
537
330
4A2
100
AcDbDictionary
280
     1
281
     1
  3
ACAD_XREC_ROUNDTRIP
360
538
  0
DICTIONARY
  5
557
330
4B2
100
AcDbDictionary
280
     1
281
     1
  3
ACAD_XREC_ROUNDTRIP
360
558
  0
XRECORD
  5
52C
102
{ACAD_REACTORS
330
52B
102
}
330
52B
100
AcDbXrecord
280
     1
102
MATERIAL
148
0.0
149
0.0
149
0.0
 93
        0
 94
      127
282
     0
 72
     1
 77
     1
171
     1
175
     1
179
     1
273
     0
  0
XRECORD
  5
528
102
{ACAD_REACTORS
330
527
102
}
330
527
100
AcDbXrecord
280
     1
102
MATERIAL
148
0.0
149
0.0
149
0.0
 93
        0
 94
      127
282
     0
 72
     1
 77
     1
171
     1
175
     1
179
     1
273
     0
  0
XRECORD
  5
52A
102
{ACAD_REACTORS
330
529
102
}
330
529
100
AcDbXrecord
280
     1
102
MATERIAL
148
0.0
149
0.0
149
0.0
 93
        0
 94
      127
282
     0
 72
     1
 77
     1
171
     1
175
     1
179
     1
273
     0
  0
XRECORD
  5
55E
102
{ACAD_REACTORS
330
55D
102
}
330
55D
100
AcDbXrecord
280
     1
102
ACAD_ROUNDTRIP_2010_MLEADER_STYLE
  0
XRECORD
  5
536
102
{ACAD_REACTORS
330
535
102
}
330
535
100
AcDbXrecord
280
     1
102
RTVSPropertyOp0
 70
     1
102
RTVSPropertyOp1
 70
     1
102
RTVSPropertyOp2
 70
     1
102
RTVSPropertyOp3
 70
     1
102
RTVSPropertyOp4
 70
     1
102
RTVSPropertyOp5
 70
     1
102
RTVSPropertyOp6
 70
     1
102
RTVSPropertyOp7
 70
     1
102
RTVSPropertyOp8
 70
     1
102
RTVSPropertyOp9
 70
     1
102
RTVSPropertyOp10
 70
     1
102
RTVSPropertyOp11
 70
     1
102
RTVSPropertyOp12
 70
     1
102
RTVSPropertyOp13
 70
     1
102
RTVSPropertyOp14
 70
     1
102
RTVSPropertyOp15
 70
     1
102
RTVSPropertyOp16
 70
     1
102
RTVSPropertyOp17
 70
     1
102
RTVSPropertyOp18
 70
     1
102
RTVSPropertyOp19
 70
     1
102
RTVSPropertyOp20
 70
     1
102
RTVSPropertyOp21
 70
     1
102
RTVSPropertyOp22
 70
     1
102
RTVSPropertyOp23
 70
     1
102
RTVSPropertyOp24
 70
     1
102
RTVSPropertyOp25
 70
     1
102
RTVSPropertyOp26
 70
     1
102
RTVSPropertyOp27
 70
     1
102
RTVSPropertyOp28
 70
     1
102
RTVSPropertyOp29
 70
     1
102
RTVSPropertyOp30
 70
     1
102
RTVSPropertyOp31
 70
     1
102
RTVSPropertyOp32
 70
     1
102
RTVSPropertyOp33
 70
     1
102
RTVSPropertyOp34
 70
     1
102
RTVSPropertyOp35
 70
     1
102
RTVSPropertyOp36
 70
     1
102
RTVSPropertyOp37
 70
     1
102
RTVSPropertyOp38
 70
     1
102
RTVSPropertyOp39
 70
     1
102
RTVSPropertyOp40
 70
     1
102
RTVSPropertyOp41
 70
     1
102
RTVSPropertyOp42
 70
     1
102
RTVSPropertyOp43
 70
     1
102
RTVSPropertyOp44
 70
     1
102
RTVSPropertyOp45
 70
     1
102
RTVSPropertyOp46
 70
     1
102
RTVSPropertyOp47
 70
     1
102
RTVSPropertyOp48
 70
     1
102
RTVSPropertyOp49
 70
     1
102
RTVSPropertyOp50
 70
     1
102
RTVSPropertyOp51
 70
     0
102
RTVSPropertyOp52
 70
     0
102
RTVSPropertyOp53
 70
     1
102
RTVSPropertyOp54
 70
     1
102
RTVSPropertyOp55
 70
     1
102
RTVSPropertyOp56
 70
     1
102
RTVSPropertyOp57
 70
     1
102
RTVSPost2010Prop28
280
     1
102
RTVSPost2010PropOp28
 70
     1
102
RTVSPost2010Prop29
280
     1
102
RTVSPost2010PropOp29
 70
     1
102
RTVSPost2010Prop30
280
     0
102
RTVSPost2010PropOp30
 70
     1
102
RTVSPost2010Prop31
280
     0
102
RTVSPost2010PropOp31
 70
     1
102
RTVSPost2010Prop32
280
     0
102
RTVSPost2010PropOp32
 70
     1
102
RTVSPost2010Prop33
280
     0
102
RTVSPost2010PropOp33
 70
     1
102
RTVSPost2010Prop34
280
     0
102
RTVSPost2010PropOp34
 70
     1
102
RTVSPost2010Prop35
280
     0
102
RTVSPost2010PropOp35
 70
     1
102
RTVSPost2010Prop36
280
     0
102
RTVSPost2010PropOp36
 70
     1
102
RTVSPost2010Prop37
 90
       50
102
RTVSPost2010PropOp37
 70
     1
102
RTVSPost2010Prop38
140
0.0
102
RTVSPost2010PropOp38
 70
     1
102
RTVSPost2010Prop39
140
1.0
102
RTVSPost2010PropOp39
 70
     1
102
RTVSPost2010Prop40
 90
        0
102
RTVSPost2010PropOp40
 70
     1
102
RTVSPost2010Prop41ColorIndex
 90
       18
102
RTVSPost2010Prop41ColorRGB
 90
        0
102
RTVSPost2010PropOp41
 70
     1
102
RTVSPost2010Prop42
 90
       50
102
RTVSPost2010PropOp42
 70
     1
102
RTVSPost2010Prop43
 90
        3
102
RTVSPost2010PropOp43
 70
     1
102
RTVSPost2010Prop44ColorIndex
 90
        5
102
RTVSPost2010Prop44ColorRGB
 90
      255
102
RTVSPost2010PropOp44
 70
     1
102
RTVSPost2010Prop45
280
     0
102
RTVSPost2010PropOp45
 70
     1
102
RTVSPost2010Prop46
 90
       50
102
RTVSPost2010PropOp46
 70
     1
102
RTVSPost2010Prop47
 90
       50
102
RTVSPost2010PropOp47
 70
     1
102
RTVSPost2010Prop48
 90
       50
102
RTVSPost2010PropOp48
 70
     1
102
RTVSPost2010Prop49
280
     0
102
RTVSPost2010PropOp49
 70
     1
102
RTVSPost2010Prop50
 90
       50
102
RTVSPost2010PropOp50
 70
     1
102
RTVSPost2010Prop51ColorIndex
 90
      256
102
RTVSPost2010Prop51ColorRGB
 90
-16777216
102
RTVSPost2010PropOp51
 70
     0
102
RTVSPost2010Prop52
140
1.0
102
RTVSPost2010PropOp52
 70
     0
102
RTVSPost2010Prop53
 90
        2
102
RTVSPost2010PropOp53
 70
     1
102
RTVSPost2010Prop54
  1
strokes_ogs.tif
102
RTVSPost2010PropOp54
 70
     1
102
RTVSPost2010Prop55
280
     0
102
RTVSPost2010PropOp55
 70
     1
102
RTVSPost2010Prop56
140
1.0
102
RTVSPost2010PropOp56
 70
     1
102
RTVSPost2010Prop57
140
1.0
102
RTVSPost2010PropOp57
 70
     1
  0
XRECORD
  5
53C
102
{ACAD_REACTORS
330
53B
102
}
330
53B
100
AcDbXrecord
280
     1
102
RTVSPropertyOp0
 70
     1
102
RTVSPropertyOp1
 70
     1
102
RTVSPropertyOp2
 70
     1
102
RTVSPropertyOp3
 70
     1
102
RTVSPropertyOp4
 70
     1
102
RTVSPropertyOp5
 70
     1
102
RTVSPropertyOp6
 70
     1
102
RTVSPropertyOp7
 70
     1
102
RTVSPropertyOp8
 70
     1
102
RTVSPropertyOp9
 70
     1
102
RTVSPropertyOp10
 70
     1
102
RTVSPropertyOp11
 70
     1
102
RTVSPropertyOp12
 70
     1
102
RTVSPropertyOp13
 70
     1
102
RTVSPropertyOp14
 70
     1
102
RTVSPropertyOp15
 70
     1
102
RTVSPropertyOp16
 70
     1
102
RTVSPropertyOp17
 70
     1
102
RTVSPropertyOp18
 70
     1
102
RTVSPropertyOp19
 70
     1
102
RTVSPropertyOp20
 70
     1
102
RTVSPropertyOp21
 70
     1
102
RTVSPropertyOp22
 70
     1
102
RTVSPropertyOp23
 70
     1
102
RTVSPropertyOp24
 70
     1
102
RTVSPropertyOp25
 70
     1
102
RTVSPropertyOp26
 70
     1
102
RTVSPropertyOp27
 70
     1
102
RTVSPropertyOp28
 70
     1
102
RTVSPropertyOp29
 70
     1
102
RTVSPropertyOp30
 70
     1
102
RTVSPropertyOp31
 70
     1
102
RTVSPropertyOp32
 70
     1
102
RTVSPropertyOp33
 70
     1
102
RTVSPropertyOp34
 70
     1
102
RTVSPropertyOp35
 70
     1
102
RTVSPropertyOp36
 70
     1
102
RTVSPropertyOp37
 70
     1
102
RTVSPropertyOp38
 70
     1
102
RTVSPropertyOp39
 70
     1
102
RTVSPropertyOp40
 70
     1
102
RTVSPropertyOp41
 70
     1
102
RTVSPropertyOp42
 70
     1
102
RTVSPropertyOp43
 70
     1
102
RTVSPropertyOp44
 70
     1
102
RTVSPropertyOp45
 70
     1
102
RTVSPropertyOp46
 70
     1
102
RTVSPropertyOp47
 70
     1
102
RTVSPropertyOp48
 70
     1
102
RTVSPropertyOp49
 70
     1
102
RTVSPropertyOp50
 70
     1
102
RTVSPropertyOp51
 70
     0
102
RTVSPropertyOp52
 70
     0
102
RTVSPropertyOp53
 70
     1
102
RTVSPropertyOp54
 70
     1
102
RTVSPropertyOp55
 70
     1
102
RTVSPropertyOp56
 70
     1
102
RTVSPropertyOp57
 70
     1
102
RTVSPost2010Prop28
280
     0
102
RTVSPost2010PropOp28
 70
     1
102
RTVSPost2010Prop29
280
     1
102
RTVSPost2010PropOp29
 70
     1
102
RTVSPost2010Prop30
280
     1
102
RTVSPost2010PropOp30
 70
     1
102
RTVSPost2010Prop31
280
     0
102
RTVSPost2010PropOp31
 70
     1
102
RTVSPost2010Prop32
280
     0
102
RTVSPost2010PropOp32
 70
     1
102
RTVSPost2010Prop33
280
     0
102
RTVSPost2010PropOp33
 70
     1
102
RTVSPost2010Prop34
280
     0
102
RTVSPost2010PropOp34
 70
     1
102
RTVSPost2010Prop35
280
     0
102
RTVSPost2010PropOp35
 70
     1
102
RTVSPost2010Prop36
280
     0
102
RTVSPost2010PropOp36
 70
     1
102
RTVSPost2010Prop37
 90
       50
102
RTVSPost2010PropOp37
 70
     1
102
RTVSPost2010Prop38
140
0.0
102
RTVSPost2010PropOp38
 70
     1
102
RTVSPost2010Prop39
140
1.0
102
RTVSPost2010PropOp39
 70
     1
102
RTVSPost2010Prop40
 90
        0
102
RTVSPost2010PropOp40
 70
     1
102
RTVSPost2010Prop41ColorIndex
 90
       18
102
RTVSPost2010Prop41ColorRGB
 90
        0
102
RTVSPost2010PropOp41
 70
     1
102
RTVSPost2010Prop42
 90
       50
102
RTVSPost2010PropOp42
 70
     1
102
RTVSPost2010Prop43
 90
        3
102
RTVSPost2010PropOp43
 70
     1
102
RTVSPost2010Prop44ColorIndex
 90
        5
102
RTVSPost2010Prop44ColorRGB
 90
      255
102
RTVSPost2010PropOp44
 70
     1
102
RTVSPost2010Prop45
280
     0
102
RTVSPost2010PropOp45
 70
     1
102
RTVSPost2010Prop46
 90
       50
102
RTVSPost2010PropOp46
 70
     1
102
RTVSPost2010Prop47
 90
       50
102
RTVSPost2010PropOp47
 70
     1
102
RTVSPost2010Prop48
 90
       50
102
RTVSPost2010PropOp48
 70
     1
102
RTVSPost2010Prop49
280
     0
102
RTVSPost2010PropOp49
 70
     1
102
RTVSPost2010Prop50
 90
       50
102
RTVSPost2010PropOp50
 70
     1
102
RTVSPost2010Prop51ColorIndex
 90
      256
102
RTVSPost2010Prop51ColorRGB
 90
-16777216
102
RTVSPost2010PropOp51
 70
     0
102
RTVSPost2010Prop52
140
1.0
102
RTVSPost2010PropOp52
 70
     0
102
RTVSPost2010Prop53
 90
        2
102
RTVSPost2010PropOp53
 70
     1
102
RTVSPost2010Prop54
  1
strokes_ogs.tif
102
RTVSPost2010PropOp54
 70
     1
102
RTVSPost2010Prop55
280
     0
102
RTVSPost2010PropOp55
 70
     1
102
RTVSPost2010Prop56
140
1.0
102
RTVSPost2010PropOp56
 70
     1
102
RTVSPost2010Prop57
140
1.0
102
RTVSPost2010PropOp57
 70
     1
  0
XRECORD
  5
544
102
{ACAD_REACTORS
330
543
102
}
330
543
100
AcDbXrecord
280
     1
102
RTVSPropertyOp0
 70
     1
102
RTVSPropertyOp1
 70
     1
102
RTVSPropertyOp2
 70
     1
102
RTVSPropertyOp3
 70
     1
102
RTVSPropertyOp4
 70
     1
102
RTVSPropertyOp5
 70
     1
102
RTVSPropertyOp6
 70
     1
102
RTVSPropertyOp7
 70
     1
102
RTVSPropertyOp8
 70
     1
102
RTVSPropertyOp9
 70
     1
102
RTVSPropertyOp10
 70
     1
102
RTVSPropertyOp11
 70
     1
102
RTVSPropertyOp12
 70
     1
102
RTVSPropertyOp13
 70
     1
102
RTVSPropertyOp14
 70
     1
102
RTVSPropertyOp15
 70
     1
102
RTVSPropertyOp16
 70
     1
102
RTVSPropertyOp17
 70
     1
102
RTVSPropertyOp18
 70
     1
102
RTVSPropertyOp19
 70
     1
102
RTVSPropertyOp20
 70
     1
102
RTVSPropertyOp21
 70
     1
102
RTVSPropertyOp22
 70
     1
102
RTVSPropertyOp23
 70
     1
102
RTVSPropertyOp24
 70
     1
102
RTVSPropertyOp25
 70
     1
102
RTVSPropertyOp26
 70
     1
102
RTVSPropertyOp27
 70
     1
102
RTVSPropertyOp28
 70
     1
102
RTVSPropertyOp29
 70
     1
102
RTVSPropertyOp30
 70
     1
102
RTVSPropertyOp31
 70
     1
102
RTVSPropertyOp32
 70
     1
102
RTVSPropertyOp33
 70
     1
102
RTVSPropertyOp34
 70
     1
102
RTVSPropertyOp35
 70
     1
102
RTVSPropertyOp36
 70
     1
102
RTVSPropertyOp37
 70
     1
102
RTVSPropertyOp38
 70
     1
102
RTVSPropertyOp39
 70
     1
102
RTVSPropertyOp40
 70
     1
102
RTVSPropertyOp41
 70
     1
102
RTVSPropertyOp42
 70
     1
102
RTVSPropertyOp43
 70
     1
102
RTVSPropertyOp44
 70
     1
102
RTVSPropertyOp45
 70
     1
102
RTVSPropertyOp46
 70
     1
102
RTVSPropertyOp47
 70
     1
102
RTVSPropertyOp48
 70
     1
102
RTVSPropertyOp49
 70
     1
102
RTVSPropertyOp50
 70
     1
102
RTVSPropertyOp51
 70
     0
102
RTVSPropertyOp52
 70
     0
102
RTVSPropertyOp53
 70
     1
102
RTVSPropertyOp54
 70
     1
102
RTVSPropertyOp55
 70
     1
102
RTVSPropertyOp56
 70
     1
102
RTVSPropertyOp57
 70
     1
102
RTVSPost2010Prop28
280
     0
102
RTVSPost2010PropOp28
 70
     1
102
RTVSPost2010Prop29
280
     1
102
RTVSPost2010PropOp29
 70
     1
102
RTVSPost2010Prop30
280
     1
102
RTVSPost2010PropOp30
 70
     1
102
RTVSPost2010Prop31
280
     0
102
RTVSPost2010PropOp31
 70
     1
102
RTVSPost2010Prop32
280
     0
102
RTVSPost2010PropOp32
 70
     1
102
RTVSPost2010Prop33
280
     0
102
RTVSPost2010PropOp33
 70
     1
102
RTVSPost2010Prop34
280
     0
102
RTVSPost2010PropOp34
 70
     1
102
RTVSPost2010Prop35
280
     0
102
RTVSPost2010PropOp35
 70
     1
102
RTVSPost2010Prop36
280
     0
102
RTVSPost2010PropOp36
 70
     1
102
RTVSPost2010Prop37
 90
       50
102
RTVSPost2010PropOp37
 70
     1
102
RTVSPost2010Prop38
140
0.0
102
RTVSPost2010PropOp38
 70
     1
102
RTVSPost2010Prop39
140
1.0
102
RTVSPost2010PropOp39
 70
     1
102
RTVSPost2010Prop40
 90
        0
102
RTVSPost2010PropOp40
 70
     1
102
RTVSPost2010Prop41ColorIndex
 90
       18
102
RTVSPost2010Prop41ColorRGB
 90
        0
102
RTVSPost2010PropOp41
 70
     1
102
RTVSPost2010Prop42
 90
       50
102
RTVSPost2010PropOp42
 70
     1
102
RTVSPost2010Prop43
 90
        3
102
RTVSPost2010PropOp43
 70
     1
102
RTVSPost2010Prop44ColorIndex
 90
        5
102
RTVSPost2010Prop44ColorRGB
 90
      255
102
RTVSPost2010PropOp44
 70
     1
102
RTVSPost2010Prop45
280
     0
102
RTVSPost2010PropOp45
 70
     1
102
RTVSPost2010Prop46
 90
       50
102
RTVSPost2010PropOp46
 70
     1
102
RTVSPost2010Prop47
 90
       50
102
RTVSPost2010PropOp47
 70
     1
102
RTVSPost2010Prop48
 90
       50
102
RTVSPost2010PropOp48
 70
     1
102
RTVSPost2010Prop49
280
     0
102
RTVSPost2010PropOp49
 70
     1
102
RTVSPost2010Prop50
 90
       50
102
RTVSPost2010PropOp50
 70
     1
102
RTVSPost2010Prop51ColorIndex
 90
      256
102
RTVSPost2010Prop51ColorRGB
 90
-16777216
102
RTVSPost2010PropOp51
 70
     0
102
RTVSPost2010Prop52
140
1.0
102
RTVSPost2010PropOp52
 70
     0
102
RTVSPost2010Prop53
 90
        2
102
RTVSPost2010PropOp53
 70
     1
102
RTVSPost2010Prop54
  1
strokes_ogs.tif
102
RTVSPost2010PropOp54
 70
     1
102
RTVSPost2010Prop55
280
     0
102
RTVSPost2010PropOp55
 70
     1
102
RTVSPost2010Prop56
140
1.0
102
RTVSPost2010PropOp56
 70
     1
102
RTVSPost2010Prop57
140
1.0
102
RTVSPost2010PropOp57
 70
     1
  0
XRECORD
  5
54C
102
{ACAD_REACTORS
330
54B
102
}
330
54B
100
AcDbXrecord
280
     1
102
RTVSPropertyOp0
 70
     1
102
RTVSPropertyOp1
 70
     1
102
RTVSPropertyOp2
 70
     1
102
RTVSPropertyOp3
 70
     1
102
RTVSPropertyOp4
 70
     1
102
RTVSPropertyOp5
 70
     1
102
RTVSPropertyOp6
 70
     1
102
RTVSPropertyOp7
 70
     1
102
RTVSPropertyOp8
 70
     1
102
RTVSPropertyOp9
 70
     1
102
RTVSPropertyOp10
 70
     1
102
RTVSPropertyOp11
 70
     1
102
RTVSPropertyOp12
 70
     1
102
RTVSPropertyOp13
 70
     1
102
RTVSPropertyOp14
 70
     1
102
RTVSPropertyOp15
 70
     1
102
RTVSPropertyOp16
 70
     1
102
RTVSPropertyOp17
 70
     1
102
RTVSPropertyOp18
 70
     1
102
RTVSPropertyOp19
 70
     1
102
RTVSPropertyOp20
 70
     1
102
RTVSPropertyOp21
 70
     1
102
RTVSPropertyOp22
 70
     1
102
RTVSPropertyOp23
 70
     1
102
RTVSPropertyOp24
 70
     1
102
RTVSPropertyOp25
 70
     1
102
RTVSPropertyOp26
 70
     1
102
RTVSPropertyOp27
 70
     1
102
RTVSPropertyOp28
 70
     1
102
RTVSPropertyOp29
 70
     1
102
RTVSPropertyOp30
 70
     1
102
RTVSPropertyOp31
 70
     1
102
RTVSPropertyOp32
 70
     1
102
RTVSPropertyOp33
 70
     1
102
RTVSPropertyOp34
 70
     1
102
RTVSPropertyOp35
 70
     1
102
RTVSPropertyOp36
 70
     1
102
RTVSPropertyOp37
 70
     1
102
RTVSPropertyOp38
 70
     1
102
RTVSPropertyOp39
 70
     1
102
RTVSPropertyOp40
 70
     1
102
RTVSPropertyOp41
 70
     1
102
RTVSPropertyOp42
 70
     1
102
RTVSPropertyOp43
 70
     1
102
RTVSPropertyOp44
 70
     1
102
RTVSPropertyOp45
 70
     1
102
RTVSPropertyOp46
 70
     1
102
RTVSPropertyOp47
 70
     1
102
RTVSPropertyOp48
 70
     1
102
RTVSPropertyOp49
 70
     1
102
RTVSPropertyOp50
 70
     1
102
RTVSPropertyOp51
 70
     0
102
RTVSPropertyOp52
 70
     0
102
RTVSPropertyOp53
 70
     1
102
RTVSPropertyOp54
 70
     1
102
RTVSPropertyOp55
 70
     1
102
RTVSPropertyOp56
 70
     1
102
RTVSPropertyOp57
 70
     1
102
RTVSPost2010Prop28
280
     0
102
RTVSPost2010PropOp28
 70
     1
102
RTVSPost2010Prop29
280
     1
102
RTVSPost2010PropOp29
 70
     1
102
RTVSPost2010Prop30
280
     1
102
RTVSPost2010PropOp30
 70
     1
102
RTVSPost2010Prop31
280
     0
102
RTVSPost2010PropOp31
 70
     1
102
RTVSPost2010Prop32
280
     0
102
RTVSPost2010PropOp32
 70
     1
102
RTVSPost2010Prop33
280
     0
102
RTVSPost2010PropOp33
 70
     1
102
RTVSPost2010Prop34
280
     0
102
RTVSPost2010PropOp34
 70
     1
102
RTVSPost2010Prop35
280
     0
102
RTVSPost2010PropOp35
 70
     1
102
RTVSPost2010Prop36
280
     0
102
RTVSPost2010PropOp36
 70
     1
102
RTVSPost2010Prop37
 90
       50
102
RTVSPost2010PropOp37
 70
     1
102
RTVSPost2010Prop38
140
0.0
102
RTVSPost2010PropOp38
 70
     1
102
RTVSPost2010Prop39
140
1.0
102
RTVSPost2010PropOp39
 70
     1
102
RTVSPost2010Prop40
 90
        0
102
RTVSPost2010PropOp40
 70
     1
102
RTVSPost2010Prop41ColorIndex
 90
       18
102
RTVSPost2010Prop41ColorRGB
 90
        0
102
RTVSPost2010PropOp41
 70
     1
102
RTVSPost2010Prop42
 90
       50
102
RTVSPost2010PropOp42
 70
     1
102
RTVSPost2010Prop43
 90
        3
102
RTVSPost2010PropOp43
 70
     1
102
RTVSPost2010Prop44ColorIndex
 90
        5
102
RTVSPost2010Prop44ColorRGB
 90
      255
102
RTVSPost2010PropOp44
 70
     1
102
RTVSPost2010Prop45
280
     0
102
RTVSPost2010PropOp45
 70
     1
102
RTVSPost2010Prop46
 90
       50
102
RTVSPost2010PropOp46
 70
     1
102
RTVSPost2010Prop47
 90
       50
102
RTVSPost2010PropOp47
 70
     1
102
RTVSPost2010Prop48
 90
       50
102
RTVSPost2010PropOp48
 70
     1
102
RTVSPost2010Prop49
280
     0
102
RTVSPost2010PropOp49
 70
     1
102
RTVSPost2010Prop50
 90
       50
102
RTVSPost2010PropOp50
 70
     1
102
RTVSPost2010Prop51ColorIndex
 90
      256
102
RTVSPost2010Prop51ColorRGB
 90
-16777216
102
RTVSPost2010PropOp51
 70
     0
102
RTVSPost2010Prop52
140
1.0
102
RTVSPost2010PropOp52
 70
     0
102
RTVSPost2010Prop53
 90
        2
102
RTVSPost2010PropOp53
 70
     1
102
RTVSPost2010Prop54
  1
strokes_ogs.tif
102
RTVSPost2010PropOp54
 70
     1
102
RTVSPost2010Prop55
280
     0
102
RTVSPost2010PropOp55
 70
     1
102
RTVSPost2010Prop56
140
1.0
102
RTVSPost2010PropOp56
 70
     1
102
RTVSPost2010Prop57
140
1.0
102
RTVSPost2010PropOp57
 70
     1
  0
XRECORD
  5
540
102
{ACAD_REACTORS
330
53F
102
}
330
53F
100
AcDbXrecord
280
     1
102
RTVSPropertyOp0
 70
     1
102
RTVSPropertyOp1
 70
     1
102
RTVSPropertyOp2
 70
     1
102
RTVSPropertyOp3
 70
     1
102
RTVSPropertyOp4
 70
     1
102
RTVSPropertyOp5
 70
     1
102
RTVSPropertyOp6
 70
     1
102
RTVSPropertyOp7
 70
     1
102
RTVSPropertyOp8
 70
     1
102
RTVSPropertyOp9
 70
     1
102
RTVSPropertyOp10
 70
     1
102
RTVSPropertyOp11
 70
     1
102
RTVSPropertyOp12
 70
     1
102
RTVSPropertyOp13
 70
     1
102
RTVSPropertyOp14
 70
     1
102
RTVSPropertyOp15
 70
     1
102
RTVSPropertyOp16
 70
     1
102
RTVSPropertyOp17
 70
     1
102
RTVSPropertyOp18
 70
     1
102
RTVSPropertyOp19
 70
     1
102
RTVSPropertyOp20
 70
     1
102
RTVSPropertyOp21
 70
     1
102
RTVSPropertyOp22
 70
     1
102
RTVSPropertyOp23
 70
     1
102
RTVSPropertyOp24
 70
     1
102
RTVSPropertyOp25
 70
     1
102
RTVSPropertyOp26
 70
     1
102
RTVSPropertyOp27
 70
     1
102
RTVSPropertyOp28
 70
     1
102
RTVSPropertyOp29
 70
     1
102
RTVSPropertyOp30
 70
     1
102
RTVSPropertyOp31
 70
     1
102
RTVSPropertyOp32
 70
     1
102
RTVSPropertyOp33
 70
     1
102
RTVSPropertyOp34
 70
     1
102
RTVSPropertyOp35
 70
     1
102
RTVSPropertyOp36
 70
     1
102
RTVSPropertyOp37
 70
     1
102
RTVSPropertyOp38
 70
     1
102
RTVSPropertyOp39
 70
     1
102
RTVSPropertyOp40
 70
     1
102
RTVSPropertyOp41
 70
     1
102
RTVSPropertyOp42
 70
     1
102
RTVSPropertyOp43
 70
     1
102
RTVSPropertyOp44
 70
     1
102
RTVSPropertyOp45
 70
     1
102
RTVSPropertyOp46
 70
     1
102
RTVSPropertyOp47
 70
     1
102
RTVSPropertyOp48
 70
     1
102
RTVSPropertyOp49
 70
     1
102
RTVSPropertyOp50
 70
     1
102
RTVSPropertyOp51
 70
     0
102
RTVSPropertyOp52
 70
     0
102
RTVSPropertyOp53
 70
     1
102
RTVSPropertyOp54
 70
     1
102
RTVSPropertyOp55
 70
     1
102
RTVSPropertyOp56
 70
     1
102
RTVSPropertyOp57
 70
     1
102
RTVSPost2010Prop28
280
     0
102
RTVSPost2010PropOp28
 70
     1
102
RTVSPost2010Prop29
280
     1
102
RTVSPost2010PropOp29
 70
     1
102
RTVSPost2010Prop30
280
     1
102
RTVSPost2010PropOp30
 70
     1
102
RTVSPost2010Prop31
280
     0
102
RTVSPost2010PropOp31
 70
     1
102
RTVSPost2010Prop32
280
     0
102
RTVSPost2010PropOp32
 70
     1
102
RTVSPost2010Prop33
280
     0
102
RTVSPost2010PropOp33
 70
     1
102
RTVSPost2010Prop34
280
     0
102
RTVSPost2010PropOp34
 70
     1
102
RTVSPost2010Prop35
280
     0
102
RTVSPost2010PropOp35
 70
     1
102
RTVSPost2010Prop36
280
     0
102
RTVSPost2010PropOp36
 70
     1
102
RTVSPost2010Prop37
 90
       50
102
RTVSPost2010PropOp37
 70
     1
102
RTVSPost2010Prop38
140
0.0
102
RTVSPost2010PropOp38
 70
     1
102
RTVSPost2010Prop39
140
1.0
102
RTVSPost2010PropOp39
 70
     1
102
RTVSPost2010Prop40
 90
        0
102
RTVSPost2010PropOp40
 70
     1
102
RTVSPost2010Prop41ColorIndex
 90
       18
102
RTVSPost2010Prop41ColorRGB
 90
        0
102
RTVSPost2010PropOp41
 70
     1
102
RTVSPost2010Prop42
 90
       50
102
RTVSPost2010PropOp42
 70
     1
102
RTVSPost2010Prop43
 90
        3
102
RTVSPost2010PropOp43
 70
     1
102
RTVSPost2010Prop44ColorIndex
 90
        5
102
RTVSPost2010Prop44ColorRGB
 90
      255
102
RTVSPost2010PropOp44
 70
     1
102
RTVSPost2010Prop45
280
     0
102
RTVSPost2010PropOp45
 70
     1
102
RTVSPost2010Prop46
 90
       50
102
RTVSPost2010PropOp46
 70
     1
102
RTVSPost2010Prop47
 90
       50
102
RTVSPost2010PropOp47
 70
     1
102
RTVSPost2010Prop48
 90
       50
102
RTVSPost2010PropOp48
 70
     1
102
RTVSPost2010Prop49
280
     0
102
RTVSPost2010PropOp49
 70
     1
102
RTVSPost2010Prop50
 90
       50
102
RTVSPost2010PropOp50
 70
     1
102
RTVSPost2010Prop51ColorIndex
 90
      256
102
RTVSPost2010Prop51ColorRGB
 90
-16777216
102
RTVSPost2010PropOp51
 70
     0
102
RTVSPost2010Prop52
140
1.0
102
RTVSPost2010PropOp52
 70
     0
102
RTVSPost2010Prop53
 90
        2
102
RTVSPost2010PropOp53
 70
     1
102
RTVSPost2010Prop54
  1
strokes_ogs.tif
102
RTVSPost2010PropOp54
 70
     1
102
RTVSPost2010Prop55
280
     0
102
RTVSPost2010PropOp55
 70
     1
102
RTVSPost2010Prop56
140
1.0
102
RTVSPost2010PropOp56
 70
     1
102
RTVSPost2010Prop57
140
1.0
102
RTVSPost2010PropOp57
 70
     1
  0
XRECORD
  5
542
102
{ACAD_REACTORS
330
541
102
}
330
541
100
AcDbXrecord
280
     1
102
RTVSPropertyOp0
 70
     1
102
RTVSPropertyOp1
 70
     1
102
RTVSPropertyOp2
 70
     1
102
RTVSPropertyOp3
 70
     1
102
RTVSPropertyOp4
 70
     1
102
RTVSPropertyOp5
 70
     1
102
RTVSPropertyOp6
 70
     1
102
RTVSPropertyOp7
 70
     1
102
RTVSPropertyOp8
 70
     1
102
RTVSPropertyOp9
 70
     1
102
RTVSPropertyOp10
 70
     1
102
RTVSPropertyOp11
 70
     1
102
RTVSPropertyOp12
 70
     1
102
RTVSPropertyOp13
 70
     1
102
RTVSPropertyOp14
 70
     1
102
RTVSPropertyOp15
 70
     1
102
RTVSPropertyOp16
 70
     1
102
RTVSPropertyOp17
 70
     1
102
RTVSPropertyOp18
 70
     1
102
RTVSPropertyOp19
 70
     1
102
RTVSPropertyOp20
 70
     1
102
RTVSPropertyOp21
 70
     1
102
RTVSPropertyOp22
 70
     1
102
RTVSPropertyOp23
 70
     1
102
RTVSPropertyOp24
 70
     1
102
RTVSPropertyOp25
 70
     1
102
RTVSPropertyOp26
 70
     1
102
RTVSPropertyOp27
 70
     1
102
RTVSPropertyOp28
 70
     1
102
RTVSPropertyOp29
 70
     1
102
RTVSPropertyOp30
 70
     1
102
RTVSPropertyOp31
 70
     1
102
RTVSPropertyOp32
 70
     1
102
RTVSPropertyOp33
 70
     1
102
RTVSPropertyOp34
 70
     1
102
RTVSPropertyOp35
 70
     1
102
RTVSPropertyOp36
 70
     1
102
RTVSPropertyOp37
 70
     1
102
RTVSPropertyOp38
 70
     1
102
RTVSPropertyOp39
 70
     1
102
RTVSPropertyOp40
 70
     1
102
RTVSPropertyOp41
 70
     1
102
RTVSPropertyOp42
 70
     1
102
RTVSPropertyOp43
 70
     1
102
RTVSPropertyOp44
 70
     1
102
RTVSPropertyOp45
 70
     1
102
RTVSPropertyOp46
 70
     1
102
RTVSPropertyOp47
 70
     1
102
RTVSPropertyOp48
 70
     1
102
RTVSPropertyOp49
 70
     1
102
RTVSPropertyOp50
 70
     1
102
RTVSPropertyOp51
 70
     0
102
RTVSPropertyOp52
 70
     0
102
RTVSPropertyOp53
 70
     1
102
RTVSPropertyOp54
 70
     1
102
RTVSPropertyOp55
 70
     1
102
RTVSPropertyOp56
 70
     1
102
RTVSPropertyOp57
 70
     1
102
RTVSPost2010Prop28
280
     0
102
RTVSPost2010PropOp28
 70
     1
102
RTVSPost2010Prop29
280
     1
102
RTVSPost2010PropOp29
 70
     1
102
RTVSPost2010Prop30
280
     1
102
RTVSPost2010PropOp30
 70
     1
102
RTVSPost2010Prop31
280
     0
102
RTVSPost2010PropOp31
 70
     1
102
RTVSPost2010Prop32
280
     0
102
RTVSPost2010PropOp32
 70
     1
102
RTVSPost2010Prop33
280
     0
102
RTVSPost2010PropOp33
 70
     1
102
RTVSPost2010Prop34
280
     0
102
RTVSPost2010PropOp34
 70
     1
102
RTVSPost2010Prop35
280
     0
102
RTVSPost2010PropOp35
 70
     1
102
RTVSPost2010Prop36
280
     0
102
RTVSPost2010PropOp36
 70
     1
102
RTVSPost2010Prop37
 90
       50
102
RTVSPost2010PropOp37
 70
     1
102
RTVSPost2010Prop38
140
0.0
102
RTVSPost2010PropOp38
 70
     1
102
RTVSPost2010Prop39
140
1.0
102
RTVSPost2010PropOp39
 70
     1
102
RTVSPost2010Prop40
 90
        0
102
RTVSPost2010PropOp40
 70
     1
102
RTVSPost2010Prop41ColorIndex
 90
       18
102
RTVSPost2010Prop41ColorRGB
 90
        0
102
RTVSPost2010PropOp41
 70
     1
102
RTVSPost2010Prop42
 90
       50
102
RTVSPost2010PropOp42
 70
     1
102
RTVSPost2010Prop43
 90
        3
102
RTVSPost2010PropOp43
 70
     1
102
RTVSPost2010Prop44ColorIndex
 90
        5
102
RTVSPost2010Prop44ColorRGB
 90
      255
102
RTVSPost2010PropOp44
 70
     1
102
RTVSPost2010Prop45
280
     0
102
RTVSPost2010PropOp45
 70
     1
102
RTVSPost2010Prop46
 90
       50
102
RTVSPost2010PropOp46
 70
     1
102
RTVSPost2010Prop47
 90
       50
102
RTVSPost2010PropOp47
 70
     1
102
RTVSPost2010Prop48
 90
       50
102
RTVSPost2010PropOp48
 70
     1
102
RTVSPost2010Prop49
280
     0
102
RTVSPost2010PropOp49
 70
     1
102
RTVSPost2010Prop50
 90
       50
102
RTVSPost2010PropOp50
 70
     1
102
RTVSPost2010Prop51ColorIndex
 90
      256
102
RTVSPost2010Prop51ColorRGB
 90
-16777216
102
RTVSPost2010PropOp51
 70
     0
102
RTVSPost2010Prop52
140
1.0
102
RTVSPost2010PropOp52
 70
     0
102
RTVSPost2010Prop53
 90
        2
102
RTVSPost2010PropOp53
 70
     1
102
RTVSPost2010Prop54
  1
strokes_ogs.tif
102
RTVSPost2010PropOp54
 70
     1
102
RTVSPost2010Prop55
280
     0
102
RTVSPost2010PropOp55
 70
     1
102
RTVSPost2010Prop56
140
1.0
102
RTVSPost2010PropOp56
 70
     1
102
RTVSPost2010Prop57
140
1.0
102
RTVSPost2010PropOp57
 70
     1
  0
XRECORD
  5
552
102
{ACAD_REACTORS
330
551
102
}
330
551
100
AcDbXrecord
280
     1
102
RTVSPropertyOp0
 70
     0
102
RTVSPropertyOp1
 70
     0
102
RTVSPropertyOp2
 70
     0
102
RTVSPropertyOp3
 70
     0
102
RTVSPropertyOp4
 70
     0
102
RTVSPropertyOp5
 70
     0
102
RTVSPropertyOp6
 70
     0
102
RTVSPropertyOp7
 70
     0
102
RTVSPropertyOp8
 70
     0
102
RTVSPropertyOp9
 70
     0
102
RTVSPropertyOp10
 70
     0
102
RTVSPropertyOp11
 70
     0
102
RTVSPropertyOp12
 70
     0
102
RTVSPropertyOp13
 70
     0
102
RTVSPropertyOp14
 70
     0
102
RTVSPropertyOp15
 70
     0
102
RTVSPropertyOp16
 70
     0
102
RTVSPropertyOp17
 70
     0
102
RTVSPropertyOp18
 70
     0
102
RTVSPropertyOp19
 70
     0
102
RTVSPropertyOp20
 70
     0
102
RTVSPropertyOp21
 70
     0
102
RTVSPropertyOp22
 70
     0
102
RTVSPropertyOp23
 70
     0
102
RTVSPropertyOp24
 70
     0
102
RTVSPropertyOp25
 70
     0
102
RTVSPropertyOp26
 70
     0
102
RTVSPropertyOp27
 70
     0
102
RTVSPropertyOp28
 70
     1
102
RTVSPropertyOp29
 70
     1
102
RTVSPropertyOp30
 70
     1
102
RTVSPropertyOp31
 70
     1
102
RTVSPropertyOp32
 70
     1
102
RTVSPropertyOp33
 70
     1
102
RTVSPropertyOp34
 70
     1
102
RTVSPropertyOp35
 70
     1
102
RTVSPropertyOp36
 70
     1
102
RTVSPropertyOp37
 70
     1
102
RTVSPropertyOp38
 70
     1
102
RTVSPropertyOp39
 70
     1
102
RTVSPropertyOp40
 70
     1
102
RTVSPropertyOp41
 70
     1
102
RTVSPropertyOp42
 70
     1
102
RTVSPropertyOp43
 70
     1
102
RTVSPropertyOp44
 70
     1
102
RTVSPropertyOp45
 70
     1
102
RTVSPropertyOp46
 70
     1
102
RTVSPropertyOp47
 70
     1
102
RTVSPropertyOp48
 70
     1
102
RTVSPropertyOp49
 70
     1
102
RTVSPropertyOp50
 70
     1
102
RTVSPropertyOp51
 70
     0
102
RTVSPropertyOp52
 70
     0
102
RTVSPropertyOp53
 70
     1
102
RTVSPropertyOp54
 70
     1
102
RTVSPropertyOp55
 70
     1
102
RTVSPropertyOp56
 70
     1
102
RTVSPropertyOp57
 70
     1
102
RTVSPost2010Prop28
280
     0
102
RTVSPost2010PropOp28
 70
     1
102
RTVSPost2010Prop29
280
     1
102
RTVSPost2010PropOp29
 70
     1
102
RTVSPost2010Prop30
280
     1
102
RTVSPost2010PropOp30
 70
     1
102
RTVSPost2010Prop31
280
     0
102
RTVSPost2010PropOp31
 70
     1
102
RTVSPost2010Prop32
280
     0
102
RTVSPost2010PropOp32
 70
     1
102
RTVSPost2010Prop33
280
     0
102
RTVSPost2010PropOp33
 70
     1
102
RTVSPost2010Prop34
280
     0
102
RTVSPost2010PropOp34
 70
     1
102
RTVSPost2010Prop35
280
     0
102
RTVSPost2010PropOp35
 70
     1
102
RTVSPost2010Prop36
280
     0
102
RTVSPost2010PropOp36
 70
     1
102
RTVSPost2010Prop37
 90
       50
102
RTVSPost2010PropOp37
 70
     1
102
RTVSPost2010Prop38
140
0.0
102
RTVSPost2010PropOp38
 70
     1
102
RTVSPost2010Prop39
140
1.0
102
RTVSPost2010PropOp39
 70
     1
102
RTVSPost2010Prop40
 90
        0
102
RTVSPost2010PropOp40
 70
     1
102
RTVSPost2010Prop41ColorIndex
 90
       18
102
RTVSPost2010Prop41ColorRGB
 90
        0
102
RTVSPost2010PropOp41
 70
     1
102
RTVSPost2010Prop42
 90
       50
102
RTVSPost2010PropOp42
 70
     1
102
RTVSPost2010Prop43
 90
        3
102
RTVSPost2010PropOp43
 70
     1
102
RTVSPost2010Prop44ColorIndex
 90
        5
102
RTVSPost2010Prop44ColorRGB
 90
      255
102
RTVSPost2010PropOp44
 70
     1
102
RTVSPost2010Prop45
280
     0
102
RTVSPost2010PropOp45
 70
     1
102
RTVSPost2010Prop46
 90
       50
102
RTVSPost2010PropOp46
 70
     1
102
RTVSPost2010Prop47
 90
       50
102
RTVSPost2010PropOp47
 70
     1
102
RTVSPost2010Prop48
 90
       50
102
RTVSPost2010PropOp48
 70
     1
102
RTVSPost2010Prop49
280
     0
102
RTVSPost2010PropOp49
 70
     1
102
RTVSPost2010Prop50
 90
       50
102
RTVSPost2010PropOp50
 70
     1
102
RTVSPost2010Prop51ColorIndex
 90
      256
102
RTVSPost2010Prop51ColorRGB
 90
-16777216
102
RTVSPost2010PropOp51
 70
     0
102
RTVSPost2010Prop52
140
1.0
102
RTVSPost2010PropOp52
 70
     0
102
RTVSPost2010Prop53
 90
        2
102
RTVSPost2010PropOp53
 70
     1
102
RTVSPost2010Prop54
  1
strokes_ogs.tif
102
RTVSPost2010PropOp54
 70
     1
102
RTVSPost2010Prop55
280
     0
102
RTVSPost2010PropOp55
 70
     1
102
RTVSPost2010Prop56
140
1.0
102
RTVSPost2010PropOp56
 70
     1
102
RTVSPost2010Prop57
140
1.0
102
RTVSPost2010PropOp57
 70
     1
  0
XRECORD
  5
54A
102
{ACAD_REACTORS
330
549
102
}
330
549
100
AcDbXrecord
280
     1
102
RTVSPropertyOp0
 70
     1
102
RTVSPropertyOp1
 70
     1
102
RTVSPropertyOp2
 70
     1
102
RTVSPropertyOp3
 70
     1
102
RTVSPropertyOp4
 70
     1
102
RTVSPropertyOp5
 70
     1
102
RTVSPropertyOp6
 70
     1
102
RTVSPropertyOp7
 70
     1
102
RTVSPropertyOp8
 70
     1
102
RTVSPropertyOp9
 70
     1
102
RTVSPropertyOp10
 70
     1
102
RTVSPropertyOp11
 70
     1
102
RTVSPropertyOp12
 70
     1
102
RTVSPropertyOp13
 70
     1
102
RTVSPropertyOp14
 70
     1
102
RTVSPropertyOp15
 70
     1
102
RTVSPropertyOp16
 70
     1
102
RTVSPropertyOp17
 70
     1
102
RTVSPropertyOp18
 70
     1
102
RTVSPropertyOp19
 70
     1
102
RTVSPropertyOp20
 70
     1
102
RTVSPropertyOp21
 70
     1
102
RTVSPropertyOp22
 70
     1
102
RTVSPropertyOp23
 70
     1
102
RTVSPropertyOp24
 70
     1
102
RTVSPropertyOp25
 70
     1
102
RTVSPropertyOp26
 70
     1
102
RTVSPropertyOp27
 70
     1
102
RTVSPropertyOp28
 70
     1
102
RTVSPropertyOp29
 70
     1
102
RTVSPropertyOp30
 70
     1
102
RTVSPropertyOp31
 70
     1
102
RTVSPropertyOp32
 70
     1
102
RTVSPropertyOp33
 70
     1
102
RTVSPropertyOp34
 70
     1
102
RTVSPropertyOp35
 70
     1
102
RTVSPropertyOp36
 70
     1
102
RTVSPropertyOp37
 70
     1
102
RTVSPropertyOp38
 70
     1
102
RTVSPropertyOp39
 70
     1
102
RTVSPropertyOp40
 70
     1
102
RTVSPropertyOp41
 70
     1
102
RTVSPropertyOp42
 70
     1
102
RTVSPropertyOp43
 70
     1
102
RTVSPropertyOp44
 70
     1
102
RTVSPropertyOp45
 70
     1
102
RTVSPropertyOp46
 70
     1
102
RTVSPropertyOp47
 70
     1
102
RTVSPropertyOp48
 70
     1
102
RTVSPropertyOp49
 70
     1
102
RTVSPropertyOp50
 70
     1
102
RTVSPropertyOp51
 70
     0
102
RTVSPropertyOp52
 70
     0
102
RTVSPropertyOp53
 70
     1
102
RTVSPropertyOp54
 70
     1
102
RTVSPropertyOp55
 70
     1
102
RTVSPropertyOp56
 70
     1
102
RTVSPropertyOp57
 70
     1
102
RTVSPost2010Prop28
280
     0
102
RTVSPost2010PropOp28
 70
     1
102
RTVSPost2010Prop29
280
     1
102
RTVSPost2010PropOp29
 70
     1
102
RTVSPost2010Prop30
280
     1
102
RTVSPost2010PropOp30
 70
     1
102
RTVSPost2010Prop31
280
     0
102
RTVSPost2010PropOp31
 70
     1
102
RTVSPost2010Prop32
280
     0
102
RTVSPost2010PropOp32
 70
     1
102
RTVSPost2010Prop33
280
     0
102
RTVSPost2010PropOp33
 70
     1
102
RTVSPost2010Prop34
280
     0
102
RTVSPost2010PropOp34
 70
     1
102
RTVSPost2010Prop35
280
     0
102
RTVSPost2010PropOp35
 70
     1
102
RTVSPost2010Prop36
280
     0
102
RTVSPost2010PropOp36
 70
     1
102
RTVSPost2010Prop37
 90
       50
102
RTVSPost2010PropOp37
 70
     1
102
RTVSPost2010Prop38
140
0.0
102
RTVSPost2010PropOp38
 70
     1
102
RTVSPost2010Prop39
140
1.0
102
RTVSPost2010PropOp39
 70
     1
102
RTVSPost2010Prop40
 90
        0
102
RTVSPost2010PropOp40
 70
     1
102
RTVSPost2010Prop41ColorIndex
 90
       18
102
RTVSPost2010Prop41ColorRGB
 90
        0
102
RTVSPost2010PropOp41
 70
     1
102
RTVSPost2010Prop42
 90
       50
102
RTVSPost2010PropOp42
 70
     1
102
RTVSPost2010Prop43
 90
        3
102
RTVSPost2010PropOp43
 70
     1
102
RTVSPost2010Prop44ColorIndex
 90
        5
102
RTVSPost2010Prop44ColorRGB
 90
      255
102
RTVSPost2010PropOp44
 70
     1
102
RTVSPost2010Prop45
280
     0
102
RTVSPost2010PropOp45
 70
     1
102
RTVSPost2010Prop46
 90
       50
102
RTVSPost2010PropOp46
 70
     1
102
RTVSPost2010Prop47
 90
       50
102
RTVSPost2010PropOp47
 70
     1
102
RTVSPost2010Prop48
 90
       50
102
RTVSPost2010PropOp48
 70
     1
102
RTVSPost2010Prop49
280
     0
102
RTVSPost2010PropOp49
 70
     1
102
RTVSPost2010Prop50
 90
       50
102
RTVSPost2010PropOp50
 70
     1
102
RTVSPost2010Prop51ColorIndex
 90
      256
102
RTVSPost2010Prop51ColorRGB
 90
-16777216
102
RTVSPost2010PropOp51
 70
     0
102
RTVSPost2010Prop52
140
1.0
102
RTVSPost2010PropOp52
 70
     0
102
RTVSPost2010Prop53
 90
        2
102
RTVSPost2010PropOp53
 70
     1
102
RTVSPost2010Prop54
  1
strokes_ogs.tif
102
RTVSPost2010PropOp54
 70
     1
102
RTVSPost2010Prop55
280
     0
102
RTVSPost2010PropOp55
 70
     1
102
RTVSPost2010Prop56
140
1.0
102
RTVSPost2010PropOp56
 70
     1
102
RTVSPost2010Prop57
140
1.0
102
RTVSPost2010PropOp57
 70
     1
  0
XRECORD
  5
52E
102
{ACAD_REACTORS
330
52D
102
}
330
52D
100
AcDbXrecord
280
     1
102
RTVSPropertyOp0
 70
     1
102
RTVSPropertyOp1
 70
     1
102
RTVSPropertyOp2
 70
     1
102
RTVSPropertyOp3
 70
     1
102
RTVSPropertyOp4
 70
     1
102
RTVSPropertyOp5
 70
     1
102
RTVSPropertyOp6
 70
     1
102
RTVSPropertyOp7
 70
     1
102
RTVSPropertyOp8
 70
     1
102
RTVSPropertyOp9
 70
     1
102
RTVSPropertyOp10
 70
     1
102
RTVSPropertyOp11
 70
     1
102
RTVSPropertyOp12
 70
     1
102
RTVSPropertyOp13
 70
     1
102
RTVSPropertyOp14
 70
     1
102
RTVSPropertyOp15
 70
     1
102
RTVSPropertyOp16
 70
     1
102
RTVSPropertyOp17
 70
     1
102
RTVSPropertyOp18
 70
     1
102
RTVSPropertyOp19
 70
     1
102
RTVSPropertyOp20
 70
     1
102
RTVSPropertyOp21
 70
     1
102
RTVSPropertyOp22
 70
     1
102
RTVSPropertyOp23
 70
     1
102
RTVSPropertyOp24
 70
     1
102
RTVSPropertyOp25
 70
     1
102
RTVSPropertyOp26
 70
     1
102
RTVSPropertyOp27
 70
     1
102
RTVSPropertyOp28
 70
     1
102
RTVSPropertyOp29
 70
     1
102
RTVSPropertyOp30
 70
     1
102
RTVSPropertyOp31
 70
     1
102
RTVSPropertyOp32
 70
     1
102
RTVSPropertyOp33
 70
     1
102
RTVSPropertyOp34
 70
     1
102
RTVSPropertyOp35
 70
     1
102
RTVSPropertyOp36
 70
     1
102
RTVSPropertyOp37
 70
     1
102
RTVSPropertyOp38
 70
     1
102
RTVSPropertyOp39
 70
     1
102
RTVSPropertyOp40
 70
     1
102
RTVSPropertyOp41
 70
     1
102
RTVSPropertyOp42
 70
     1
102
RTVSPropertyOp43
 70
     1
102
RTVSPropertyOp44
 70
     1
102
RTVSPropertyOp45
 70
     1
102
RTVSPropertyOp46
 70
     1
102
RTVSPropertyOp47
 70
     1
102
RTVSPropertyOp48
 70
     1
102
RTVSPropertyOp49
 70
     1
102
RTVSPropertyOp50
 70
     1
102
RTVSPropertyOp51
 70
     0
102
RTVSPropertyOp52
 70
     0
102
RTVSPropertyOp53
 70
     1
102
RTVSPropertyOp54
 70
     1
102
RTVSPropertyOp55
 70
     1
102
RTVSPropertyOp56
 70
     1
102
RTVSPropertyOp57
 70
     1
102
RTVSPost2010Prop28
280
     0
102
RTVSPost2010PropOp28
 70
     1
102
RTVSPost2010Prop29
280
     1
102
RTVSPost2010PropOp29
 70
     1
102
RTVSPost2010Prop30
280
     1
102
RTVSPost2010PropOp30
 70
     1
102
RTVSPost2010Prop31
280
     0
102
RTVSPost2010PropOp31
 70
     1
102
RTVSPost2010Prop32
280
     0
102
RTVSPost2010PropOp32
 70
     1
102
RTVSPost2010Prop33
280
     0
102
RTVSPost2010PropOp33
 70
     1
102
RTVSPost2010Prop34
280
     0
102
RTVSPost2010PropOp34
 70
     1
102
RTVSPost2010Prop35
280
     0
102
RTVSPost2010PropOp35
 70
     1
102
RTVSPost2010Prop36
280
     0
102
RTVSPost2010PropOp36
 70
     1
102
RTVSPost2010Prop37
 90
       50
102
RTVSPost2010PropOp37
 70
     1
102
RTVSPost2010Prop38
140
0.0
102
RTVSPost2010PropOp38
 70
     1
102
RTVSPost2010Prop39
140
1.0
102
RTVSPost2010PropOp39
 70
     1
102
RTVSPost2010Prop40
 90
        0
102
RTVSPost2010PropOp40
 70
     1
102
RTVSPost2010Prop41ColorIndex
 90
       18
102
RTVSPost2010Prop41ColorRGB
 90
        0
102
RTVSPost2010PropOp41
 70
     1
102
RTVSPost2010Prop42
 90
       50
102
RTVSPost2010PropOp42
 70
     1
102
RTVSPost2010Prop43
 90
        3
102
RTVSPost2010PropOp43
 70
     1
102
RTVSPost2010Prop44ColorIndex
 90
        5
102
RTVSPost2010Prop44ColorRGB
 90
      255
102
RTVSPost2010PropOp44
 70
     1
102
RTVSPost2010Prop45
280
     0
102
RTVSPost2010PropOp45
 70
     1
102
RTVSPost2010Prop46
 90
       50
102
RTVSPost2010PropOp46
 70
     1
102
RTVSPost2010Prop47
 90
       50
102
RTVSPost2010PropOp47
 70
     1
102
RTVSPost2010Prop48
 90
       50
102
RTVSPost2010PropOp48
 70
     1
102
RTVSPost2010Prop49
280
     0
102
RTVSPost2010PropOp49
 70
     1
102
RTVSPost2010Prop50
 90
       50
102
RTVSPost2010PropOp50
 70
     1
102
RTVSPost2010Prop51ColorIndex
 90
      256
102
RTVSPost2010Prop51ColorRGB
 90
-16777216
102
RTVSPost2010PropOp51
 70
     0
102
RTVSPost2010Prop52
140
1.0
102
RTVSPost2010PropOp52
 70
     0
102
RTVSPost2010Prop53
 90
        2
102
RTVSPost2010PropOp53
 70
     1
102
RTVSPost2010Prop54
  1
strokes_ogs.tif
102
RTVSPost2010PropOp54
 70
     1
102
RTVSPost2010Prop55
280
     0
102
RTVSPost2010PropOp55
 70
     1
102
RTVSPost2010Prop56
140
1.0
102
RTVSPost2010PropOp56
 70
     1
102
RTVSPost2010Prop57
140
1.0
102
RTVSPost2010PropOp57
 70
     1
  0
XRECORD
  5
530
102
{ACAD_REACTORS
330
52F
102
}
330
52F
100
AcDbXrecord
280
     1
102
RTVSPropertyOp0
 70
     1
102
RTVSPropertyOp1
 70
     1
102
RTVSPropertyOp2
 70
     1
102
RTVSPropertyOp3
 70
     1
102
RTVSPropertyOp4
 70
     1
102
RTVSPropertyOp5
 70
     1
102
RTVSPropertyOp6
 70
     1
102
RTVSPropertyOp7
 70
     1
102
RTVSPropertyOp8
 70
     1
102
RTVSPropertyOp9
 70
     1
102
RTVSPropertyOp10
 70
     1
102
RTVSPropertyOp11
 70
     1
102
RTVSPropertyOp12
 70
     1
102
RTVSPropertyOp13
 70
     1
102
RTVSPropertyOp14
 70
     1
102
RTVSPropertyOp15
 70
     1
102
RTVSPropertyOp16
 70
     1
102
RTVSPropertyOp17
 70
     1
102
RTVSPropertyOp18
 70
     1
102
RTVSPropertyOp19
 70
     1
102
RTVSPropertyOp20
 70
     1
102
RTVSPropertyOp21
 70
     1
102
RTVSPropertyOp22
 70
     1
102
RTVSPropertyOp23
 70
     1
102
RTVSPropertyOp24
 70
     1
102
RTVSPropertyOp25
 70
     1
102
RTVSPropertyOp26
 70
     1
102
RTVSPropertyOp27
 70
     1
102
RTVSPropertyOp28
 70
     1
102
RTVSPropertyOp29
 70
     1
102
RTVSPropertyOp30
 70
     1
102
RTVSPropertyOp31
 70
     1
102
RTVSPropertyOp32
 70
     1
102
RTVSPropertyOp33
 70
     1
102
RTVSPropertyOp34
 70
     1
102
RTVSPropertyOp35
 70
     1
102
RTVSPropertyOp36
 70
     1
102
RTVSPropertyOp37
 70
     1
102
RTVSPropertyOp38
 70
     1
102
RTVSPropertyOp39
 70
     1
102
RTVSPropertyOp40
 70
     1
102
RTVSPropertyOp41
 70
     1
102
RTVSPropertyOp42
 70
     1
102
RTVSPropertyOp43
 70
     1
102
RTVSPropertyOp44
 70
     1
102
RTVSPropertyOp45
 70
     1
102
RTVSPropertyOp46
 70
     1
102
RTVSPropertyOp47
 70
     1
102
RTVSPropertyOp48
 70
     1
102
RTVSPropertyOp49
 70
     1
102
RTVSPropertyOp50
 70
     1
102
RTVSPropertyOp51
 70
     0
102
RTVSPropertyOp52
 70
     0
102
RTVSPropertyOp53
 70
     1
102
RTVSPropertyOp54
 70
     1
102
RTVSPropertyOp55
 70
     1
102
RTVSPropertyOp56
 70
     1
102
RTVSPropertyOp57
 70
     1
102
RTVSPost2010Prop28
280
     0
102
RTVSPost2010PropOp28
 70
     1
102
RTVSPost2010Prop29
280
     1
102
RTVSPost2010PropOp29
 70
     1
102
RTVSPost2010Prop30
280
     1
102
RTVSPost2010PropOp30
 70
     1
102
RTVSPost2010Prop31
280
     0
102
RTVSPost2010PropOp31
 70
     1
102
RTVSPost2010Prop32
280
     0
102
RTVSPost2010PropOp32
 70
     1
102
RTVSPost2010Prop33
280
     0
102
RTVSPost2010PropOp33
 70
     1
102
RTVSPost2010Prop34
280
     0
102
RTVSPost2010PropOp34
 70
     1
102
RTVSPost2010Prop35
280
     0
102
RTVSPost2010PropOp35
 70
     1
102
RTVSPost2010Prop36
280
     0
102
RTVSPost2010PropOp36
 70
     1
102
RTVSPost2010Prop37
 90
       50
102
RTVSPost2010PropOp37
 70
     1
102
RTVSPost2010Prop38
140
0.0
102
RTVSPost2010PropOp38
 70
     1
102
RTVSPost2010Prop39
140
1.0
102
RTVSPost2010PropOp39
 70
     1
102
RTVSPost2010Prop40
 90
        0
102
RTVSPost2010PropOp40
 70
     1
102
RTVSPost2010Prop41ColorIndex
 90
       18
102
RTVSPost2010Prop41ColorRGB
 90
        0
102
RTVSPost2010PropOp41
 70
     1
102
RTVSPost2010Prop42
 90
       50
102
RTVSPost2010PropOp42
 70
     1
102
RTVSPost2010Prop43
 90
        3
102
RTVSPost2010PropOp43
 70
     1
102
RTVSPost2010Prop44ColorIndex
 90
        5
102
RTVSPost2010Prop44ColorRGB
 90
      255
102
RTVSPost2010PropOp44
 70
     1
102
RTVSPost2010Prop45
280
     0
102
RTVSPost2010PropOp45
 70
     1
102
RTVSPost2010Prop46
 90
       50
102
RTVSPost2010PropOp46
 70
     1
102
RTVSPost2010Prop47
 90
       50
102
RTVSPost2010PropOp47
 70
     1
102
RTVSPost2010Prop48
 90
       50
102
RTVSPost2010PropOp48
 70
     1
102
RTVSPost2010Prop49
280
     0
102
RTVSPost2010PropOp49
 70
     1
102
RTVSPost2010Prop50
 90
       50
102
RTVSPost2010PropOp50
 70
     1
102
RTVSPost2010Prop51ColorIndex
 90
      256
102
RTVSPost2010Prop51ColorRGB
 90
-16777216
102
RTVSPost2010PropOp51
 70
     0
102
RTVSPost2010Prop52
140
1.0
102
RTVSPost2010PropOp52
 70
     0
102
RTVSPost2010Prop53
 90
        2
102
RTVSPost2010PropOp53
 70
     1
102
RTVSPost2010Prop54
  1
strokes_ogs.tif
102
RTVSPost2010PropOp54
 70
     1
102
RTVSPost2010Prop55
280
     0
102
RTVSPost2010PropOp55
 70
     1
102
RTVSPost2010Prop56
140
1.0
102
RTVSPost2010PropOp56
 70
     1
102
RTVSPost2010Prop57
140
1.0
102
RTVSPost2010PropOp57
 70
     1
  0
XRECORD
  5
532
102
{ACAD_REACTORS
330
531
102
}
330
531
100
AcDbXrecord
280
     1
102
RTVSPropertyOp0
 70
     1
102
RTVSPropertyOp1
 70
     1
102
RTVSPropertyOp2
 70
     1
102
RTVSPropertyOp3
 70
     1
102
RTVSPropertyOp4
 70
     1
102
RTVSPropertyOp5
 70
     1
102
RTVSPropertyOp6
 70
     1
102
RTVSPropertyOp7
 70
     1
102
RTVSPropertyOp8
 70
     1
102
RTVSPropertyOp9
 70
     1
102
RTVSPropertyOp10
 70
     1
102
RTVSPropertyOp11
 70
     1
102
RTVSPropertyOp12
 70
     1
102
RTVSPropertyOp13
 70
     1
102
RTVSPropertyOp14
 70
     1
102
RTVSPropertyOp15
 70
     1
102
RTVSPropertyOp16
 70
     1
102
RTVSPropertyOp17
 70
     1
102
RTVSPropertyOp18
 70
     1
102
RTVSPropertyOp19
 70
     1
102
RTVSPropertyOp20
 70
     1
102
RTVSPropertyOp21
 70
     1
102
RTVSPropertyOp22
 70
     1
102
RTVSPropertyOp23
 70
     1
102
RTVSPropertyOp24
 70
     1
102
RTVSPropertyOp25
 70
     1
102
RTVSPropertyOp26
 70
     1
102
RTVSPropertyOp27
 70
     1
102
RTVSPropertyOp28
 70
     1
102
RTVSPropertyOp29
 70
     1
102
RTVSPropertyOp30
 70
     1
102
RTVSPropertyOp31
 70
     1
102
RTVSPropertyOp32
 70
     1
102
RTVSPropertyOp33
 70
     1
102
RTVSPropertyOp34
 70
     1
102
RTVSPropertyOp35
 70
     1
102
RTVSPropertyOp36
 70
     1
102
RTVSPropertyOp37
 70
     1
102
RTVSPropertyOp38
 70
     1
102
RTVSPropertyOp39
 70
     1
102
RTVSPropertyOp40
 70
     1
102
RTVSPropertyOp41
 70
     1
102
RTVSPropertyOp42
 70
     1
102
RTVSPropertyOp43
 70
     1
102
RTVSPropertyOp44
 70
     1
102
RTVSPropertyOp45
 70
     1
102
RTVSPropertyOp46
 70
     1
102
RTVSPropertyOp47
 70
     1
102
RTVSPropertyOp48
 70
     1
102
RTVSPropertyOp49
 70
     1
102
RTVSPropertyOp50
 70
     1
102
RTVSPropertyOp51
 70
     0
102
RTVSPropertyOp52
 70
     0
102
RTVSPropertyOp53
 70
     1
102
RTVSPropertyOp54
 70
     1
102
RTVSPropertyOp55
 70
     1
102
RTVSPropertyOp56
 70
     1
102
RTVSPropertyOp57
 70
     1
102
RTVSPost2010Prop28
280
     0
102
RTVSPost2010PropOp28
 70
     1
102
RTVSPost2010Prop29
280
     1
102
RTVSPost2010PropOp29
 70
     1
102
RTVSPost2010Prop30
280
     1
102
RTVSPost2010PropOp30
 70
     1
102
RTVSPost2010Prop31
280
     0
102
RTVSPost2010PropOp31
 70
     1
102
RTVSPost2010Prop32
280
     0
102
RTVSPost2010PropOp32
 70
     1
102
RTVSPost2010Prop33
280
     0
102
RTVSPost2010PropOp33
 70
     1
102
RTVSPost2010Prop34
280
     0
102
RTVSPost2010PropOp34
 70
     1
102
RTVSPost2010Prop35
280
     0
102
RTVSPost2010PropOp35
 70
     1
102
RTVSPost2010Prop36
280
     0
102
RTVSPost2010PropOp36
 70
     1
102
RTVSPost2010Prop37
 90
       50
102
RTVSPost2010PropOp37
 70
     1
102
RTVSPost2010Prop38
140
0.0
102
RTVSPost2010PropOp38
 70
     1
102
RTVSPost2010Prop39
140
1.0
102
RTVSPost2010PropOp39
 70
     1
102
RTVSPost2010Prop40
 90
        0
102
RTVSPost2010PropOp40
 70
     1
102
RTVSPost2010Prop41ColorIndex
 90
       18
102
RTVSPost2010Prop41ColorRGB
 90
        0
102
RTVSPost2010PropOp41
 70
     1
102
RTVSPost2010Prop42
 90
       50
102
RTVSPost2010PropOp42
 70
     1
102
RTVSPost2010Prop43
 90
        3
102
RTVSPost2010PropOp43
 70
     1
102
RTVSPost2010Prop44ColorIndex
 90
        5
102
RTVSPost2010Prop44ColorRGB
 90
      255
102
RTVSPost2010PropOp44
 70
     1
102
RTVSPost2010Prop45
280
     0
102
RTVSPost2010PropOp45
 70
     1
102
RTVSPost2010Prop46
 90
       50
102
RTVSPost2010PropOp46
 70
     1
102
RTVSPost2010Prop47
 90
       50
102
RTVSPost2010PropOp47
 70
     1
102
RTVSPost2010Prop48
 90
       50
102
RTVSPost2010PropOp48
 70
     1
102
RTVSPost2010Prop49
280
     0
102
RTVSPost2010PropOp49
 70
     1
102
RTVSPost2010Prop50
 90
       50
102
RTVSPost2010PropOp50
 70
     1
102
RTVSPost2010Prop51ColorIndex
 90
      256
102
RTVSPost2010Prop51ColorRGB
 90
-16777216
102
RTVSPost2010PropOp51
 70
     0
102
RTVSPost2010Prop52
140
1.0
102
RTVSPost2010PropOp52
 70
     0
102
RTVSPost2010Prop53
 90
        2
102
RTVSPost2010PropOp53
 70
     1
102
RTVSPost2010Prop54
  1
strokes_ogs.tif
102
RTVSPost2010PropOp54
 70
     1
102
RTVSPost2010Prop55
280
     0
102
RTVSPost2010PropOp55
 70
     1
102
RTVSPost2010Prop56
140
1.0
102
RTVSPost2010PropOp56
 70
     1
102
RTVSPost2010Prop57
140
1.0
102
RTVSPost2010PropOp57
 70
     1
  0
XRECORD
  5
534
102
{ACAD_REACTORS
330
533
102
}
330
533
100
AcDbXrecord
280
     1
102
RTVSPropertyOp0
 70
     1
102
RTVSPropertyOp1
 70
     1
102
RTVSPropertyOp2
 70
     1
102
RTVSPropertyOp3
 70
     1
102
RTVSPropertyOp4
 70
     1
102
RTVSPropertyOp5
 70
     1
102
RTVSPropertyOp6
 70
     1
102
RTVSPropertyOp7
 70
     1
102
RTVSPropertyOp8
 70
     1
102
RTVSPropertyOp9
 70
     1
102
RTVSPropertyOp10
 70
     1
102
RTVSPropertyOp11
 70
     1
102
RTVSPropertyOp12
 70
     1
102
RTVSPropertyOp13
 70
     1
102
RTVSPropertyOp14
 70
     1
102
RTVSPropertyOp15
 70
     1
102
RTVSPropertyOp16
 70
     1
102
RTVSPropertyOp17
 70
     1
102
RTVSPropertyOp18
 70
     1
102
RTVSPropertyOp19
 70
     1
102
RTVSPropertyOp20
 70
     1
102
RTVSPropertyOp21
 70
     1
102
RTVSPropertyOp22
 70
     1
102
RTVSPropertyOp23
 70
     1
102
RTVSPropertyOp24
 70
     1
102
RTVSPropertyOp25
 70
     1
102
RTVSPropertyOp26
 70
     1
102
RTVSPropertyOp27
 70
     1
102
RTVSPropertyOp28
 70
     1
102
RTVSPropertyOp29
 70
     1
102
RTVSPropertyOp30
 70
     1
102
RTVSPropertyOp31
 70
     1
102
RTVSPropertyOp32
 70
     1
102
RTVSPropertyOp33
 70
     1
102
RTVSPropertyOp34
 70
     1
102
RTVSPropertyOp35
 70
     1
102
RTVSPropertyOp36
 70
     1
102
RTVSPropertyOp37
 70
     1
102
RTVSPropertyOp38
 70
     1
102
RTVSPropertyOp39
 70
     1
102
RTVSPropertyOp40
 70
     1
102
RTVSPropertyOp41
 70
     1
102
RTVSPropertyOp42
 70
     1
102
RTVSPropertyOp43
 70
     1
102
RTVSPropertyOp44
 70
     1
102
RTVSPropertyOp45
 70
     1
102
RTVSPropertyOp46
 70
     1
102
RTVSPropertyOp47
 70
     1
102
RTVSPropertyOp48
 70
     1
102
RTVSPropertyOp49
 70
     1
102
RTVSPropertyOp50
 70
     1
102
RTVSPropertyOp51
 70
     0
102
RTVSPropertyOp52
 70
     0
102
RTVSPropertyOp53
 70
     1
102
RTVSPropertyOp54
 70
     1
102
RTVSPropertyOp55
 70
     1
102
RTVSPropertyOp56
 70
     1
102
RTVSPropertyOp57
 70
     1
102
RTVSPost2010Prop28
280
     0
102
RTVSPost2010PropOp28
 70
     1
102
RTVSPost2010Prop29
280
     1
102
RTVSPost2010PropOp29
 70
     1
102
RTVSPost2010Prop30
280
     1
102
RTVSPost2010PropOp30
 70
     1
102
RTVSPost2010Prop31
280
     0
102
RTVSPost2010PropOp31
 70
     1
102
RTVSPost2010Prop32
280
     0
102
RTVSPost2010PropOp32
 70
     1
102
RTVSPost2010Prop33
280
     0
102
RTVSPost2010PropOp33
 70
     1
102
RTVSPost2010Prop34
280
     0
102
RTVSPost2010PropOp34
 70
     1
102
RTVSPost2010Prop35
280
     0
102
RTVSPost2010PropOp35
 70
     1
102
RTVSPost2010Prop36
280
     0
102
RTVSPost2010PropOp36
 70
     1
102
RTVSPost2010Prop37
 90
       50
102
RTVSPost2010PropOp37
 70
     1
102
RTVSPost2010Prop38
140
0.0
102
RTVSPost2010PropOp38
 70
     1
102
RTVSPost2010Prop39
140
1.0
102
RTVSPost2010PropOp39
 70
     1
102
RTVSPost2010Prop40
 90
        0
102
RTVSPost2010PropOp40
 70
     1
102
RTVSPost2010Prop41ColorIndex
 90
       18
102
RTVSPost2010Prop41ColorRGB
 90
        0
102
RTVSPost2010PropOp41
 70
     1
102
RTVSPost2010Prop42
 90
       50
102
RTVSPost2010PropOp42
 70
     1
102
RTVSPost2010Prop43
 90
        3
102
RTVSPost2010PropOp43
 70
     1
102
RTVSPost2010Prop44ColorIndex
 90
        5
102
RTVSPost2010Prop44ColorRGB
 90
      255
102
RTVSPost2010PropOp44
 70
     1
102
RTVSPost2010Prop45
280
     0
102
RTVSPost2010PropOp45
 70
     1
102
RTVSPost2010Prop46
 90
       50
102
RTVSPost2010PropOp46
 70
     1
102
RTVSPost2010Prop47
 90
       50
102
RTVSPost2010PropOp47
 70
     1
102
RTVSPost2010Prop48
 90
       50
102
RTVSPost2010PropOp48
 70
     1
102
RTVSPost2010Prop49
280
     0
102
RTVSPost2010PropOp49
 70
     1
102
RTVSPost2010Prop50
 90
       50
102
RTVSPost2010PropOp50
 70
     1
102
RTVSPost2010Prop51ColorIndex
 90
      256
102
RTVSPost2010Prop51ColorRGB
 90
-16777216
102
RTVSPost2010PropOp51
 70
     0
102
RTVSPost2010Prop52
140
1.0
102
RTVSPost2010PropOp52
 70
     0
102
RTVSPost2010Prop53
 90
        2
102
RTVSPost2010PropOp53
 70
     1
102
RTVSPost2010Prop54
  1
strokes_ogs.tif
102
RTVSPost2010PropOp54
 70
     1
102
RTVSPost2010Prop55
280
     0
102
RTVSPost2010PropOp55
 70
     1
102
RTVSPost2010Prop56
140
1.0
102
RTVSPost2010PropOp56
 70
     1
102
RTVSPost2010Prop57
140
1.0
102
RTVSPost2010PropOp57
 70
     1
  0
XRECORD
  5
53A
102
{ACAD_REACTORS
330
539
102
}
330
539
100
AcDbXrecord
280
     1
102
RTVSPropertyOp0
 70
     1
102
RTVSPropertyOp1
 70
     1
102
RTVSPropertyOp2
 70
     1
102
RTVSPropertyOp3
 70
     1
102
RTVSPropertyOp4
 70
     1
102
RTVSPropertyOp5
 70
     1
102
RTVSPropertyOp6
 70
     1
102
RTVSPropertyOp7
 70
     1
102
RTVSPropertyOp8
 70
     1
102
RTVSPropertyOp9
 70
     1
102
RTVSPropertyOp10
 70
     1
102
RTVSPropertyOp11
 70
     1
102
RTVSPropertyOp12
 70
     1
102
RTVSPropertyOp13
 70
     1
102
RTVSPropertyOp14
 70
     1
102
RTVSPropertyOp15
 70
     1
102
RTVSPropertyOp16
 70
     1
102
RTVSPropertyOp17
 70
     1
102
RTVSPropertyOp18
 70
     1
102
RTVSPropertyOp19
 70
     1
102
RTVSPropertyOp20
 70
     1
102
RTVSPropertyOp21
 70
     1
102
RTVSPropertyOp22
 70
     1
102
RTVSPropertyOp23
 70
     1
102
RTVSPropertyOp24
 70
     1
102
RTVSPropertyOp25
 70
     1
102
RTVSPropertyOp26
 70
     1
102
RTVSPropertyOp27
 70
     1
102
RTVSPropertyOp28
 70
     1
102
RTVSPropertyOp29
 70
     1
102
RTVSPropertyOp30
 70
     1
102
RTVSPropertyOp31
 70
     1
102
RTVSPropertyOp32
 70
     1
102
RTVSPropertyOp33
 70
     1
102
RTVSPropertyOp34
 70
     1
102
RTVSPropertyOp35
 70
     1
102
RTVSPropertyOp36
 70
     1
102
RTVSPropertyOp37
 70
     1
102
RTVSPropertyOp38
 70
     1
102
RTVSPropertyOp39
 70
     1
102
RTVSPropertyOp40
 70
     1
102
RTVSPropertyOp41
 70
     1
102
RTVSPropertyOp42
 70
     1
102
RTVSPropertyOp43
 70
     1
102
RTVSPropertyOp44
 70
     1
102
RTVSPropertyOp45
 70
     1
102
RTVSPropertyOp46
 70
     1
102
RTVSPropertyOp47
 70
     1
102
RTVSPropertyOp48
 70
     1
102
RTVSPropertyOp49
 70
     1
102
RTVSPropertyOp50
 70
     1
102
RTVSPropertyOp51
 70
     0
102
RTVSPropertyOp52
 70
     0
102
RTVSPropertyOp53
 70
     1
102
RTVSPropertyOp54
 70
     1
102
RTVSPropertyOp55
 70
     1
102
RTVSPropertyOp56
 70
     1
102
RTVSPropertyOp57
 70
     1
102
RTVSPost2010Prop28
280
     0
102
RTVSPost2010PropOp28
 70
     1
102
RTVSPost2010Prop29
280
     1
102
RTVSPost2010PropOp29
 70
     1
102
RTVSPost2010Prop30
280
     1
102
RTVSPost2010PropOp30
 70
     1
102
RTVSPost2010Prop31
280
     0
102
RTVSPost2010PropOp31
 70
     1
102
RTVSPost2010Prop32
280
     0
102
RTVSPost2010PropOp32
 70
     1
102
RTVSPost2010Prop33
280
     0
102
RTVSPost2010PropOp33
 70
     1
102
RTVSPost2010Prop34
280
     0
102
RTVSPost2010PropOp34
 70
     1
102
RTVSPost2010Prop35
280
     0
102
RTVSPost2010PropOp35
 70
     1
102
RTVSPost2010Prop36
280
     0
102
RTVSPost2010PropOp36
 70
     1
102
RTVSPost2010Prop37
 90
       50
102
RTVSPost2010PropOp37
 70
     1
102
RTVSPost2010Prop38
140
0.0
102
RTVSPost2010PropOp38
 70
     1
102
RTVSPost2010Prop39
140
1.0
102
RTVSPost2010PropOp39
 70
     1
102
RTVSPost2010Prop40
 90
        0
102
RTVSPost2010PropOp40
 70
     1
102
RTVSPost2010Prop41ColorIndex
 90
       18
102
RTVSPost2010Prop41ColorRGB
 90
        0
102
RTVSPost2010PropOp41
 70
     1
102
RTVSPost2010Prop42
 90
       50
102
RTVSPost2010PropOp42
 70
     1
102
RTVSPost2010Prop43
 90
        3
102
RTVSPost2010PropOp43
 70
     1
102
RTVSPost2010Prop44ColorIndex
 90
        5
102
RTVSPost2010Prop44ColorRGB
 90
      255
102
RTVSPost2010PropOp44
 70
     1
102
RTVSPost2010Prop45
280
     0
102
RTVSPost2010PropOp45
 70
     1
102
RTVSPost2010Prop46
 90
       50
102
RTVSPost2010PropOp46
 70
     1
102
RTVSPost2010Prop47
 90
       50
102
RTVSPost2010PropOp47
 70
     1
102
RTVSPost2010Prop48
 90
       50
102
RTVSPost2010PropOp48
 70
     1
102
RTVSPost2010Prop49
280
     0
102
RTVSPost2010PropOp49
 70
     1
102
RTVSPost2010Prop50
 90
       50
102
RTVSPost2010PropOp50
 70
     1
102
RTVSPost2010Prop51ColorIndex
 90
      256
102
RTVSPost2010Prop51ColorRGB
 90
-16777216
102
RTVSPost2010PropOp51
 70
     0
102
RTVSPost2010Prop52
140
1.0
102
RTVSPost2010PropOp52
 70
     0
102
RTVSPost2010Prop53
 90
        2
102
RTVSPost2010PropOp53
 70
     1
102
RTVSPost2010Prop54
  1
strokes_ogs.tif
102
RTVSPost2010PropOp54
 70
     1
102
RTVSPost2010Prop55
280
     0
102
RTVSPost2010PropOp55
 70
     1
102
RTVSPost2010Prop56
140
1.0
102
RTVSPost2010PropOp56
 70
     1
102
RTVSPost2010Prop57
140
1.0
102
RTVSPost2010PropOp57
 70
     1
  0
XRECORD
  5
54E
102
{ACAD_REACTORS
330
54D
102
}
330
54D
100
AcDbXrecord
280
     1
102
RTVSPropertyOp0
 70
     0
102
RTVSPropertyOp1
 70
     0
102
RTVSPropertyOp2
 70
     0
102
RTVSPropertyOp3
 70
     0
102
RTVSPropertyOp4
 70
     0
102
RTVSPropertyOp5
 70
     0
102
RTVSPropertyOp6
 70
     0
102
RTVSPropertyOp7
 70
     0
102
RTVSPropertyOp8
 70
     0
102
RTVSPropertyOp9
 70
     0
102
RTVSPropertyOp10
 70
     0
102
RTVSPropertyOp11
 70
     0
102
RTVSPropertyOp12
 70
     0
102
RTVSPropertyOp13
 70
     0
102
RTVSPropertyOp14
 70
     0
102
RTVSPropertyOp15
 70
     0
102
RTVSPropertyOp16
 70
     0
102
RTVSPropertyOp17
 70
     0
102
RTVSPropertyOp18
 70
     0
102
RTVSPropertyOp19
 70
     0
102
RTVSPropertyOp20
 70
     0
102
RTVSPropertyOp21
 70
     0
102
RTVSPropertyOp22
 70
     0
102
RTVSPropertyOp23
 70
     0
102
RTVSPropertyOp24
 70
     0
102
RTVSPropertyOp25
 70
     0
102
RTVSPropertyOp26
 70
     0
102
RTVSPropertyOp27
 70
     0
102
RTVSPropertyOp28
 70
     1
102
RTVSPropertyOp29
 70
     1
102
RTVSPropertyOp30
 70
     1
102
RTVSPropertyOp31
 70
     1
102
RTVSPropertyOp32
 70
     1
102
RTVSPropertyOp33
 70
     1
102
RTVSPropertyOp34
 70
     1
102
RTVSPropertyOp35
 70
     1
102
RTVSPropertyOp36
 70
     1
102
RTVSPropertyOp37
 70
     1
102
RTVSPropertyOp38
 70
     1
102
RTVSPropertyOp39
 70
     1
102
RTVSPropertyOp40
 70
     1
102
RTVSPropertyOp41
 70
     1
102
RTVSPropertyOp42
 70
     1
102
RTVSPropertyOp43
 70
     1
102
RTVSPropertyOp44
 70
     1
102
RTVSPropertyOp45
 70
     1
102
RTVSPropertyOp46
 70
     1
102
RTVSPropertyOp47
 70
     1
102
RTVSPropertyOp48
 70
     1
102
RTVSPropertyOp49
 70
     1
102
RTVSPropertyOp50
 70
     1
102
RTVSPropertyOp51
 70
     0
102
RTVSPropertyOp52
 70
     0
102
RTVSPropertyOp53
 70
     1
102
RTVSPropertyOp54
 70
     1
102
RTVSPropertyOp55
 70
     1
102
RTVSPropertyOp56
 70
     1
102
RTVSPropertyOp57
 70
     1
102
RTVSPost2010Prop28
280
     0
102
RTVSPost2010PropOp28
 70
     1
102
RTVSPost2010Prop29
280
     1
102
RTVSPost2010PropOp29
 70
     1
102
RTVSPost2010Prop30
280
     1
102
RTVSPost2010PropOp30
 70
     1
102
RTVSPost2010Prop31
280
     0
102
RTVSPost2010PropOp31
 70
     1
102
RTVSPost2010Prop32
280
     0
102
RTVSPost2010PropOp32
 70
     1
102
RTVSPost2010Prop33
280
     0
102
RTVSPost2010PropOp33
 70
     1
102
RTVSPost2010Prop34
280
     0
102
RTVSPost2010PropOp34
 70
     1
102
RTVSPost2010Prop35
280
     0
102
RTVSPost2010PropOp35
 70
     1
102
RTVSPost2010Prop36
280
     0
102
RTVSPost2010PropOp36
 70
     1
102
RTVSPost2010Prop37
 90
       50
102
RTVSPost2010PropOp37
 70
     1
102
RTVSPost2010Prop38
140
0.0
102
RTVSPost2010PropOp38
 70
     1
102
RTVSPost2010Prop39
140
1.0
102
RTVSPost2010PropOp39
 70
     1
102
RTVSPost2010Prop40
 90
        0
102
RTVSPost2010PropOp40
 70
     1
102
RTVSPost2010Prop41ColorIndex
 90
       18
102
RTVSPost2010Prop41ColorRGB
 90
        0
102
RTVSPost2010PropOp41
 70
     1
102
RTVSPost2010Prop42
 90
       50
102
RTVSPost2010PropOp42
 70
     1
102
RTVSPost2010Prop43
 90
        3
102
RTVSPost2010PropOp43
 70
     1
102
RTVSPost2010Prop44ColorIndex
 90
        5
102
RTVSPost2010Prop44ColorRGB
 90
      255
102
RTVSPost2010PropOp44
 70
     1
102
RTVSPost2010Prop45
280
     0
102
RTVSPost2010PropOp45
 70
     1
102
RTVSPost2010Prop46
 90
       50
102
RTVSPost2010PropOp46
 70
     1
102
RTVSPost2010Prop47
 90
       50
102
RTVSPost2010PropOp47
 70
     1
102
RTVSPost2010Prop48
 90
       50
102
RTVSPost2010PropOp48
 70
     1
102
RTVSPost2010Prop49
280
     0
102
RTVSPost2010PropOp49
 70
     1
102
RTVSPost2010Prop50
 90
       50
102
RTVSPost2010PropOp50
 70
     1
102
RTVSPost2010Prop51ColorIndex
 90
      256
102
RTVSPost2010Prop51ColorRGB
 90
-16777216
102
RTVSPost2010PropOp51
 70
     0
102
RTVSPost2010Prop52
140
1.0
102
RTVSPost2010PropOp52
 70
     0
102
RTVSPost2010Prop53
 90
        2
102
RTVSPost2010PropOp53
 70
     1
102
RTVSPost2010Prop54
  1
strokes_ogs.tif
102
RTVSPost2010PropOp54
 70
     1
102
RTVSPost2010Prop55
280
     0
102
RTVSPost2010PropOp55
 70
     1
102
RTVSPost2010Prop56
140
1.0
102
RTVSPost2010PropOp56
 70
     1
102
RTVSPost2010Prop57
140
1.0
102
RTVSPost2010PropOp57
 70
     1
  0
XRECORD
  5
548
102
{ACAD_REACTORS
330
547
102
}
330
547
100
AcDbXrecord
280
     1
102
RTVSPropertyOp0
 70
     1
102
RTVSPropertyOp1
 70
     1
102
RTVSPropertyOp2
 70
     1
102
RTVSPropertyOp3
 70
     1
102
RTVSPropertyOp4
 70
     1
102
RTVSPropertyOp5
 70
     1
102
RTVSPropertyOp6
 70
     1
102
RTVSPropertyOp7
 70
     1
102
RTVSPropertyOp8
 70
     1
102
RTVSPropertyOp9
 70
     1
102
RTVSPropertyOp10
 70
     1
102
RTVSPropertyOp11
 70
     1
102
RTVSPropertyOp12
 70
     1
102
RTVSPropertyOp13
 70
     1
102
RTVSPropertyOp14
 70
     1
102
RTVSPropertyOp15
 70
     1
102
RTVSPropertyOp16
 70
     1
102
RTVSPropertyOp17
 70
     1
102
RTVSPropertyOp18
 70
     1
102
RTVSPropertyOp19
 70
     1
102
RTVSPropertyOp20
 70
     1
102
RTVSPropertyOp21
 70
     1
102
RTVSPropertyOp22
 70
     1
102
RTVSPropertyOp23
 70
     1
102
RTVSPropertyOp24
 70
     1
102
RTVSPropertyOp25
 70
     1
102
RTVSPropertyOp26
 70
     1
102
RTVSPropertyOp27
 70
     1
102
RTVSPropertyOp28
 70
     1
102
RTVSPropertyOp29
 70
     1
102
RTVSPropertyOp30
 70
     1
102
RTVSPropertyOp31
 70
     1
102
RTVSPropertyOp32
 70
     1
102
RTVSPropertyOp33
 70
     1
102
RTVSPropertyOp34
 70
     1
102
RTVSPropertyOp35
 70
     1
102
RTVSPropertyOp36
 70
     1
102
RTVSPropertyOp37
 70
     1
102
RTVSPropertyOp38
 70
     1
102
RTVSPropertyOp39
 70
     1
102
RTVSPropertyOp40
 70
     1
102
RTVSPropertyOp41
 70
     1
102
RTVSPropertyOp42
 70
     1
102
RTVSPropertyOp43
 70
     1
102
RTVSPropertyOp44
 70
     1
102
RTVSPropertyOp45
 70
     1
102
RTVSPropertyOp46
 70
     1
102
RTVSPropertyOp47
 70
     1
102
RTVSPropertyOp48
 70
     1
102
RTVSPropertyOp49
 70
     1
102
RTVSPropertyOp50
 70
     1
102
RTVSPropertyOp51
 70
     0
102
RTVSPropertyOp52
 70
     0
102
RTVSPropertyOp53
 70
     1
102
RTVSPropertyOp54
 70
     1
102
RTVSPropertyOp55
 70
     1
102
RTVSPropertyOp56
 70
     1
102
RTVSPropertyOp57
 70
     1
102
RTVSPost2010Prop28
280
     0
102
RTVSPost2010PropOp28
 70
     1
102
RTVSPost2010Prop29
280
     1
102
RTVSPost2010PropOp29
 70
     1
102
RTVSPost2010Prop30
280
     1
102
RTVSPost2010PropOp30
 70
     1
102
RTVSPost2010Prop31
280
     0
102
RTVSPost2010PropOp31
 70
     1
102
RTVSPost2010Prop32
280
     0
102
RTVSPost2010PropOp32
 70
     1
102
RTVSPost2010Prop33
280
     0
102
RTVSPost2010PropOp33
 70
     1
102
RTVSPost2010Prop34
280
     0
102
RTVSPost2010PropOp34
 70
     1
102
RTVSPost2010Prop35
280
     0
102
RTVSPost2010PropOp35
 70
     1
102
RTVSPost2010Prop36
280
     0
102
RTVSPost2010PropOp36
 70
     1
102
RTVSPost2010Prop37
 90
       50
102
RTVSPost2010PropOp37
 70
     1
102
RTVSPost2010Prop38
140
0.0
102
RTVSPost2010PropOp38
 70
     1
102
RTVSPost2010Prop39
140
1.0
102
RTVSPost2010PropOp39
 70
     1
102
RTVSPost2010Prop40
 90
        0
102
RTVSPost2010PropOp40
 70
     1
102
RTVSPost2010Prop41ColorIndex
 90
       18
102
RTVSPost2010Prop41ColorRGB
 90
        0
102
RTVSPost2010PropOp41
 70
     1
102
RTVSPost2010Prop42
 90
       50
102
RTVSPost2010PropOp42
 70
     1
102
RTVSPost2010Prop43
 90
        3
102
RTVSPost2010PropOp43
 70
     1
102
RTVSPost2010Prop44ColorIndex
 90
        5
102
RTVSPost2010Prop44ColorRGB
 90
      255
102
RTVSPost2010PropOp44
 70
     1
102
RTVSPost2010Prop45
280
     0
102
RTVSPost2010PropOp45
 70
     1
102
RTVSPost2010Prop46
 90
       50
102
RTVSPost2010PropOp46
 70
     1
102
RTVSPost2010Prop47
 90
       50
102
RTVSPost2010PropOp47
 70
     1
102
RTVSPost2010Prop48
 90
       50
102
RTVSPost2010PropOp48
 70
     1
102
RTVSPost2010Prop49
280
     0
102
RTVSPost2010PropOp49
 70
     1
102
RTVSPost2010Prop50
 90
       50
102
RTVSPost2010PropOp50
 70
     1
102
RTVSPost2010Prop51ColorIndex
 90
      256
102
RTVSPost2010Prop51ColorRGB
 90
-16777216
102
RTVSPost2010PropOp51
 70
     0
102
RTVSPost2010Prop52
140
1.0
102
RTVSPost2010PropOp52
 70
     0
102
RTVSPost2010Prop53
 90
        2
102
RTVSPost2010PropOp53
 70
     1
102
RTVSPost2010Prop54
  1
strokes_ogs.tif
102
RTVSPost2010PropOp54
 70
     1
102
RTVSPost2010Prop55
280
     0
102
RTVSPost2010PropOp55
 70
     1
102
RTVSPost2010Prop56
140
1.0
102
RTVSPost2010PropOp56
 70
     1
102
RTVSPost2010Prop57
140
1.0
102
RTVSPost2010PropOp57
 70
     1
  0
XRECORD
  5
550
102
{ACAD_REACTORS
330
54F
102
}
330
54F
100
AcDbXrecord
280
     1
102
RTVSPropertyOp0
 70
     0
102
RTVSPropertyOp1
 70
     0
102
RTVSPropertyOp2
 70
     0
102
RTVSPropertyOp3
 70
     0
102
RTVSPropertyOp4
 70
     0
102
RTVSPropertyOp5
 70
     0
102
RTVSPropertyOp6
 70
     0
102
RTVSPropertyOp7
 70
     0
102
RTVSPropertyOp8
 70
     0
102
RTVSPropertyOp9
 70
     0
102
RTVSPropertyOp10
 70
     0
102
RTVSPropertyOp11
 70
     0
102
RTVSPropertyOp12
 70
     0
102
RTVSPropertyOp13
 70
     0
102
RTVSPropertyOp14
 70
     0
102
RTVSPropertyOp15
 70
     0
102
RTVSPropertyOp16
 70
     0
102
RTVSPropertyOp17
 70
     0
102
RTVSPropertyOp18
 70
     0
102
RTVSPropertyOp19
 70
     0
102
RTVSPropertyOp20
 70
     0
102
RTVSPropertyOp21
 70
     0
102
RTVSPropertyOp22
 70
     0
102
RTVSPropertyOp23
 70
     0
102
RTVSPropertyOp24
 70
     0
102
RTVSPropertyOp25
 70
     0
102
RTVSPropertyOp26
 70
     0
102
RTVSPropertyOp27
 70
     0
102
RTVSPropertyOp28
 70
     1
102
RTVSPropertyOp29
 70
     1
102
RTVSPropertyOp30
 70
     1
102
RTVSPropertyOp31
 70
     1
102
RTVSPropertyOp32
 70
     1
102
RTVSPropertyOp33
 70
     1
102
RTVSPropertyOp34
 70
     1
102
RTVSPropertyOp35
 70
     1
102
RTVSPropertyOp36
 70
     1
102
RTVSPropertyOp37
 70
     1
102
RTVSPropertyOp38
 70
     1
102
RTVSPropertyOp39
 70
     1
102
RTVSPropertyOp40
 70
     1
102
RTVSPropertyOp41
 70
     1
102
RTVSPropertyOp42
 70
     1
102
RTVSPropertyOp43
 70
     1
102
RTVSPropertyOp44
 70
     1
102
RTVSPropertyOp45
 70
     1
102
RTVSPropertyOp46
 70
     1
102
RTVSPropertyOp47
 70
     1
102
RTVSPropertyOp48
 70
     1
102
RTVSPropertyOp49
 70
     1
102
RTVSPropertyOp50
 70
     1
102
RTVSPropertyOp51
 70
     0
102
RTVSPropertyOp52
 70
     0
102
RTVSPropertyOp53
 70
     1
102
RTVSPropertyOp54
 70
     1
102
RTVSPropertyOp55
 70
     1
102
RTVSPropertyOp56
 70
     1
102
RTVSPropertyOp57
 70
     1
102
RTVSPost2010Prop28
280
     0
102
RTVSPost2010PropOp28
 70
     1
102
RTVSPost2010Prop29
280
     1
102
RTVSPost2010PropOp29
 70
     1
102
RTVSPost2010Prop30
280
     1
102
RTVSPost2010PropOp30
 70
     1
102
RTVSPost2010Prop31
280
     0
102
RTVSPost2010PropOp31
 70
     1
102
RTVSPost2010Prop32
280
     0
102
RTVSPost2010PropOp32
 70
     1
102
RTVSPost2010Prop33
280
     0
102
RTVSPost2010PropOp33
 70
     1
102
RTVSPost2010Prop34
280
     0
102
RTVSPost2010PropOp34
 70
     1
102
RTVSPost2010Prop35
280
     0
102
RTVSPost2010PropOp35
 70
     1
102
RTVSPost2010Prop36
280
     0
102
RTVSPost2010PropOp36
 70
     1
102
RTVSPost2010Prop37
 90
       50
102
RTVSPost2010PropOp37
 70
     1
102
RTVSPost2010Prop38
140
0.0
102
RTVSPost2010PropOp38
 70
     1
102
RTVSPost2010Prop39
140
1.0
102
RTVSPost2010PropOp39
 70
     1
102
RTVSPost2010Prop40
 90
        0
102
RTVSPost2010PropOp40
 70
     1
102
RTVSPost2010Prop41ColorIndex
 90
       18
102
RTVSPost2010Prop41ColorRGB
 90
        0
102
RTVSPost2010PropOp41
 70
     1
102
RTVSPost2010Prop42
 90
       50
102
RTVSPost2010PropOp42
 70
     1
102
RTVSPost2010Prop43
 90
        3
102
RTVSPost2010PropOp43
 70
     1
102
RTVSPost2010Prop44ColorIndex
 90
        5
102
RTVSPost2010Prop44ColorRGB
 90
      255
102
RTVSPost2010PropOp44
 70
     1
102
RTVSPost2010Prop45
280
     0
102
RTVSPost2010PropOp45
 70
     1
102
RTVSPost2010Prop46
 90
       50
102
RTVSPost2010PropOp46
 70
     1
102
RTVSPost2010Prop47
 90
       50
102
RTVSPost2010PropOp47
 70
     1
102
RTVSPost2010Prop48
 90
       50
102
RTVSPost2010PropOp48
 70
     1
102
RTVSPost2010Prop49
280
     0
102
RTVSPost2010PropOp49
 70
     1
102
RTVSPost2010Prop50
 90
       50
102
RTVSPost2010PropOp50
 70
     1
102
RTVSPost2010Prop51ColorIndex
 90
      256
102
RTVSPost2010Prop51ColorRGB
 90
-16777216
102
RTVSPost2010PropOp51
 70
     0
102
RTVSPost2010Prop52
140
1.0
102
RTVSPost2010PropOp52
 70
     0
102
RTVSPost2010Prop53
 90
        2
102
RTVSPost2010PropOp53
 70
     1
102
RTVSPost2010Prop54
  1
strokes_ogs.tif
102
RTVSPost2010PropOp54
 70
     1
102
RTVSPost2010Prop55
280
     0
102
RTVSPost2010PropOp55
 70
     1
102
RTVSPost2010Prop56
140
1.0
102
RTVSPost2010PropOp56
 70
     1
102
RTVSPost2010Prop57
140
1.0
102
RTVSPost2010PropOp57
 70
     1
  0
XRECORD
  5
53E
102
{ACAD_REACTORS
330
53D
102
}
330
53D
100
AcDbXrecord
280
     1
102
RTVSPropertyOp0
 70
     1
102
RTVSPropertyOp1
 70
     1
102
RTVSPropertyOp2
 70
     1
102
RTVSPropertyOp3
 70
     1
102
RTVSPropertyOp4
 70
     1
102
RTVSPropertyOp5
 70
     1
102
RTVSPropertyOp6
 70
     1
102
RTVSPropertyOp7
 70
     1
102
RTVSPropertyOp8
 70
     1
102
RTVSPropertyOp9
 70
     1
102
RTVSPropertyOp10
 70
     1
102
RTVSPropertyOp11
 70
     1
102
RTVSPropertyOp12
 70
     1
102
RTVSPropertyOp13
 70
     1
102
RTVSPropertyOp14
 70
     1
102
RTVSPropertyOp15
 70
     1
102
RTVSPropertyOp16
 70
     1
102
RTVSPropertyOp17
 70
     1
102
RTVSPropertyOp18
 70
     1
102
RTVSPropertyOp19
 70
     1
102
RTVSPropertyOp20
 70
     1
102
RTVSPropertyOp21
 70
     1
102
RTVSPropertyOp22
 70
     1
102
RTVSPropertyOp23
 70
     1
102
RTVSPropertyOp24
 70
     1
102
RTVSPropertyOp25
 70
     1
102
RTVSPropertyOp26
 70
     1
102
RTVSPropertyOp27
 70
     1
102
RTVSPropertyOp28
 70
     1
102
RTVSPropertyOp29
 70
     1
102
RTVSPropertyOp30
 70
     1
102
RTVSPropertyOp31
 70
     1
102
RTVSPropertyOp32
 70
     1
102
RTVSPropertyOp33
 70
     1
102
RTVSPropertyOp34
 70
     1
102
RTVSPropertyOp35
 70
     1
102
RTVSPropertyOp36
 70
     1
102
RTVSPropertyOp37
 70
     1
102
RTVSPropertyOp38
 70
     1
102
RTVSPropertyOp39
 70
     1
102
RTVSPropertyOp40
 70
     1
102
RTVSPropertyOp41
 70
     1
102
RTVSPropertyOp42
 70
     1
102
RTVSPropertyOp43
 70
     1
102
RTVSPropertyOp44
 70
     1
102
RTVSPropertyOp45
 70
     1
102
RTVSPropertyOp46
 70
     1
102
RTVSPropertyOp47
 70
     1
102
RTVSPropertyOp48
 70
     1
102
RTVSPropertyOp49
 70
     1
102
RTVSPropertyOp50
 70
     1
102
RTVSPropertyOp51
 70
     0
102
RTVSPropertyOp52
 70
     0
102
RTVSPropertyOp53
 70
     1
102
RTVSPropertyOp54
 70
     1
102
RTVSPropertyOp55
 70
     1
102
RTVSPropertyOp56
 70
     1
102
RTVSPropertyOp57
 70
     1
102
RTVSPost2010Prop28
280
     0
102
RTVSPost2010PropOp28
 70
     1
102
RTVSPost2010Prop29
280
     1
102
RTVSPost2010PropOp29
 70
     1
102
RTVSPost2010Prop30
280
     1
102
RTVSPost2010PropOp30
 70
     1
102
RTVSPost2010Prop31
280
     0
102
RTVSPost2010PropOp31
 70
     1
102
RTVSPost2010Prop32
280
     0
102
RTVSPost2010PropOp32
 70
     1
102
RTVSPost2010Prop33
280
     0
102
RTVSPost2010PropOp33
 70
     1
102
RTVSPost2010Prop34
280
     0
102
RTVSPost2010PropOp34
 70
     1
102
RTVSPost2010Prop35
280
     0
102
RTVSPost2010PropOp35
 70
     1
102
RTVSPost2010Prop36
280
     0
102
RTVSPost2010PropOp36
 70
     1
102
RTVSPost2010Prop37
 90
       50
102
RTVSPost2010PropOp37
 70
     1
102
RTVSPost2010Prop38
140
0.0
102
RTVSPost2010PropOp38
 70
     1
102
RTVSPost2010Prop39
140
1.0
102
RTVSPost2010PropOp39
 70
     1
102
RTVSPost2010Prop40
 90
        0
102
RTVSPost2010PropOp40
 70
     1
102
RTVSPost2010Prop41ColorIndex
 90
       18
102
RTVSPost2010Prop41ColorRGB
 90
        0
102
RTVSPost2010PropOp41
 70
     1
102
RTVSPost2010Prop42
 90
       50
102
RTVSPost2010PropOp42
 70
     1
102
RTVSPost2010Prop43
 90
        3
102
RTVSPost2010PropOp43
 70
     1
102
RTVSPost2010Prop44ColorIndex
 90
        5
102
RTVSPost2010Prop44ColorRGB
 90
      255
102
RTVSPost2010PropOp44
 70
     1
102
RTVSPost2010Prop45
280
     0
102
RTVSPost2010PropOp45
 70
     1
102
RTVSPost2010Prop46
 90
       50
102
RTVSPost2010PropOp46
 70
     1
102
RTVSPost2010Prop47
 90
       50
102
RTVSPost2010PropOp47
 70
     1
102
RTVSPost2010Prop48
 90
       50
102
RTVSPost2010PropOp48
 70
     1
102
RTVSPost2010Prop49
280
     0
102
RTVSPost2010PropOp49
 70
     1
102
RTVSPost2010Prop50
 90
       50
102
RTVSPost2010PropOp50
 70
     1
102
RTVSPost2010Prop51ColorIndex
 90
      256
102
RTVSPost2010Prop51ColorRGB
 90
-16777216
102
RTVSPost2010PropOp51
 70
     0
102
RTVSPost2010Prop52
140
1.0
102
RTVSPost2010PropOp52
 70
     0
102
RTVSPost2010Prop53
 90
        2
102
RTVSPost2010PropOp53
 70
     1
102
RTVSPost2010Prop54
  1
strokes_ogs.tif
102
RTVSPost2010PropOp54
 70
     1
102
RTVSPost2010Prop55
280
     0
102
RTVSPost2010PropOp55
 70
     1
102
RTVSPost2010Prop56
140
1.0
102
RTVSPost2010PropOp56
 70
     1
102
RTVSPost2010Prop57
140
1.0
102
RTVSPost2010PropOp57
 70
     1
  0
XRECORD
  5
55C
102
{ACAD_REACTORS
330
55B
102
}
330
55B
100
AcDbXrecord
280
     1
102
RTVSPropertyOp0
 70
     1
102
RTVSPropertyOp1
 70
     1
102
RTVSPropertyOp2
 70
     1
102
RTVSPropertyOp3
 70
     1
102
RTVSPropertyOp4
 70
     1
102
RTVSPropertyOp5
 70
     1
102
RTVSPropertyOp6
 70
     1
102
RTVSPropertyOp7
 70
     1
102
RTVSPropertyOp8
 70
     1
102
RTVSPropertyOp9
 70
     1
102
RTVSPropertyOp10
 70
     1
102
RTVSPropertyOp11
 70
     1
102
RTVSPropertyOp12
 70
     1
102
RTVSPropertyOp13
 70
     1
102
RTVSPropertyOp14
 70
     1
102
RTVSPropertyOp15
 70
     1
102
RTVSPropertyOp16
 70
     1
102
RTVSPropertyOp17
 70
     1
102
RTVSPropertyOp18
 70
     1
102
RTVSPropertyOp19
 70
     1
102
RTVSPropertyOp20
 70
     1
102
RTVSPropertyOp21
 70
     1
102
RTVSPropertyOp22
 70
     1
102
RTVSPropertyOp23
 70
     1
102
RTVSPropertyOp24
 70
     1
102
RTVSPropertyOp25
 70
     1
102
RTVSPropertyOp26
 70
     1
102
RTVSPropertyOp27
 70
     1
102
RTVSPropertyOp28
 70
     1
102
RTVSPropertyOp29
 70
     1
102
RTVSPropertyOp30
 70
     1
102
RTVSPropertyOp31
 70
     1
102
RTVSPropertyOp32
 70
     1
102
RTVSPropertyOp33
 70
     1
102
RTVSPropertyOp34
 70
     1
102
RTVSPropertyOp35
 70
     1
102
RTVSPropertyOp36
 70
     1
102
RTVSPropertyOp37
 70
     1
102
RTVSPropertyOp38
 70
     1
102
RTVSPropertyOp39
 70
     1
102
RTVSPropertyOp40
 70
     1
102
RTVSPropertyOp41
 70
     1
102
RTVSPropertyOp42
 70
     1
102
RTVSPropertyOp43
 70
     1
102
RTVSPropertyOp44
 70
     1
102
RTVSPropertyOp45
 70
     1
102
RTVSPropertyOp46
 70
     1
102
RTVSPropertyOp47
 70
     1
102
RTVSPropertyOp48
 70
     1
102
RTVSPropertyOp49
 70
     1
102
RTVSPropertyOp50
 70
     1
102
RTVSPropertyOp51
 70
     0
102
RTVSPropertyOp52
 70
     0
102
RTVSPropertyOp53
 70
     1
102
RTVSPropertyOp54
 70
     1
102
RTVSPropertyOp55
 70
     1
102
RTVSPropertyOp56
 70
     1
102
RTVSPropertyOp57
 70
     1
102
RTVSPost2010Prop28
280
     0
102
RTVSPost2010PropOp28
 70
     1
102
RTVSPost2010Prop29
280
     1
102
RTVSPost2010PropOp29
 70
     1
102
RTVSPost2010Prop30
280
     1
102
RTVSPost2010PropOp30
 70
     1
102
RTVSPost2010Prop31
280
     0
102
RTVSPost2010PropOp31
 70
     1
102
RTVSPost2010Prop32
280
     0
102
RTVSPost2010PropOp32
 70
     1
102
RTVSPost2010Prop33
280
     0
102
RTVSPost2010PropOp33
 70
     1
102
RTVSPost2010Prop34
280
     0
102
RTVSPost2010PropOp34
 70
     1
102
RTVSPost2010Prop35
280
     0
102
RTVSPost2010PropOp35
 70
     1
102
RTVSPost2010Prop36
280
     0
102
RTVSPost2010PropOp36
 70
     1
102
RTVSPost2010Prop37
 90
       50
102
RTVSPost2010PropOp37
 70
     1
102
RTVSPost2010Prop38
140
0.0
102
RTVSPost2010PropOp38
 70
     1
102
RTVSPost2010Prop39
140
1.0
102
RTVSPost2010PropOp39
 70
     1
102
RTVSPost2010Prop40
 90
        0
102
RTVSPost2010PropOp40
 70
     1
102
RTVSPost2010Prop41ColorIndex
 90
       18
102
RTVSPost2010Prop41ColorRGB
 90
        0
102
RTVSPost2010PropOp41
 70
     1
102
RTVSPost2010Prop42
 90
       50
102
RTVSPost2010PropOp42
 70
     1
102
RTVSPost2010Prop43
 90
        3
102
RTVSPost2010PropOp43
 70
     1
102
RTVSPost2010Prop44ColorIndex
 90
        5
102
RTVSPost2010Prop44ColorRGB
 90
      255
102
RTVSPost2010PropOp44
 70
     1
102
RTVSPost2010Prop45
280
     0
102
RTVSPost2010PropOp45
 70
     1
102
RTVSPost2010Prop46
 90
       50
102
RTVSPost2010PropOp46
 70
     1
102
RTVSPost2010Prop47
 90
       50
102
RTVSPost2010PropOp47
 70
     1
102
RTVSPost2010Prop48
 90
       50
102
RTVSPost2010PropOp48
 70
     1
102
RTVSPost2010Prop49
280
     0
102
RTVSPost2010PropOp49
 70
     1
102
RTVSPost2010Prop50
 90
       50
102
RTVSPost2010PropOp50
 70
     1
102
RTVSPost2010Prop51ColorIndex
 90
      256
102
RTVSPost2010Prop51ColorRGB
 90
-16777216
102
RTVSPost2010PropOp51
 70
     0
102
RTVSPost2010Prop52
140
1.0
102
RTVSPost2010PropOp52
 70
     0
102
RTVSPost2010Prop53
 90
        2
102
RTVSPost2010PropOp53
 70
     1
102
RTVSPost2010Prop54
  1
strokes_ogs.tif
102
RTVSPost2010PropOp54
 70
     1
102
RTVSPost2010Prop55
280
     0
102
RTVSPost2010PropOp55
 70
     1
102
RTVSPost2010Prop56
140
1.0
102
RTVSPost2010PropOp56
 70
     1
102
RTVSPost2010Prop57
140
1.0
102
RTVSPost2010PropOp57
 70
     1
  0
XRECORD
  5
55A
102
{ACAD_REACTORS
330
559
102
}
330
559
100
AcDbXrecord
280
     1
102
RTVSPropertyOp0
 70
     1
102
RTVSPropertyOp1
 70
     1
102
RTVSPropertyOp2
 70
     1
102
RTVSPropertyOp3
 70
     1
102
RTVSPropertyOp4
 70
     1
102
RTVSPropertyOp5
 70
     1
102
RTVSPropertyOp6
 70
     1
102
RTVSPropertyOp7
 70
     1
102
RTVSPropertyOp8
 70
     1
102
RTVSPropertyOp9
 70
     1
102
RTVSPropertyOp10
 70
     1
102
RTVSPropertyOp11
 70
     1
102
RTVSPropertyOp12
 70
     1
102
RTVSPropertyOp13
 70
     1
102
RTVSPropertyOp14
 70
     1
102
RTVSPropertyOp15
 70
     1
102
RTVSPropertyOp16
 70
     1
102
RTVSPropertyOp17
 70
     1
102
RTVSPropertyOp18
 70
     1
102
RTVSPropertyOp19
 70
     1
102
RTVSPropertyOp20
 70
     1
102
RTVSPropertyOp21
 70
     1
102
RTVSPropertyOp22
 70
     1
102
RTVSPropertyOp23
 70
     1
102
RTVSPropertyOp24
 70
     1
102
RTVSPropertyOp25
 70
     1
102
RTVSPropertyOp26
 70
     1
102
RTVSPropertyOp27
 70
     1
102
RTVSPropertyOp28
 70
     1
102
RTVSPropertyOp29
 70
     1
102
RTVSPropertyOp30
 70
     1
102
RTVSPropertyOp31
 70
     1
102
RTVSPropertyOp32
 70
     1
102
RTVSPropertyOp33
 70
     1
102
RTVSPropertyOp34
 70
     1
102
RTVSPropertyOp35
 70
     1
102
RTVSPropertyOp36
 70
     1
102
RTVSPropertyOp37
 70
     1
102
RTVSPropertyOp38
 70
     1
102
RTVSPropertyOp39
 70
     1
102
RTVSPropertyOp40
 70
     1
102
RTVSPropertyOp41
 70
     1
102
RTVSPropertyOp42
 70
     1
102
RTVSPropertyOp43
 70
     1
102
RTVSPropertyOp44
 70
     1
102
RTVSPropertyOp45
 70
     1
102
RTVSPropertyOp46
 70
     1
102
RTVSPropertyOp47
 70
     1
102
RTVSPropertyOp48
 70
     1
102
RTVSPropertyOp49
 70
     1
102
RTVSPropertyOp50
 70
     1
102
RTVSPropertyOp51
 70
     0
102
RTVSPropertyOp52
 70
     0
102
RTVSPropertyOp53
 70
     1
102
RTVSPropertyOp54
 70
     1
102
RTVSPropertyOp55
 70
     1
102
RTVSPropertyOp56
 70
     1
102
RTVSPropertyOp57
 70
     1
102
RTVSPost2010Prop28
280
     0
102
RTVSPost2010PropOp28
 70
     1
102
RTVSPost2010Prop29
280
     1
102
RTVSPost2010PropOp29
 70
     1
102
RTVSPost2010Prop30
280
     1
102
RTVSPost2010PropOp30
 70
     1
102
RTVSPost2010Prop31
280
     0
102
RTVSPost2010PropOp31
 70
     1
102
RTVSPost2010Prop32
280
     0
102
RTVSPost2010PropOp32
 70
     1
102
RTVSPost2010Prop33
280
     0
102
RTVSPost2010PropOp33
 70
     1
102
RTVSPost2010Prop34
280
     0
102
RTVSPost2010PropOp34
 70
     1
102
RTVSPost2010Prop35
280
     0
102
RTVSPost2010PropOp35
 70
     1
102
RTVSPost2010Prop36
280
     0
102
RTVSPost2010PropOp36
 70
     1
102
RTVSPost2010Prop37
 90
       50
102
RTVSPost2010PropOp37
 70
     1
102
RTVSPost2010Prop38
140
0.0
102
RTVSPost2010PropOp38
 70
     1
102
RTVSPost2010Prop39
140
1.0
102
RTVSPost2010PropOp39
 70
     1
102
RTVSPost2010Prop40
 90
        0
102
RTVSPost2010PropOp40
 70
     1
102
RTVSPost2010Prop41ColorIndex
 90
       18
102
RTVSPost2010Prop41ColorRGB
 90
        0
102
RTVSPost2010PropOp41
 70
     1
102
RTVSPost2010Prop42
 90
       50
102
RTVSPost2010PropOp42
 70
     1
102
RTVSPost2010Prop43
 90
        3
102
RTVSPost2010PropOp43
 70
     1
102
RTVSPost2010Prop44ColorIndex
 90
        5
102
RTVSPost2010Prop44ColorRGB
 90
      255
102
RTVSPost2010PropOp44
 70
     1
102
RTVSPost2010Prop45
280
     0
102
RTVSPost2010PropOp45
 70
     1
102
RTVSPost2010Prop46
 90
       50
102
RTVSPost2010PropOp46
 70
     1
102
RTVSPost2010Prop47
 90
       50
102
RTVSPost2010PropOp47
 70
     1
102
RTVSPost2010Prop48
 90
       50
102
RTVSPost2010PropOp48
 70
     1
102
RTVSPost2010Prop49
280
     0
102
RTVSPost2010PropOp49
 70
     1
102
RTVSPost2010Prop50
 90
       50
102
RTVSPost2010PropOp50
 70
     1
102
RTVSPost2010Prop51ColorIndex
 90
      256
102
RTVSPost2010Prop51ColorRGB
 90
-16777216
102
RTVSPost2010PropOp51
 70
     0
102
RTVSPost2010Prop52
140
1.0
102
RTVSPost2010PropOp52
 70
     0
102
RTVSPost2010Prop53
 90
        2
102
RTVSPost2010PropOp53
 70
     1
102
RTVSPost2010Prop54
  1
strokes_ogs.tif
102
RTVSPost2010PropOp54
 70
     1
102
RTVSPost2010Prop55
280
     0
102
RTVSPost2010PropOp55
 70
     1
102
RTVSPost2010Prop56
140
1.0
102
RTVSPost2010PropOp56
 70
     1
102
RTVSPost2010Prop57
140
1.0
102
RTVSPost2010PropOp57
 70
     1
  0
XRECORD
  5
554
102
{ACAD_REACTORS
330
553
102
}
330
553
100
AcDbXrecord
280
     1
102
RTVSPropertyOp0
 70
     1
102
RTVSPropertyOp1
 70
     1
102
RTVSPropertyOp2
 70
     1
102
RTVSPropertyOp3
 70
     1
102
RTVSPropertyOp4
 70
     1
102
RTVSPropertyOp5
 70
     1
102
RTVSPropertyOp6
 70
     1
102
RTVSPropertyOp7
 70
     1
102
RTVSPropertyOp8
 70
     1
102
RTVSPropertyOp9
 70
     1
102
RTVSPropertyOp10
 70
     1
102
RTVSPropertyOp11
 70
     1
102
RTVSPropertyOp12
 70
     1
102
RTVSPropertyOp13
 70
     1
102
RTVSPropertyOp14
 70
     1
102
RTVSPropertyOp15
 70
     1
102
RTVSPropertyOp16
 70
     1
102
RTVSPropertyOp17
 70
     1
102
RTVSPropertyOp18
 70
     1
102
RTVSPropertyOp19
 70
     1
102
RTVSPropertyOp20
 70
     1
102
RTVSPropertyOp21
 70
     1
102
RTVSPropertyOp22
 70
     1
102
RTVSPropertyOp23
 70
     1
102
RTVSPropertyOp24
 70
     1
102
RTVSPropertyOp25
 70
     1
102
RTVSPropertyOp26
 70
     1
102
RTVSPropertyOp27
 70
     1
102
RTVSPropertyOp28
 70
     1
102
RTVSPropertyOp29
 70
     1
102
RTVSPropertyOp30
 70
     1
102
RTVSPropertyOp31
 70
     1
102
RTVSPropertyOp32
 70
     1
102
RTVSPropertyOp33
 70
     1
102
RTVSPropertyOp34
 70
     1
102
RTVSPropertyOp35
 70
     1
102
RTVSPropertyOp36
 70
     1
102
RTVSPropertyOp37
 70
     1
102
RTVSPropertyOp38
 70
     1
102
RTVSPropertyOp39
 70
     1
102
RTVSPropertyOp40
 70
     1
102
RTVSPropertyOp41
 70
     1
102
RTVSPropertyOp42
 70
     1
102
RTVSPropertyOp43
 70
     1
102
RTVSPropertyOp44
 70
     1
102
RTVSPropertyOp45
 70
     1
102
RTVSPropertyOp46
 70
     1
102
RTVSPropertyOp47
 70
     1
102
RTVSPropertyOp48
 70
     1
102
RTVSPropertyOp49
 70
     1
102
RTVSPropertyOp50
 70
     1
102
RTVSPropertyOp51
 70
     0
102
RTVSPropertyOp52
 70
     0
102
RTVSPropertyOp53
 70
     1
102
RTVSPropertyOp54
 70
     1
102
RTVSPropertyOp55
 70
     1
102
RTVSPropertyOp56
 70
     1
102
RTVSPropertyOp57
 70
     1
102
RTVSPost2010Prop28
280
     0
102
RTVSPost2010PropOp28
 70
     1
102
RTVSPost2010Prop29
280
     1
102
RTVSPost2010PropOp29
 70
     1
102
RTVSPost2010Prop30
280
     1
102
RTVSPost2010PropOp30
 70
     1
102
RTVSPost2010Prop31
280
     0
102
RTVSPost2010PropOp31
 70
     1
102
RTVSPost2010Prop32
280
     0
102
RTVSPost2010PropOp32
 70
     1
102
RTVSPost2010Prop33
280
     0
102
RTVSPost2010PropOp33
 70
     1
102
RTVSPost2010Prop34
280
     0
102
RTVSPost2010PropOp34
 70
     1
102
RTVSPost2010Prop35
280
     0
102
RTVSPost2010PropOp35
 70
     1
102
RTVSPost2010Prop36
280
     0
102
RTVSPost2010PropOp36
 70
     1
102
RTVSPost2010Prop37
 90
       50
102
RTVSPost2010PropOp37
 70
     1
102
RTVSPost2010Prop38
140
0.0
102
RTVSPost2010PropOp38
 70
     1
102
RTVSPost2010Prop39
140
1.0
102
RTVSPost2010PropOp39
 70
     1
102
RTVSPost2010Prop40
 90
        0
102
RTVSPost2010PropOp40
 70
     1
102
RTVSPost2010Prop41ColorIndex
 90
       18
102
RTVSPost2010Prop41ColorRGB
 90
        0
102
RTVSPost2010PropOp41
 70
     1
102
RTVSPost2010Prop42
 90
       50
102
RTVSPost2010PropOp42
 70
     1
102
RTVSPost2010Prop43
 90
        3
102
RTVSPost2010PropOp43
 70
     1
102
RTVSPost2010Prop44ColorIndex
 90
        5
102
RTVSPost2010Prop44ColorRGB
 90
      255
102
RTVSPost2010PropOp44
 70
     1
102
RTVSPost2010Prop45
280
     0
102
RTVSPost2010PropOp45
 70
     1
102
RTVSPost2010Prop46
 90
       50
102
RTVSPost2010PropOp46
 70
     1
102
RTVSPost2010Prop47
 90
       50
102
RTVSPost2010PropOp47
 70
     1
102
RTVSPost2010Prop48
 90
       50
102
RTVSPost2010PropOp48
 70
     1
102
RTVSPost2010Prop49
280
     0
102
RTVSPost2010PropOp49
 70
     1
102
RTVSPost2010Prop50
 90
       50
102
RTVSPost2010PropOp50
 70
     1
102
RTVSPost2010Prop51ColorIndex
 90
      256
102
RTVSPost2010Prop51ColorRGB
 90
-16777216
102
RTVSPost2010PropOp51
 70
     0
102
RTVSPost2010Prop52
140
1.0
102
RTVSPost2010PropOp52
 70
     0
102
RTVSPost2010Prop53
 90
        2
102
RTVSPost2010PropOp53
 70
     1
102
RTVSPost2010Prop54
  1
strokes_ogs.tif
102
RTVSPost2010PropOp54
 70
     1
102
RTVSPost2010Prop55
280
     0
102
RTVSPost2010PropOp55
 70
     1
102
RTVSPost2010Prop56
140
1.0
102
RTVSPost2010PropOp56
 70
     1
102
RTVSPost2010Prop57
140
1.0
102
RTVSPost2010PropOp57
 70
     1
  0
XRECORD
  5
556
102
{ACAD_REACTORS
330
555
102
}
330
555
100
AcDbXrecord
280
     1
102
RTVSPropertyOp0
 70
     1
102
RTVSPropertyOp1
 70
     1
102
RTVSPropertyOp2
 70
     1
102
RTVSPropertyOp3
 70
     1
102
RTVSPropertyOp4
 70
     1
102
RTVSPropertyOp5
 70
     1
102
RTVSPropertyOp6
 70
     1
102
RTVSPropertyOp7
 70
     1
102
RTVSPropertyOp8
 70
     1
102
RTVSPropertyOp9
 70
     1
102
RTVSPropertyOp10
 70
     1
102
RTVSPropertyOp11
 70
     1
102
RTVSPropertyOp12
 70
     1
102
RTVSPropertyOp13
 70
     1
102
RTVSPropertyOp14
 70
     1
102
RTVSPropertyOp15
 70
     1
102
RTVSPropertyOp16
 70
     1
102
RTVSPropertyOp17
 70
     1
102
RTVSPropertyOp18
 70
     1
102
RTVSPropertyOp19
 70
     1
102
RTVSPropertyOp20
 70
     1
102
RTVSPropertyOp21
 70
     1
102
RTVSPropertyOp22
 70
     1
102
RTVSPropertyOp23
 70
     1
102
RTVSPropertyOp24
 70
     1
102
RTVSPropertyOp25
 70
     1
102
RTVSPropertyOp26
 70
     1
102
RTVSPropertyOp27
 70
     1
102
RTVSPropertyOp28
 70
     1
102
RTVSPropertyOp29
 70
     1
102
RTVSPropertyOp30
 70
     1
102
RTVSPropertyOp31
 70
     1
102
RTVSPropertyOp32
 70
     1
102
RTVSPropertyOp33
 70
     1
102
RTVSPropertyOp34
 70
     1
102
RTVSPropertyOp35
 70
     1
102
RTVSPropertyOp36
 70
     1
102
RTVSPropertyOp37
 70
     1
102
RTVSPropertyOp38
 70
     1
102
RTVSPropertyOp39
 70
     1
102
RTVSPropertyOp40
 70
     1
102
RTVSPropertyOp41
 70
     1
102
RTVSPropertyOp42
 70
     1
102
RTVSPropertyOp43
 70
     1
102
RTVSPropertyOp44
 70
     1
102
RTVSPropertyOp45
 70
     1
102
RTVSPropertyOp46
 70
     1
102
RTVSPropertyOp47
 70
     1
102
RTVSPropertyOp48
 70
     1
102
RTVSPropertyOp49
 70
     1
102
RTVSPropertyOp50
 70
     1
102
RTVSPropertyOp51
 70
     0
102
RTVSPropertyOp52
 70
     0
102
RTVSPropertyOp53
 70
     1
102
RTVSPropertyOp54
 70
     1
102
RTVSPropertyOp55
 70
     1
102
RTVSPropertyOp56
 70
     1
102
RTVSPropertyOp57
 70
     1
102
RTVSPost2010Prop28
280
     0
102
RTVSPost2010PropOp28
 70
     1
102
RTVSPost2010Prop29
280
     1
102
RTVSPost2010PropOp29
 70
     1
102
RTVSPost2010Prop30
280
     1
102
RTVSPost2010PropOp30
 70
     1
102
RTVSPost2010Prop31
280
     0
102
RTVSPost2010PropOp31
 70
     1
102
RTVSPost2010Prop32
280
     0
102
RTVSPost2010PropOp32
 70
     1
102
RTVSPost2010Prop33
280
     0
102
RTVSPost2010PropOp33
 70
     1
102
RTVSPost2010Prop34
280
     0
102
RTVSPost2010PropOp34
 70
     1
102
RTVSPost2010Prop35
280
     0
102
RTVSPost2010PropOp35
 70
     1
102
RTVSPost2010Prop36
280
     0
102
RTVSPost2010PropOp36
 70
     1
102
RTVSPost2010Prop37
 90
       50
102
RTVSPost2010PropOp37
 70
     1
102
RTVSPost2010Prop38
140
0.0
102
RTVSPost2010PropOp38
 70
     1
102
RTVSPost2010Prop39
140
1.0
102
RTVSPost2010PropOp39
 70
     1
102
RTVSPost2010Prop40
 90
        0
102
RTVSPost2010PropOp40
 70
     1
102
RTVSPost2010Prop41ColorIndex
 90
       18
102
RTVSPost2010Prop41ColorRGB
 90
        0
102
RTVSPost2010PropOp41
 70
     1
102
RTVSPost2010Prop42
 90
       50
102
RTVSPost2010PropOp42
 70
     1
102
RTVSPost2010Prop43
 90
        3
102
RTVSPost2010PropOp43
 70
     1
102
RTVSPost2010Prop44ColorIndex
 90
        5
102
RTVSPost2010Prop44ColorRGB
 90
      255
102
RTVSPost2010PropOp44
 70
     1
102
RTVSPost2010Prop45
280
     0
102
RTVSPost2010PropOp45
 70
     1
102
RTVSPost2010Prop46
 90
       50
102
RTVSPost2010PropOp46
 70
     1
102
RTVSPost2010Prop47
 90
       50
102
RTVSPost2010PropOp47
 70
     1
102
RTVSPost2010Prop48
 90
       50
102
RTVSPost2010PropOp48
 70
     1
102
RTVSPost2010Prop49
280
     0
102
RTVSPost2010PropOp49
 70
     1
102
RTVSPost2010Prop50
 90
       50
102
RTVSPost2010PropOp50
 70
     1
102
RTVSPost2010Prop51ColorIndex
 90
      256
102
RTVSPost2010Prop51ColorRGB
 90
-16777216
102
RTVSPost2010PropOp51
 70
     0
102
RTVSPost2010Prop52
140
1.0
102
RTVSPost2010PropOp52
 70
     0
102
RTVSPost2010Prop53
 90
        2
102
RTVSPost2010PropOp53
 70
     1
102
RTVSPost2010Prop54
  1
strokes_ogs.tif
102
RTVSPost2010PropOp54
 70
     1
102
RTVSPost2010Prop55
280
     0
102
RTVSPost2010PropOp55
 70
     1
102
RTVSPost2010Prop56
140
1.0
102
RTVSPost2010PropOp56
 70
     1
102
RTVSPost2010Prop57
140
1.0
102
RTVSPost2010PropOp57
 70
     1
  0
XRECORD
  5
546
102
{ACAD_REACTORS
330
545
102
}
330
545
100
AcDbXrecord
280
     1
102
RTVSPropertyOp0
 70
     1
102
RTVSPropertyOp1
 70
     1
102
RTVSPropertyOp2
 70
     1
102
RTVSPropertyOp3
 70
     1
102
RTVSPropertyOp4
 70
     1
102
RTVSPropertyOp5
 70
     1
102
RTVSPropertyOp6
 70
     1
102
RTVSPropertyOp7
 70
     1
102
RTVSPropertyOp8
 70
     1
102
RTVSPropertyOp9
 70
     1
102
RTVSPropertyOp10
 70
     1
102
RTVSPropertyOp11
 70
     1
102
RTVSPropertyOp12
 70
     1
102
RTVSPropertyOp13
 70
     1
102
RTVSPropertyOp14
 70
     1
102
RTVSPropertyOp15
 70
     1
102
RTVSPropertyOp16
 70
     1
102
RTVSPropertyOp17
 70
     1
102
RTVSPropertyOp18
 70
     1
102
RTVSPropertyOp19
 70
     1
102
RTVSPropertyOp20
 70
     1
102
RTVSPropertyOp21
 70
     1
102
RTVSPropertyOp22
 70
     1
102
RTVSPropertyOp23
 70
     1
102
RTVSPropertyOp24
 70
     1
102
RTVSPropertyOp25
 70
     1
102
RTVSPropertyOp26
 70
     1
102
RTVSPropertyOp27
 70
     1
102
RTVSPropertyOp28
 70
     1
102
RTVSPropertyOp29
 70
     1
102
RTVSPropertyOp30
 70
     1
102
RTVSPropertyOp31
 70
     1
102
RTVSPropertyOp32
 70
     1
102
RTVSPropertyOp33
 70
     1
102
RTVSPropertyOp34
 70
     1
102
RTVSPropertyOp35
 70
     1
102
RTVSPropertyOp36
 70
     1
102
RTVSPropertyOp37
 70
     1
102
RTVSPropertyOp38
 70
     1
102
RTVSPropertyOp39
 70
     1
102
RTVSPropertyOp40
 70
     1
102
RTVSPropertyOp41
 70
     1
102
RTVSPropertyOp42
 70
     1
102
RTVSPropertyOp43
 70
     1
102
RTVSPropertyOp44
 70
     1
102
RTVSPropertyOp45
 70
     1
102
RTVSPropertyOp46
 70
     1
102
RTVSPropertyOp47
 70
     1
102
RTVSPropertyOp48
 70
     1
102
RTVSPropertyOp49
 70
     1
102
RTVSPropertyOp50
 70
     1
102
RTVSPropertyOp51
 70
     0
102
RTVSPropertyOp52
 70
     0
102
RTVSPropertyOp53
 70
     1
102
RTVSPropertyOp54
 70
     1
102
RTVSPropertyOp55
 70
     1
102
RTVSPropertyOp56
 70
     1
102
RTVSPropertyOp57
 70
     1
102
RTVSPost2010Prop28
280
     0
102
RTVSPost2010PropOp28
 70
     1
102
RTVSPost2010Prop29
280
     1
102
RTVSPost2010PropOp29
 70
     1
102
RTVSPost2010Prop30
280
     1
102
RTVSPost2010PropOp30
 70
     1
102
RTVSPost2010Prop31
280
     0
102
RTVSPost2010PropOp31
 70
     1
102
RTVSPost2010Prop32
280
     0
102
RTVSPost2010PropOp32
 70
     1
102
RTVSPost2010Prop33
280
     0
102
RTVSPost2010PropOp33
 70
     1
102
RTVSPost2010Prop34
280
     0
102
RTVSPost2010PropOp34
 70
     1
102
RTVSPost2010Prop35
280
     0
102
RTVSPost2010PropOp35
 70
     1
102
RTVSPost2010Prop36
280
     0
102
RTVSPost2010PropOp36
 70
     1
102
RTVSPost2010Prop37
 90
       50
102
RTVSPost2010PropOp37
 70
     1
102
RTVSPost2010Prop38
140
0.0
102
RTVSPost2010PropOp38
 70
     1
102
RTVSPost2010Prop39
140
1.0
102
RTVSPost2010PropOp39
 70
     1
102
RTVSPost2010Prop40
 90
        0
102
RTVSPost2010PropOp40
 70
     1
102
RTVSPost2010Prop41ColorIndex
 90
       18
102
RTVSPost2010Prop41ColorRGB
 90
        0
102
RTVSPost2010PropOp41
 70
     1
102
RTVSPost2010Prop42
 90
       50
102
RTVSPost2010PropOp42
 70
     1
102
RTVSPost2010Prop43
 90
        3
102
RTVSPost2010PropOp43
 70
     1
102
RTVSPost2010Prop44ColorIndex
 90
        5
102
RTVSPost2010Prop44ColorRGB
 90
      255
102
RTVSPost2010PropOp44
 70
     1
102
RTVSPost2010Prop45
280
     0
102
RTVSPost2010PropOp45
 70
     1
102
RTVSPost2010Prop46
 90
       50
102
RTVSPost2010PropOp46
 70
     1
102
RTVSPost2010Prop47
 90
       50
102
RTVSPost2010PropOp47
 70
     1
102
RTVSPost2010Prop48
 90
       50
102
RTVSPost2010PropOp48
 70
     1
102
RTVSPost2010Prop49
280
     0
102
RTVSPost2010PropOp49
 70
     1
102
RTVSPost2010Prop50
 90
       50
102
RTVSPost2010PropOp50
 70
     1
102
RTVSPost2010Prop51ColorIndex
 90
      256
102
RTVSPost2010Prop51ColorRGB
 90
-16777216
102
RTVSPost2010PropOp51
 70
     0
102
RTVSPost2010Prop52
140
1.0
102
RTVSPost2010PropOp52
 70
     0
102
RTVSPost2010Prop53
 90
        2
102
RTVSPost2010PropOp53
 70
     1
102
RTVSPost2010Prop54
  1
strokes_ogs.tif
102
RTVSPost2010PropOp54
 70
     1
102
RTVSPost2010Prop55
280
     0
102
RTVSPost2010PropOp55
 70
     1
102
RTVSPost2010Prop56
140
1.0
102
RTVSPost2010PropOp56
 70
     1
102
RTVSPost2010Prop57
140
1.0
102
RTVSPost2010PropOp57
 70
     1
  0
XRECORD
  5
538
102
{ACAD_REACTORS
330
537
102
}
330
537
100
AcDbXrecord
280
     1
102
RTVSPropertyOp0
 70
     1
102
RTVSPropertyOp1
 70
     1
102
RTVSPropertyOp2
 70
     1
102
RTVSPropertyOp3
 70
     1
102
RTVSPropertyOp4
 70
     1
102
RTVSPropertyOp5
 70
     1
102
RTVSPropertyOp6
 70
     1
102
RTVSPropertyOp7
 70
     1
102
RTVSPropertyOp8
 70
     1
102
RTVSPropertyOp9
 70
     1
102
RTVSPropertyOp10
 70
     1
102
RTVSPropertyOp11
 70
     1
102
RTVSPropertyOp12
 70
     1
102
RTVSPropertyOp13
 70
     1
102
RTVSPropertyOp14
 70
     1
102
RTVSPropertyOp15
 70
     1
102
RTVSPropertyOp16
 70
     1
102
RTVSPropertyOp17
 70
     1
102
RTVSPropertyOp18
 70
     1
102
RTVSPropertyOp19
 70
     1
102
RTVSPropertyOp20
 70
     1
102
RTVSPropertyOp21
 70
     1
102
RTVSPropertyOp22
 70
     1
102
RTVSPropertyOp23
 70
     1
102
RTVSPropertyOp24
 70
     1
102
RTVSPropertyOp25
 70
     1
102
RTVSPropertyOp26
 70
     1
102
RTVSPropertyOp27
 70
     1
102
RTVSPropertyOp28
 70
     1
102
RTVSPropertyOp29
 70
     1
102
RTVSPropertyOp30
 70
     1
102
RTVSPropertyOp31
 70
     1
102
RTVSPropertyOp32
 70
     1
102
RTVSPropertyOp33
 70
     1
102
RTVSPropertyOp34
 70
     1
102
RTVSPropertyOp35
 70
     1
102
RTVSPropertyOp36
 70
     1
102
RTVSPropertyOp37
 70
     1
102
RTVSPropertyOp38
 70
     1
102
RTVSPropertyOp39
 70
     1
102
RTVSPropertyOp40
 70
     1
102
RTVSPropertyOp41
 70
     1
102
RTVSPropertyOp42
 70
     1
102
RTVSPropertyOp43
 70
     1
102
RTVSPropertyOp44
 70
     1
102
RTVSPropertyOp45
 70
     1
102
RTVSPropertyOp46
 70
     1
102
RTVSPropertyOp47
 70
     1
102
RTVSPropertyOp48
 70
     1
102
RTVSPropertyOp49
 70
     1
102
RTVSPropertyOp50
 70
     1
102
RTVSPropertyOp51
 70
     0
102
RTVSPropertyOp52
 70
     0
102
RTVSPropertyOp53
 70
     1
102
RTVSPropertyOp54
 70
     1
102
RTVSPropertyOp55
 70
     1
102
RTVSPropertyOp56
 70
     1
102
RTVSPropertyOp57
 70
     1
102
RTVSPost2010Prop28
280
     0
102
RTVSPost2010PropOp28
 70
     1
102
RTVSPost2010Prop29
280
     1
102
RTVSPost2010PropOp29
 70
     1
102
RTVSPost2010Prop30
280
     1
102
RTVSPost2010PropOp30
 70
     1
102
RTVSPost2010Prop31
280
     0
102
RTVSPost2010PropOp31
 70
     1
102
RTVSPost2010Prop32
280
     0
102
RTVSPost2010PropOp32
 70
     1
102
RTVSPost2010Prop33
280
     0
102
RTVSPost2010PropOp33
 70
     1
102
RTVSPost2010Prop34
280
     0
102
RTVSPost2010PropOp34
 70
     1
102
RTVSPost2010Prop35
280
     0
102
RTVSPost2010PropOp35
 70
     1
102
RTVSPost2010Prop36
280
     0
102
RTVSPost2010PropOp36
 70
     1
102
RTVSPost2010Prop37
 90
       50
102
RTVSPost2010PropOp37
 70
     1
102
RTVSPost2010Prop38
140
0.0
102
RTVSPost2010PropOp38
 70
     1
102
RTVSPost2010Prop39
140
1.0
102
RTVSPost2010PropOp39
 70
     1
102
RTVSPost2010Prop40
 90
        0
102
RTVSPost2010PropOp40
 70
     1
102
RTVSPost2010Prop41ColorIndex
 90
       18
102
RTVSPost2010Prop41ColorRGB
 90
        0
102
RTVSPost2010PropOp41
 70
     1
102
RTVSPost2010Prop42
 90
       50
102
RTVSPost2010PropOp42
 70
     1
102
RTVSPost2010Prop43
 90
        3
102
RTVSPost2010PropOp43
 70
     1
102
RTVSPost2010Prop44ColorIndex
 90
        5
102
RTVSPost2010Prop44ColorRGB
 90
      255
102
RTVSPost2010PropOp44
 70
     1
102
RTVSPost2010Prop45
280
     0
102
RTVSPost2010PropOp45
 70
     1
102
RTVSPost2010Prop46
 90
       50
102
RTVSPost2010PropOp46
 70
     1
102
RTVSPost2010Prop47
 90
       50
102
RTVSPost2010PropOp47
 70
     1
102
RTVSPost2010Prop48
 90
       50
102
RTVSPost2010PropOp48
 70
     1
102
RTVSPost2010Prop49
280
     0
102
RTVSPost2010PropOp49
 70
     1
102
RTVSPost2010Prop50
 90
       50
102
RTVSPost2010PropOp50
 70
     1
102
RTVSPost2010Prop51ColorIndex
 90
      256
102
RTVSPost2010Prop51ColorRGB
 90
-16777216
102
RTVSPost2010PropOp51
 70
     0
102
RTVSPost2010Prop52
140
1.0
102
RTVSPost2010PropOp52
 70
     0
102
RTVSPost2010Prop53
 90
        2
102
RTVSPost2010PropOp53
 70
     1
102
RTVSPost2010Prop54
  1
strokes_ogs.tif
102
RTVSPost2010PropOp54
 70
     1
102
RTVSPost2010Prop55
280
     0
102
RTVSPost2010PropOp55
 70
     1
102
RTVSPost2010Prop56
140
1.0
102
RTVSPost2010PropOp56
 70
     1
102
RTVSPost2010Prop57
140
1.0
102
RTVSPost2010PropOp57
 70
     1
  0
XRECORD
  5
558
102
{ACAD_REACTORS
330
557
102
}
330
557
100
AcDbXrecord
280
     1
102
RTVSPropertyOp0
 70
     1
102
RTVSPropertyOp1
 70
     1
102
RTVSPropertyOp2
 70
     1
102
RTVSPropertyOp3
 70
     1
102
RTVSPropertyOp4
 70
     1
102
RTVSPropertyOp5
 70
     1
102
RTVSPropertyOp6
 70
     1
102
RTVSPropertyOp7
 70
     1
102
RTVSPropertyOp8
 70
     1
102
RTVSPropertyOp9
 70
     1
102
RTVSPropertyOp10
 70
     1
102
RTVSPropertyOp11
 70
     1
102
RTVSPropertyOp12
 70
     1
102
RTVSPropertyOp13
 70
     1
102
RTVSPropertyOp14
 70
     1
102
RTVSPropertyOp15
 70
     1
102
RTVSPropertyOp16
 70
     1
102
RTVSPropertyOp17
 70
     1
102
RTVSPropertyOp18
 70
     1
102
RTVSPropertyOp19
 70
     1
102
RTVSPropertyOp20
 70
     1
102
RTVSPropertyOp21
 70
     1
102
RTVSPropertyOp22
 70
     1
102
RTVSPropertyOp23
 70
     1
102
RTVSPropertyOp24
 70
     1
102
RTVSPropertyOp25
 70
     1
102
RTVSPropertyOp26
 70
     1
102
RTVSPropertyOp27
 70
     1
102
RTVSPropertyOp28
 70
     1
102
RTVSPropertyOp29
 70
     1
102
RTVSPropertyOp30
 70
     1
102
RTVSPropertyOp31
 70
     1
102
RTVSPropertyOp32
 70
     1
102
RTVSPropertyOp33
 70
     1
102
RTVSPropertyOp34
 70
     1
102
RTVSPropertyOp35
 70
     1
102
RTVSPropertyOp36
 70
     1
102
RTVSPropertyOp37
 70
     1
102
RTVSPropertyOp38
 70
     1
102
RTVSPropertyOp39
 70
     1
102
RTVSPropertyOp40
 70
     1
102
RTVSPropertyOp41
 70
     1
102
RTVSPropertyOp42
 70
     1
102
RTVSPropertyOp43
 70
     1
102
RTVSPropertyOp44
 70
     1
102
RTVSPropertyOp45
 70
     1
102
RTVSPropertyOp46
 70
     1
102
RTVSPropertyOp47
 70
     1
102
RTVSPropertyOp48
 70
     1
102
RTVSPropertyOp49
 70
     1
102
RTVSPropertyOp50
 70
     1
102
RTVSPropertyOp51
 70
     0
102
RTVSPropertyOp52
 70
     0
102
RTVSPropertyOp53
 70
     1
102
RTVSPropertyOp54
 70
     1
102
RTVSPropertyOp55
 70
     1
102
RTVSPropertyOp56
 70
     1
102
RTVSPropertyOp57
 70
     1
102
RTVSPost2010Prop28
280
     0
102
RTVSPost2010PropOp28
 70
     1
102
RTVSPost2010Prop29
280
     1
102
RTVSPost2010PropOp29
 70
     1
102
RTVSPost2010Prop30
280
     1
102
RTVSPost2010PropOp30
 70
     1
102
RTVSPost2010Prop31
280
     0
102
RTVSPost2010PropOp31
 70
     1
102
RTVSPost2010Prop32
280
     0
102
RTVSPost2010PropOp32
 70
     1
102
RTVSPost2010Prop33
280
     0
102
RTVSPost2010PropOp33
 70
     1
102
RTVSPost2010Prop34
280
     0
102
RTVSPost2010PropOp34
 70
     1
102
RTVSPost2010Prop35
280
     0
102
RTVSPost2010PropOp35
 70
     1
102
RTVSPost2010Prop36
280
     0
102
RTVSPost2010PropOp36
 70
     1
102
RTVSPost2010Prop37
 90
       50
102
RTVSPost2010PropOp37
 70
     1
102
RTVSPost2010Prop38
140
0.0
102
RTVSPost2010PropOp38
 70
     1
102
RTVSPost2010Prop39
140
1.0
102
RTVSPost2010PropOp39
 70
     1
102
RTVSPost2010Prop40
 90
        0
102
RTVSPost2010PropOp40
 70
     1
102
RTVSPost2010Prop41ColorIndex
 90
       18
102
RTVSPost2010Prop41ColorRGB
 90
        0
102
RTVSPost2010PropOp41
 70
     1
102
RTVSPost2010Prop42
 90
       50
102
RTVSPost2010PropOp42
 70
     1
102
RTVSPost2010Prop43
 90
        3
102
RTVSPost2010PropOp43
 70
     1
102
RTVSPost2010Prop44ColorIndex
 90
        5
102
RTVSPost2010Prop44ColorRGB
 90
      255
102
RTVSPost2010PropOp44
 70
     1
102
RTVSPost2010Prop45
280
     0
102
RTVSPost2010PropOp45
 70
     1
102
RTVSPost2010Prop46
 90
       50
102
RTVSPost2010PropOp46
 70
     1
102
RTVSPost2010Prop47
 90
       50
102
RTVSPost2010PropOp47
 70
     1
102
RTVSPost2010Prop48
 90
       50
102
RTVSPost2010PropOp48
 70
     1
102
RTVSPost2010Prop49
280
     0
102
RTVSPost2010PropOp49
 70
     1
102
RTVSPost2010Prop50
 90
       50
102
RTVSPost2010PropOp50
 70
     1
102
RTVSPost2010Prop51ColorIndex
 90
      256
102
RTVSPost2010Prop51ColorRGB
 90
-16777216
102
RTVSPost2010PropOp51
 70
     0
102
RTVSPost2010Prop52
140
1.0
102
RTVSPost2010PropOp52
 70
     0
102
RTVSPost2010Prop53
 90
        2
102
RTVSPost2010PropOp53
 70
     1
102
RTVSPost2010Prop54
  1
strokes_ogs.tif
102
RTVSPost2010PropOp54
 70
     1
102
RTVSPost2010Prop55
280
     0
102
RTVSPost2010PropOp55
 70
     1
102
RTVSPost2010Prop56
140
1.0
102
RTVSPost2010PropOp56
 70
     1
102
RTVSPost2010Prop57
140
1.0
102
RTVSPost2010PropOp57
 70
     1
  0
ENDSEC
  0
EOF
