  0
SECTION
  2
HEADER
  9
$ACADVER
  1
AC1015
  9
$ACADMAINTVER
 70
     6
  9
$DWGCODEPAGE
  3
ANSI_932
  9
$INSBASE
 10
311.928136858613
 20
388.3263425980164
 30
0.0
  9
$EXTMIN
 10
136.228038363087
 20
27.09771502652097
 30
0.0
  9
$EXTMAX
 10
678.077878433096
 20
560.1943425227473
 30
0.0
  9
$LIMMIN
 10
-210.0
 20
-148.5
  9
$LIMMAX
 10
210.0
 20
148.5
  9
$ORTHOMODE
 70
     1
  9
$REGENMODE
 70
     1
  9
$FILLMODE
 70
     1
  9
$QTEXTMODE
 70
     0
  9
$MIRRTEXT
 70
     1
  9
$LTSCALE
 40
3.0
  9
$ATTMODE
 70
     1
  9
$TEXTSIZE
 40
6.0
  9
$TRACEWID
 40
0.05
  9
$TEXTSTYLE
  7
KANJI
  9
$CLAYER
  8
2
  9
$CELTYPE
  6
BYLAYER
  9
$CECOLOR
 62
   256
  9
$CELTSCALE
 40
1.0
  9
$DISPSILH
 70
     0
  9
$DIMSCALE
 40
2.0
  9
$DIMASZ
 40
2.0
  9
$DIMEXO
 40
0.5
  9
$DIMDLI
 40
10.0
  9
$DIMRND
 40
0.0
  9
$DIMDLE
 40
0.0
  9
$DIMEXE
 40
1.0
  9
$DIMTP
 40
0.0
  9
$DIMTM
 40
0.0
  9
$DIMTXT
 40
3.0
  9
$DIMCEN
 40
0.09
  9
$DIMTSZ
 40
0.0
  9
$DIMTOL
 70
     0
  9
$DIMLIM
 70
     0
  9
$DIMTIH
 70
     0
  9
$DIMTOH
 70
     0
  9
$DIMSE1
 70
     0
  9
$DIMSE2
 70
     0
  9
$DIMTAD
 70
     0
  9
$DIMZIN
 70
     8
  9
$DIMBLK
  1

  9
$DIMASO
 70
     0
  9
$DIMSHO
 70
     0
  9
$DIMPOST
  1

  9
$DIMAPOST
  1

  9
$DIMALT
 70
     0
  9
$DIMALTD
 70
     2
  9
$DIMALTF
 40
25.4
  9
$DIMLFAC
 40
1.0
  9
$DIMTOFL
 70
     1
  9
$DIMTVP
 40
1.0
  9
$DIMTIX
 70
     1
  9
$DIMSOXD
 70
     1
  9
$DIMSAH
 70
     0
  9
$DIMBLK1
  1

  9
$DIMBLK2
  1

  9
$DIMSTYLE
  2
STANDARD
  9
$DIMCLRD
 70
   256
  9
$DIMCLRE
 70
   256
  9
$DIMCLRT
 70
     2
  9
$DIMTFAC
 40
1.0
  9
$DIMGAP
 40
0.09
  9
$DIMJUST
 70
     0
  9
$DIMSD1
 70
     0
  9
$DIMSD2
 70
     0
  9
$DIMTOLJ
 70
     1
  9
$DIMTZIN
 70
     0
  9
$DIMALTZ
 70
     0
  9
$DIMALTTZ
 70
     0
  9
$DIMUPT
 70
     0
  9
$DIMDEC
 70
     4
  9
$DIMTDEC
 70
     4
  9
$DIMALTU
 70
     2
  9
$DIMALTTD
 70
     2
  9
$DIMTXSTY
  7
STANDARD
  9
$DIMAUNIT
 70
     0
  9
$DIMADEC
 70
     0
  9
$DIMALTRND
 40
0.0
  9
$DIMAZIN
 70
     0
  9
$DIMDSEP
 70
    46
  9
$DIMATFIT
 70
     3
  9
$DIMFRAC
 70
     0
  9
$DIMLDRBLK
  1

  9
$DIMLUNIT
 70
     2
  9
$DIMLWD
 70
    -2
  9
$DIMLWE
 70
    -2
  9
$DIMTMOVE
 70
     0
  9
$LUNITS
 70
     2
  9
$LUPREC
 70
     4
  9
$SKETCHINC
 40
0.1
  9
$FILLETRAD
 40
11.0
  9
$AUNITS
 70
     0
  9
$AUPREC
 70
     0
  9
$MENU
  1
.
  9
$ELEVATION
 40
0.0
  9
$PELEVATION
 40
0.0
  9
$THICKNESS
 40
0.0
  9
$LIMCHECK
 70
     0
  9
$CHAMFERA
 40
0.0
  9
$CHAMFERB
 40
0.0
  9
$CHAMFERC
 40
0.0
  9
$CHAMFERD
 40
0.0
  9
$SKPOLY
 70
     0
  9
$TDCREATE
 40
2457534.69976647
  9
$TDUCREATE
 40
2457534.32476647
  9
$TDUPDATE
 40
2457870.592925197
  9
$TDUUPDATE
 40
2457870.217925197
  9
$TDINDWG
 40
0.0228571412
  9
$TDUSRTIMER
 40
0.0228567824
  9
$USRTIMER
 70
     1
  9
$ANGBASE
 50
0.0
  9
$ANGDIR
 70
     0
  9
$PDMODE
 70
     0
  9
$PDSIZE
 40
0.0
  9
$PLINEWID
 40
0.0
  9
$SPLFRAME
 70
     0
  9
$SPLINETYPE
 70
     6
  9
$SPLINESEGS
 70
     8
  9
$HANDSEED
  5
8F1
  9
$SURFTAB1
 70
     6
  9
$SURFTAB2
 70
     6
  9
$SURFTYPE
 70
     6
  9
$SURFU
 70
     6
  9
$SURFV
 70
     6
  9
$UCSBASE
  2

  9
$UCSNAME
  2

  9
$UCSORG
 10
0.0
 20
0.0
 30
0.0
  9
$UCSXDIR
 10
1.0
 20
0.0
 30
0.0
  9
$UCSYDIR
 10
0.0
 20
1.0
 30
0.0
  9
$UCSORTHOREF
  2

  9
$UCSORTHOVIEW
 70
     0
  9
$UCSORGTOP
 10
0.0
 20
0.0
 30
0.0
  9
$UCSORGBOTTOM
 10
0.0
 20
0.0
 30
0.0
  9
$UCSORGLEFT
 10
0.0
 20
0.0
 30
0.0
  9
$UCSORGRIGHT
 10
0.0
 20
0.0
 30
0.0
  9
$UCSORGFRONT
 10
0.0
 20
0.0
 30
0.0
  9
$UCSORGBACK
 10
0.0
 20
0.0
 30
0.0
  9
$PUCSBASE
  2

  9
$PUCSNAME
  2

  9
$PUCSORG
 10
0.0
 20
0.0
 30
0.0
  9
$PUCSXDIR
 10
1.0
 20
0.0
 30
0.0
  9
$PUCSYDIR
 10
0.0
 20
1.0
 30
0.0
  9
$PUCSORTHOREF
  2

  9
$PUCSORTHOVIEW
 70
     0
  9
$PUCSORGTOP
 10
0.0
 20
0.0
 30
0.0
  9
$PUCSORGBOTTOM
 10
0.0
 20
0.0
 30
0.0
  9
$PUCSORGLEFT
 10
0.0
 20
0.0
 30
0.0
  9
$PUCSORGRIGHT
 10
0.0
 20
0.0
 30
0.0
  9
$PUCSORGFRONT
 10
0.0
 20
0.0
 30
0.0
  9
$PUCSORGBACK
 10
0.0
 20
0.0
 30
0.0
  9
$USERI1
 70
     0
  9
$USERI2
 70
     0
  9
$USERI3
 70
     0
  9
$USERI4
 70
     0
  9
$USERI5
 70
     0
  9
$USERR1
 40
0.0
  9
$USERR2
 40
0.0
  9
$USERR3
 40
0.0
  9
$USERR4
 40
0.0
  9
$USERR5
 40
0.0
  9
$WORLDVIEW
 70
     1
  9
$SHADEDGE
 70
     3
  9
$SHADEDIF
 70
    70
  9
$TILEMODE
 70
     1
  9
$MAXACTVP
 70
    16
  9
$PINSBASE
 10
0.0
 20
0.0
 30
0.0
  9
$PLIMCHECK
 70
     0
  9
$PEXTMIN
 10
1.000000000000000E+20
 20
1.000000000000000E+20
 30
1.000000000000000E+20
  9
$PEXTMAX
 10
-1.000000000000000E+20
 20
-1.000000000000000E+20
 30
-1.000000000000000E+20
  9
$PLIMMIN
 10
0.0
 20
0.0
  9
$PLIMMAX
 10
12.0
 20
9.0
  9
$UNITMODE
 70
     0
  9
$VISRETAIN
 70
     0
  9
$PLINEGEN
 70
     0
  9
$PSLTSCALE
 70
     1
  9
$TREEDEPTH
 70
  3020
  9
$CMLSTYLE
  2
STANDARD
  9
$CMLJUST
 70
     0
  9
$CMLSCALE
 40
1.0
  9
$PROXYGRAPHICS
 70
     1
  9
$MEASUREMENT
 70
     0
  9
$CELWEIGHT
370
    -1
  9
$ENDCAPS
280
     0
  9
$JOINSTYLE
280
     0
  9
$LWDISPLAY
290
     0
  9
$INSUNITS
 70
     0
  9
$HYPERLINKBASE
  1

  9
$STYLESHEET
  1
monochrome.ctb
  9
$XEDIT
290
     1
  9
$CEPSNTYPE
380
     0
  9
$PSTYLEMODE
290
     1
  9
$FINGERPRINTGUID
  2
{DCCA6665-9C11-40B5-81F6-F8C1D162537B}
  9
$VERSIONGUID
  2
{3B694879-FEEA-49A7-9D6D-DEF24B0FF163}
  9
$EXTNAMES
290
     1
  9
$PSVPSCALE
 40
0.0
  9
$OLESTARTUP
290
     0
  0
ENDSEC
  0
SECTION
  2
CLASSES
  0
CLASS
  1
ACDBDICTIONARYWDFLT
  2
AcDbDictionaryWithDefault
  3
ObjectDBX Classes
 90
        0
280
     0
281
     0
  0
CLASS
  1
MATERIAL
  2
AcDbMaterial
  3
ObjectDBX Classes
 90
     1153
280
     0
281
     0
  0
CLASS
  1
SORTENTSTABLE
  2
AcDbSortentsTable
  3
ObjectDBX Classes
 90
        0
280
     0
281
     0
  0
CLASS
  1
SCALE
  2
AcDbScale
  3
ObjectDBX Classes
 90
     1153
280
     0
281
     0
  0
CLASS
  1
DICTIONARYVAR
  2
AcDbDictionaryVar
  3
ObjectDBX Classes
 90
        0
280
     0
281
     0
  0
CLASS
  1
VISUALSTYLE
  2
AcDbVisualStyle
  3
ObjectDBX Classes
 90
     4095
280
     0
281
     0
  0
CLASS
  1
TABLESTYLE
  2
AcDbTableStyle
  3
ObjectDBX Classes
 90
     4095
280
     0
281
     0
  0
CLASS
  1
MLEADERSTYLE
  2
AcDbMLeaderStyle
  3
ACDB_MLEADERSTYLE_CLASS
 90
     4095
280
     0
281
     0
  0
CLASS
  1
ACDBPLACEHOLDER
  2
AcDbPlaceHolder
  3
ObjectDBX Classes
 90
        0
280
     0
281
     0
  0
CLASS
  1
LAYOUT
  2
AcDbLayout
  3
ObjectDBX Classes
 90
        0
280
     0
281
     0
  0
ENDSEC
  0
SECTION
  2
TABLES
  0
TABLE
  2
VPORT
  5
2D
102
{ACAD_XDICTIONARY
360
8B6
102
}
330
0
100
AcDbSymbolTable
 70
     1
  0
VPORT
  5
32
330
2D
100
AcDbSymbolTableRecord
100
AcDbViewportTableRecord
  2
*ACTIVE
 70
     0
 10
0.0
 20
0.0
 11
1.0
 21
1.0
 12
724.8934418489762
 22
276.1113765342255
 13
0.0
 23
0.0
 14
1.0
 24
1.0
 15
0.0
 25
0.0
 16
0.0
 26
0.0
 36
1.0
 17
0.0
 27
0.0
 37
0.0
 40
857.9170836091761
 41
2.177611940298507
 42
50.0
 43
0.0
 44
0.0
 50
0.0
 51
0.0
 71
     0
 72
 20000
 73
     1
 74
     0
 75
     0
 76
     0
 77
     0
 78
     0
281
     0
 65
     1
110
0.0
120
0.0
130
0.0
111
1.0
121
0.0
131
0.0
112
0.0
122
1.0
132
0.0
 79
     0
146
0.0
1001
ACAD_NAV_VCDISPLAY
1070
     3
  0
ENDTAB
  0
TABLE
  2
LTYPE
  5
F
330
0
100
AcDbSymbolTable
 70
     3
  0
LTYPE
  5
10
330
F
100
AcDbSymbolTableRecord
100
AcDbLinetypeTableRecord
  2
BYBLOCK
 70
     0
  3

 72
    65
 73
     0
 40
0.0
  0
LTYPE
  5
11
330
F
100
AcDbSymbolTableRecord
100
AcDbLinetypeTableRecord
  2
BYLAYER
 70
     0
  3

 72
    65
 73
     0
 40
0.0
  0
LTYPE
  5
E
330
F
100
AcDbSymbolTableRecord
100
AcDbLinetypeTableRecord
  2
CONTINUOUS
 70
     0
  3
Solid line
 72
    65
 73
     0
 40
0.0
  0
LTYPE
  5
BC
330
F
100
AcDbSymbolTableRecord
100
AcDbLinetypeTableRecord
  2
CENTER
 70
     0
  3
____ _ ____ _ ____ _ ____ _ ____ _ ____ _ ____
 72
    65
 73
     4
 40
12.0
 49
9.0
 74
     0
 49
-1.0
 74
     0
 49
1.0
 74
     0
 49
-1.0
 74
     0
  0
ENDTAB
  0
TABLE
  2
LAYER
  5
2
102
{ACAD_XDICTIONARY
360
3
102
}
330
0
100
AcDbSymbolTable
 70
     9
  0
LAYER
  5
1F
102
{ACAD_XDICTIONARY
360
20
102
}
330
2
100
AcDbSymbolTableRecord
100
AcDbLayerTableRecord
  2
0
 70
     0
 62
     7
  6
CONTINUOUS
370
    -3
390
7
  0
LAYER
  5
F3
102
{ACAD_XDICTIONARY
360
F4
102
}
330
2
100
AcDbSymbolTableRecord
100
AcDbLayerTableRecord
  2
1
 70
     0
 62
     7
  6
CONTINUOUS
370
    -3
390
7
  0
LAYER
  5
1
102
{ACAD_XDICTIONARY
360
5
102
}
330
2
100
AcDbSymbolTableRecord
100
AcDbLayerTableRecord
  2
2
 70
     0
 62
     4
  6
CONTINUOUS
370
    -3
390
7
  0
LAYER
  5
5A
102
{ACAD_XDICTIONARY
360
5B
102
}
330
2
100
AcDbSymbolTableRecord
100
AcDbLayerTableRecord
  2
4
 70
     0
 62
     3
  6
CONTINUOUS
370
    -3
390
7
  0
LAYER
  5
B9
102
{ACAD_XDICTIONARY
360
BA
102
}
330
2
100
AcDbSymbolTableRecord
100
AcDbLayerTableRecord
  2
L-CENTER
 70
     0
 62
     1
  6
CENTER
370
    -3
390
7
  0
LAYER
  5
E9
102
{ACAD_XDICTIONARY
360
EA
102
}
330
2
100
AcDbSymbolTableRecord
100
AcDbLayerTableRecord
  2
5
 70
     0
 62
     6
  6
CONTINUOUS
370
    -3
390
7
  0
LAYER
  5
7F
102
{ACAD_XDICTIONARY
360
80
102
}
330
2
100
AcDbSymbolTableRecord
100
AcDbLayerTableRecord
  2
3
 70
     0
 62
     2
  6
CONTINUOUS
370
    -3
390
7
  0
LAYER
  5
841
330
2
100
AcDbSymbolTableRecord
100
AcDbLayerTableRecord
  2
Defpoints
 70
     0
 62
     7
  6
CONTINUOUS
290
     0
370
    -3
390
7
  0
ENDTAB
  0
TABLE
  2
STYLE
  5
13
330
0
100
AcDbSymbolTable
 70
     3
  0
STYLE
  5
17
330
13
100
AcDbSymbolTableRecord
100
AcDbTextStyleTableRecord
  2
STANDARD
 70
     0
 40
0.0
 41
1.0
 50
0.0
 71
     0
 42
3.6
  3
txt
  4

  0
STYLE
  5
12
330
13
100
AcDbSymbolTableRecord
100
AcDbTextStyleTableRecord
  2
KANJI
 70
     0
 40
0.0
 41
1.0
 50
0.0
 71
     0
 42
6.0
  3
TXT
  4
BIGFONT
  0
STYLE
  5
470
330
13
100
AcDbSymbolTableRecord
100
AcDbTextStyleTableRecord
  2
KANJIT
 70
     4
 40
0.0
 41
1.0
 50
0.0
 71
     0
 42
2.8
  3
TXT
  4
BIGFONT
  0
ENDTAB
  0
TABLE
  2
VIEW
  5
2B
330
0
100
AcDbSymbolTable
 70
     0
  0
ENDTAB
  0
TABLE
  2
UCS
  5
2C
330
0
100
AcDbSymbolTable
 70
     0
  0
ENDTAB
  0
TABLE
  2
APPID
  5
D
330
0
100
AcDbSymbolTable
 70
     5
  0
APPID
  5
C
330
D
100
AcDbSymbolTableRecord
100
AcDbRegAppTableRecord
  2
ACAD
 70
     0
  0
APPID
  5
26
330
D
100
AcDbSymbolTableRecord
100
AcDbRegAppTableRecord
  2
ACAD_PSEXT
 70
     0
  0
APPID
  5
33
330
D
100
AcDbSymbolTableRecord
100
AcDbRegAppTableRecord
  2
ACAD_NAV_VCDISPLAY
 70
     0
  0
APPID
  5
46C
330
D
100
AcDbSymbolTableRecord
100
AcDbRegAppTableRecord
  2
ACAD_EXEMPT_FROM_CAD_STANDARDS
 70
     0
  0
APPID
  5
46E
330
D
100
AcDbSymbolTableRecord
100
AcDbRegAppTableRecord
  2
ACAD_MLEADERVER
 70
     0
  0
ENDTAB
  0
TABLE
  2
DIMSTYLE
  5
16
330
0
100
AcDbSymbolTable
 70
     1
100
AcDbDimStyleTable
  0
DIMSTYLE
105
15
330
16
100
AcDbSymbolTableRecord
100
AcDbDimStyleTableRecord
  2
STANDARD
 70
     0
178
     0
340
17
  0
ENDTAB
  0
TABLE
  2
BLOCK_RECORD
  5
1A
330
0
100
AcDbSymbolTable
 70
     1
  0
BLOCK_RECORD
  5
1B
102
{ACAD_XDICTIONARY
360
1C
102
}
330
1A
100
AcDbSymbolTableRecord
100
AcDbBlockTableRecord
  2
*MODEL_SPACE
340
23
  0
BLOCK_RECORD
  5
27
330
1A
100
AcDbSymbolTableRecord
100
AcDbBlockTableRecord
  2
*PAPER_SPACE
340
2A
  0
BLOCK_RECORD
  5
458
102
{ACAD_XDICTIONARY
360
49F
102
}
330
1A
100
AcDbSymbolTableRecord
100
AcDbBlockTableRecord
  2
PGA-S_4
340
0
  0
ENDTAB
  0
ENDSEC
  0
SECTION
  2
BLOCKS
  0
BLOCK
  5
1E
330
1B
100
AcDbEntity
  8
0
100
AcDbBlockBegin
  2
*MODEL_SPACE
 70
     0
 10
0.0
 20
0.0
 30
0.0
  3
*MODEL_SPACE
  1

  0
ENDBLK
  5
22
330
1B
100
AcDbEntity
  8
0
100
AcDbBlockEnd
  0
BLOCK
  5
28
330
27
100
AcDbEntity
 67
     1
  8
0
100
AcDbBlockBegin
  2
*PAPER_SPACE
 70
     0
 10
0.0
 20
0.0
 30
0.0
  3
*PAPER_SPACE
  1

  0
ENDBLK
  5
29
330
27
100
AcDbEntity
 67
     1
  8
0
100
AcDbBlockEnd
  0
BLOCK
  5
661
330
458
100
AcDbEntity
  8
2
100
AcDbBlockBegin
  2
PGA-S_4
 70
     0
 10
0.0
 20
0.0
 30
0.0
  3
PGA-S_4
  1
Acad:XRef
  0
LINE
  5
4A1
330
458
100
AcDbEntity
  8
1
 62
     9
100
AcDbLine
 10
-228.2488823246705
 20
37.653168522318
 30
0.0
 11
-96.74888232467049
 21
37.653168522318
 31
0.0
  0
LINE
  5
4A2
330
458
100
AcDbEntity
  8
1
 62
     9
100
AcDbLine
 10
-228.2488823246705
 20
-51.346831477682
 30
0.0
 11
-196.7488823246705
 21
-51.346831477682
 31
0.0
  0
LINE
  5
4A3
330
458
100
AcDbEntity
  8
1
 62
     9
100
AcDbLine
 10
-221.7488823246705
 20
-54.346831477682
 30
0.0
 11
-196.7488823246705
 21
-54.346831477682
 31
0.0
  0
LINE
  5
4A4
330
458
100
AcDbEntity
  8
1
 62
     1
100
AcDbLine
 10
-221.7488823246705
 20
-57.346831477682
 30
0.0
 11
-196.7488823246705
 21
-57.346831477682
 31
0.0
  0
LINE
  5
4A5
330
458
100
AcDbEntity
  8
1
 62
     9
100
AcDbLine
 10
-228.2488823246705
 20
-60.34683147768203
 30
0.0
 11
-96.74888232467049
 21
-60.34683147768203
 31
0.0
  0
LINE
  5
4A6
330
458
100
AcDbEntity
  8
1
 62
     9
100
AcDbLine
 10
-228.2488823246705
 20
-45.346831477682
 30
0.0
 11
-196.7488823246705
 21
-45.346831477682
 31
0.0
  0
LINE
  5
4A7
330
458
100
AcDbEntity
  8
1
 62
     9
100
AcDbLine
 10
-221.7488823246705
 20
-48.346831477682
 30
0.0
 11
-196.7488823246705
 21
-48.346831477682
 31
0.0
  0
LINE
  5
4A8
330
458
100
AcDbEntity
  8
1
 62
     9
100
AcDbLine
 10
-228.2488823246705
 20
-60.34683147768203
 30
0.0
 11
-228.2488823246705
 21
37.653168522318
 31
0.0
  0
TEXT
  5
4A9
330
458
100
AcDbEntity
  8
1
 62
     1
100
AcDbText
 10
-231.5930902382013
 20
-59.33526978815894
 30
0.0
 40
1.5
  1
950808
 50
90.0
  7
KANJI
100
AcDbText
  0
TEXT
  5
4AA
330
458
100
AcDbEntity
  8
1
 62
     1
100
AcDbText
 10
-229.2477208447966
 20
-59.33526978815894
 30
0.0
 40
1.5
  1
PGA-S
 50
90.0
  7
KANJI
100
AcDbText
  0
LINE
  5
4AB
330
458
100
AcDbEntity
  8
1
 62
     9
100
AcDbLine
 10
-221.7488823246705
 20
-60.34683147768203
 30
0.0
 11
-221.7488823246705
 21
-45.346831477682
 31
0.0
  0
TEXT
  5
4AC
330
458
100
AcDbEntity
  8
1
 62
     1
100
AcDbText
 10
-225.1530986665165
 20
-54.27565043208935
 30
0.0
 40
1.44
  1
工程
  7
KANJIT
100
AcDbText
  0
TEXT
  5
4AD
330
458
100
AcDbEntity
  8
1
 62
     1
100
AcDbText
 10
-225.2168614493694
 20
-46.58437342865599
 30
0.0
 40
1.44
  1
資材
  7
KANJIT
100
AcDbText
  0
TEXT
  5
4AE
330
458
100
AcDbEntity
  8
3
100
AcDbText
 10
-220.7741255974428
 20
-50.60386666891074
 30
0.0
 40
1.5
  1
ナイロン６６
  7
KANJI
100
AcDbText
  0
TEXT
  5
4AF
330
458
100
AcDbEntity
  8
1
 62
     1
100
AcDbText
 10
-220.7530234950895
 20
-47.71175152718283
 30
0.0
 40
1.5
  1
　材　　質
  7
KANJI
100
AcDbText
  0
LINE
  5
4B0
330
458
100
AcDbEntity
  8
1
  6
Continuous
 62
     9
100
AcDbLine
 10
-196.7488823246704
 20
-60.34683147768203
 30
0.0
 11
-196.7488823246705
 21
-45.346831477682
 31
0.0
  0
LINE
  5
4B1
330
458
100
AcDbEntity
  8
1
  6
Continuous
 62
     9
100
AcDbLine
 10
-209.2488823246705
 20
-60.34683147768203
 30
0.0
 11
-209.2488823246705
 21
-45.346831477682
 31
0.0
  0
TEXT
  5
4B2
330
458
100
AcDbEntity
  8
1
 62
     1
100
AcDbText
 10
-208.2530234950895
 20
-47.71175152718283
 30
0.0
 40
1.5
  1
　素材寸法
  7
KANJI
100
AcDbText
  0
LINE
  5
4B3
330
458
100
AcDbEntity
  8
1
 62
     9
100
AcDbLine
 10
-96.74888232467049
 20
-60.34683147768203
 30
0.0
 11
-96.74888232467049
 21
37.653168522318
 31
0.0
  0
TEXT
  5
4B4
330
458
100
AcDbEntity
  8
4
100
AcDbText
 10
-125.5955355038083
 20
28.10593008364128
 30
0.0
 40
1.5544375
  1
エアー抜キ（小）
  7
KANJI
100
AcDbText
  0
TEXT
  5
4B5
330
458
100
AcDbEntity
  8
4
100
AcDbText
 10
-125.9145151587571
 20
23.75046960925815
 30
0.0
 40
2.5
  1
￥ＰＧＡ－Ｓ
  7
KANJI
100
AcDbText
  0
TEXT
  5
4B6
330
458
100
AcDbEntity
  8
1
 62
     1
100
AcDbText
 10
-126.0838132956604
 20
33.90266810998972
 30
0.0
 40
2.4
  1
青木精密工業株式会社
  7
KANJI
100
AcDbText
  0
LINE
  5
4B7
330
458
100
AcDbEntity
  8
1
 62
     9
100
AcDbLine
 10
-126.7488823246705
 20
32.653168522318
 30
0.0
 11
-96.74888232467049
 21
32.653168522318
 31
0.0
  0
LINE
  5
4B8
330
458
100
AcDbEntity
  8
1
 62
     9
100
AcDbLine
 10
-126.7488823246705
 20
30.153168522318
 30
0.0
 11
-96.74888232467049
 21
30.153168522318
 31
0.0
  0
LINE
  5
4B9
330
458
100
AcDbEntity
  8
1
 62
     9
100
AcDbLine
 10
-126.7488823246705
 20
27.653168522318
 30
0.0
 11
-96.74888232467049
 21
27.653168522318
 31
0.0
  0
LINE
  5
4BA
330
458
100
AcDbEntity
  8
1
 62
     1
100
AcDbLine
 10
-126.7488823246705
 20
22.653168522318
 30
0.0
 11
-96.74888232467049
 21
22.653168522318
 31
0.0
  0
LINE
  5
4BB
330
458
100
AcDbEntity
  8
1
 62
     9
100
AcDbLine
 10
-126.7488823246705
 20
20.153168522318
 30
0.0
 11
-96.74888232467049
 21
20.153168522318
 31
0.0
  0
LINE
  5
4BC
330
458
100
AcDbEntity
  8
1
 62
     9
100
AcDbLine
 10
-126.7488823246705
 20
22.653168522318
 30
0.0
 11
-96.74888232467049
 21
22.653168522318
 31
0.0
  0
LINE
  5
4BD
330
458
100
AcDbEntity
  8
1
 62
     9
100
AcDbLine
 10
-126.7488823246705
 20
11.653168522318
 30
0.0
 11
-96.74888232467049
 21
11.653168522318
 31
0.0
  0
LINE
  5
4BE
330
458
100
AcDbEntity
  8
1
 62
     9
100
AcDbLine
 10
-126.7488823246705
 20
11.653168522318
 30
0.0
 11
-96.74888232467049
 21
11.653168522318
 31
0.0
  0
TEXT
  5
4BF
330
458
100
AcDbEntity
  8
1
 62
     1
100
AcDbText
 10
-126.027744734798
 20
30.403168522318
 30
0.0
 40
1.75
  1
ウォームギヤモード
  7
KANJI
100
AcDbText
  0
LINE
  5
4C0
330
458
100
AcDbEntity
  8
1
 62
     9
100
AcDbLine
 10
-126.7488823246705
 20
37.653168522318
 30
0.0
 11
-126.7488823246705
 21
-8.928230360742447
 31
0.0
  0
TEXT
  5
4C1
330
458
100
AcDbEntity
  8
1
 62
     1
100
AcDbText
 10
-125.7488823246705
 20
9.639498361574624
 30
0.0
 40
1.75
  1
記　事
  7
KANJI
100
AcDbText
  0
TEXT
  5
4C2
330
458
100
AcDbEntity
  8
1
 62
     1
100
AcDbText
 10
-124.7181043387132
 20
20.49276444828527
 30
0.0
 40
1.75
  1
製　図
  7
KANJI
100
AcDbText
  0
TEXT
  5
4C3
330
458
100
AcDbEntity
  8
4
100
AcDbText
 10
-99.97568813105266
 20
22.86446336277325
 30
0.0
 40
2.5
  1
４
  7
KANJI
100
AcDbText
  0
LINE
  5
4C4
330
458
100
AcDbEntity
  8
1
 62
     9
100
AcDbLine
 10
-100.7488823246705
 20
22.653168522318
 30
0.0
 11
-100.7488823246705
 21
27.653168522318
 31
0.0
  0
LINE
  5
4C5
330
458
100
AcDbEntity
  8
1
 62
     9
100
AcDbLine
 10
-116.7488823246705
 20
11.653168522318
 30
0.0
 11
-116.7488823246705
 21
22.653168522318
 31
0.0
  0
LINE
  5
4C6
330
458
100
AcDbEntity
  8
1
 62
     9
100
AcDbLine
 10
-106.7488823246705
 20
11.653168522318
 30
0.0
 11
-106.7488823246705
 21
22.653168522318
 31
0.0
  0
TEXT
  5
4C7
330
458
100
AcDbEntity
  8
1
 62
     1
100
AcDbText
 10
-114.7181043387132
 20
20.49276444828527
 30
0.0
 40
1.75
  1
検　図
  7
KANJI
100
AcDbText
  0
TEXT
  5
4C8
330
458
100
AcDbEntity
  8
1
 62
     1
100
AcDbText
 10
-104.7181043387133
 20
20.49276444828527
 30
0.0
 40
1.75
  1
承　認
  7
KANJI
100
AcDbText
  0
LINE
  5
4C9
330
458
100
AcDbEntity
  8
1
 62
     9
100
AcDbLine
 10
-106.7488823246705
 20
27.653168522318
 30
0.0
 11
-106.7488823246705
 21
30.153168522318
 31
0.0
  0
TEXT
  5
4CA
330
458
100
AcDbEntity
  8
1
 62
     1
100
AcDbText
 10
-106.0139038853981
 20
27.903168522318
 30
0.0
 40
1.75
  1
尺度２：１
 41
0.9
  7
KANJI
100
AcDbText
  0
LINE
  5
4CB
330
458
100
AcDbEntity
  8
1
 62
     9
100
AcDbLine
 10
-100.7488823246705
 20
25.653168522318
 30
0.0
 11
-96.74888232467049
 21
25.653168522318
 31
0.0
  0
TEXT
  5
4CC
330
458
100
AcDbEntity
  8
1
 62
     1
100
AcDbText
 10
-100.4988823246705
 20
25.903168522318
 30
0.0
 40
1.5
  1
REV
 41
0.8000000000000002
  7
KANJI
100
AcDbText
  0
TEXT
  5
4CD
330
458
100
AcDbEntity
  8
1
 62
     1
100
AcDbText
 10
-96.99888232467049
 20
25.903168522318
 30
0.0
 40
1.5
  1
.
 41
0.8000000000000002
  7
KANJI
100
AcDbText
  0
TEXT
  5
4CE
330
458
100
AcDbEntity
  8
3
100
AcDbText
 10
-125.2402758291124
 20
7.485462550849803
 30
0.0
 40
1.49625
  1
ナイロン６６
 41
0.8699999999999999
  7
KANJI
100
AcDbText
  0
TEXT
  5
4CF
330
458
100
AcDbEntity
  8
3
100
AcDbText
 10
-125.1895262675158
 20
5.108891482937693
 30
0.0
 40
1.49625
  1
旭化成　レオナ１３００Ｓ　ナチュラル
 41
0.8699999999999999
  7
KANJI
100
AcDbText
  0
TEXT
  5
4D0
330
458
100
AcDbEntity
  8
1
 62
     1
100
AcDbText
 10
-124.6364009515625
 20
16.50296612132669
 30
0.0
 40
1.75
  1
高　橋
  7
KANJI
100
AcDbText
  0
TEXT
  5
4D1
330
458
100
AcDbEntity
  8
1
 62
     1
100
AcDbText
 10
-125.9248826223464
 20
13.63709412512054
 30
0.0
 40
1.1375
  1
'10-10-28
  7
KANJI
100
AcDbText
  0
LINE
  5
4D2
330
458
100
AcDbEntity
  8
1
 62
     9
100
AcDbLine
 10
-126.7488823246705
 20
-1.428230360742447
 30
0.0
 11
-96.74888232467049
 21
-1.428230360742447
 31
0.0
  0
LINE
  5
4D3
330
458
100
AcDbEntity
  8
2
100
AcDbLine
 10
-114.5647400469858
 20
-1.428230360742447
 30
0.0
 11
-114.5647400469858
 21
-8.928230360742447
 31
0.0
  0
LINE
  5
4D4
330
458
100
AcDbEntity
  8
2
100
AcDbLine
 10
-124.2488823246705
 20
-1.428230360742447
 30
0.0
 11
-124.2488823246705
 21
-8.928230360742447
 31
0.0
  0
LINE
  5
4D5
330
458
100
AcDbEntity
  8
2
100
AcDbLine
 10
-126.7488823246705
 20
-3.928230360742447
 30
0.0
 11
-96.74888232467049
 21
-3.928230360742447
 31
0.0
  0
TEXT
  5
4D6
330
458
100
AcDbEntity
  8
1
 62
     1
100
AcDbText
 10
-114.0379152338095
 20
-3.368801911623095
 30
0.0
 40
1.111943160898295
  1
内部改造，材質変更
  7
KANJI
100
AcDbText
  0
TEXT
  5
4D7
330
458
100
AcDbEntity
  8
1
 62
     1
100
AcDbText
 10
-123.2838202695079
 20
-3.273265376191077
 30
0.0
 40
0.9900000000000001
  1
'95- 8- 8
  7
KANJI
100
AcDbText
  0
LWPOLYLINE
  5
4D8
330
458
100
AcDbEntity
  8
1
 62
     1
100
AcDbPolyline
 90
        4
 70
     0
 43
0.0
 10
-125.5498202305578
 20
-1.989703155866351
 10
-126.3498202305578
 20
-3.375343801921446
 10
-124.7498202305578
 20
-3.375343801921446
 10
-125.5498202305578
 20
-1.989703155866351
  0
TEXT
  5
4D9
330
458
100
AcDbEntity
  8
1
 62
     1
100
AcDbText
 10
-125.7779721786824
 20
-3.179108333266316
 30
0.0
 40
0.6000000000000001
  1
2
  7
KANJI
 72
     4
 11
-125.5779721786824
 21
-2.879108333266316
 31
0.0
100
AcDbText
  0
TEXT
  5
4DA
330
458
100
AcDbEntity
  8
1
 62
     1
100
AcDbText
 10
-99.81737815596014
 20
-3.318090064796849
 30
0.0
 40
1.111943160898295
  1
梅基
  7
KANJI
100
AcDbText
  0
LWPOLYLINE
  5
4DB
330
458
100
AcDbEntity
  8
1
 62
     1
100
AcDbPolyline
 90
        4
 70
     0
 43
0.0
 10
-220.3533323067855
 20
-46.26152930832097
 10
-221.1533323067855
 20
-47.64716995437607
 10
-219.5533323067855
 20
-47.64716995437607
 10
-220.3533323067855
 20
-46.26152930832097
  0
TEXT
  5
4DC
330
458
100
AcDbEntity
  8
1
 62
     1
100
AcDbText
 10
-220.58148425491
 20
-47.45093448572094
 30
0.0
 40
0.6000000000000001
  1
2
  7
KANJI
 72
     4
 11
-220.38148425491
 21
-47.15093448572094
 31
0.0
100
AcDbText
  0
LINE
  5
4DD
330
458
100
AcDbEntity
  8
2
100
AcDbLine
 10
-126.7488823246705
 20
-6.428230360742447
 30
0.0
 11
-96.74888232467049
 21
-6.428230360742447
 31
0.0
  0
LWPOLYLINE
  5
4DE
330
458
100
AcDbEntity
  8
1
 62
     1
100
AcDbPolyline
 90
        4
 70
     0
 43
0.0
 10
-125.5498202305578
 20
-4.489703155866351
 10
-126.3498202305578
 20
-5.875343801921446
 10
-124.7498202305578
 20
-5.875343801921446
 10
-125.5498202305578
 20
-4.489703155866351
  0
TEXT
  5
4DF
330
458
100
AcDbEntity
  8
1
 62
     1
100
AcDbText
 10
-125.7779721786824
 20
-5.679108333266316
 30
0.0
 40
0.6000000000000001
  1
3
  7
KANJI
 72
     4
 11
-125.5779721786824
 21
-5.379108333266316
 31
0.0
100
AcDbText
  0
TEXT
  5
4E0
330
458
100
AcDbEntity
  8
1
 62
     1
100
AcDbText
 10
-123.2838202695079
 20
-5.773265376191077
 30
0.0
 40
0.9900000000000001
  1
'05-10- 6
  7
KANJI
100
AcDbText
  0
TEXT
  5
4E1
330
458
100
AcDbEntity
  8
1
 62
     1
100
AcDbText
 10
-114.0379152338095
 20
-5.868801911623095
 30
0.0
 40
1.111943160898295
  1
ＡＵＴＯＣＡＤ化
  7
KANJI
100
AcDbText
  0
TEXT
  5
4E2
330
458
100
AcDbEntity
  8
1
 62
     1
100
AcDbText
 10
-99.81737815596014
 20
-5.818090064796841
 30
0.0
 40
1.111943160898295
  1
田中
  7
KANJI
100
AcDbText
  0
LINE
  5
4E3
330
458
100
AcDbEntity
  8
L-CENTER
 48
0.5
100
AcDbLine
 10
-226.1077508726613
 20
-9.461411349245509
 30
0.0
 11
-196.8531749585346
 21
-9.461411349245509
 31
0.0
  0
LINE
  5
4E4
330
458
100
AcDbEntity
  8
L-CENTER
 48
0.5
100
AcDbLine
 10
-211.65273886681
 20
5.889690108816126
 30
0.0
 11
-211.65273886681
 21
-24.61381523713919
 31
0.0
  0
LINE
  5
4E5
330
458
100
AcDbEntity
  8
4
100
AcDbLine
 10
-200.65273886681
 20
-4.265258921777331
 30
0.0
 11
-200.65273886681
 21
-14.65756377195214
 31
0.0
  0
LINE
  5
4E6
330
458
100
AcDbEntity
  8
4
100
AcDbLine
 10
-222.65273886681
 20
-4.265258931300423
 30
0.0
 11
-222.65273886681
 21
-14.65756377195211
 31
0.0
  0
LINE
  5
4E7
330
458
100
AcDbEntity
  8
4
100
AcDbLine
 10
-221.65273886681
 20
-16.38961457952099
 30
0.0
 11
-212.65273886681
 21
-21.58576700222763
 31
0.0
  0
LINE
  5
4E8
330
458
100
AcDbEntity
  8
4
100
AcDbLine
 10
-210.652738856344
 20
2.662944303736651
 30
0.0
 11
-201.6527388666251
 21
-2.533208114315201
 31
0.0
  0
LINE
  5
4E9
330
458
100
AcDbEntity
  8
4
100
AcDbLine
 10
-212.652738856344
 20
2.662944303736651
 30
0.0
 11
-221.652738866625
 21
-2.533208123624789
 31
0.0
  0
LINE
  5
4EA
330
458
100
AcDbEntity
  8
4
100
AcDbLine
 10
-201.65273886681
 20
-16.38961457952102
 30
0.0
 11
-210.65273886681
 21
-21.58576700222763
 31
0.0
  0
ARC
  5
4EB
330
458
100
AcDbEntity
  8
4
100
AcDbCircle
 10
-211.652738856344
 20
0.9308934961677693
 30
0.0
 40
2.0
100
AcDbArc
 50
59.99999999999996
 51
120.0
  0
ARC
  5
4EC
330
458
100
AcDbEntity
  8
4
100
AcDbCircle
 10
-220.65273886681
 20
-4.265258931300423
 30
0.0
 40
2.0
100
AcDbArc
 50
119.999999993884
 51
180.0
  0
ARC
  5
4ED
330
458
100
AcDbEntity
  8
4
100
AcDbCircle
 10
-220.65273886681
 20
-14.65756377195211
 30
0.0
 40
2.0
100
AcDbArc
 50
180.0
 51
239.9999999999999
  0
ARC
  5
4EE
330
458
100
AcDbEntity
  8
4
100
AcDbCircle
 10
-211.65273886681
 20
-19.85371619465874
 30
0.0
 40
2.0
100
AcDbArc
 50
239.9999999999999
 51
300.0
  0
ARC
  5
4EF
330
458
100
AcDbEntity
  8
4
100
AcDbCircle
 10
-202.65273886681
 20
-14.65756377195214
 30
0.0
 40
2.0
100
AcDbArc
 50
300.0
 51
0.0
  0
ARC
  5
4F0
330
458
100
AcDbEntity
  8
4
100
AcDbCircle
 10
-202.65273886681
 20
-4.265258921777331
 30
0.0
 40
2.0
100
AcDbArc
 50
0.0
 51
59.99999999388404
  0
CIRCLE
  5
4F1
330
458
100
AcDbEntity
  8
4
100
AcDbCircle
 10
-211.65273886681
 20
-9.461411349245509
 30
0.0
 40
12.5
  0
LINE
  5
4F2
330
458
100
AcDbEntity
  8
L-CENTER
 48
0.5
100
AcDbLine
 10
-187.1541406843124
 20
-9.356989006149888
 30
0.0
 11
-165.531191837849
 21
-9.356989006149888
 31
0.0
  0
LINE
  5
4F3
330
458
100
AcDbEntity
  8
4
100
AcDbLine
 10
-183.9285585196109
 20
3.143010993850112
 30
0.0
 11
-178.4285585196109
 21
3.143010993850112
 31
0.0
  0
LINE
  5
4F4
330
458
100
AcDbEntity
  8
4
100
AcDbLine
 10
-183.9285585196109
 20
-21.85698900614989
 30
0.0
 11
-178.4285585196109
 21
-21.8569890061499
 31
0.0
  0
LINE
  5
4F5
330
458
100
AcDbEntity
  8
4
100
AcDbLine
 10
-184.4285585196109
 20
2.643010993850112
 30
0.0
 11
-184.4285585196109
 21
-21.35698900614989
 31
0.0
  0
ARC
  5
4F6
330
458
100
AcDbEntity
  8
4
100
AcDbCircle
 10
-183.9285585196109
 20
2.643010993850112
 30
0.0
 40
0.5
100
AcDbArc
 50
90.0
 51
180.0
  0
ARC
  5
4F7
330
458
100
AcDbEntity
  8
4
100
AcDbCircle
 10
-183.9285585196109
 20
-21.35698900614989
 30
0.0
 40
0.5
100
AcDbArc
 50
180.0
 51
270.0
  0
LINE
  5
4F8
330
458
100
AcDbEntity
  8
4
100
AcDbLine
 10
-180.4285585196109
 20
3.143010993850112
 30
0.0
 11
-180.4285585196109
 21
-12.10698900614989
 31
0.0
  0
LINE
  5
4F9
330
458
100
AcDbEntity
  8
4
100
AcDbLine
 10
-178.4285585196109
 20
3.143010993850112
 30
0.0
 11
-178.4285585196109
 21
-9.356989006149888
 31
0.0
  0
LINE
  5
4FA
330
458
100
AcDbEntity
  8
4
100
AcDbLine
 10
-184.4285585196109
 20
-3.006136040444808
 30
0.0
 11
-180.4285585196109
 21
-3.006136040444794
 31
0.0
  0
LINE
  5
4FB
330
458
100
AcDbEntity
  8
4
100
AcDbLine
 10
-182.4285585196109
 20
-9.356989006149881
 30
0.0
 11
-182.4285585196109
 21
-11.85698900614989
 31
0.0
  0
LINE
  5
4FC
330
458
100
AcDbEntity
  8
4
100
AcDbLine
 10
-182.4285585196109
 20
-11.85698900614989
 30
0.0
 11
-180.4285585196109
 21
-11.85698900614988
 31
0.0
  0
LINE
  5
4FD
330
458
100
AcDbEntity
  8
4
100
AcDbLine
 10
-184.4285585196109
 20
-10.85698900614989
 30
0.0
 11
-182.4285585196109
 21
-11.85698900614989
 31
0.0
  0
LINE
  5
4FE
330
458
100
AcDbEntity
  8
L-CENTER
 48
0.5
100
AcDbLine
 10
-141.1680465574606
 20
1.812382090213873
 30
0.0
 11
-141.1680465574606
 21
-19.98010151990377
 31
0.0
  0
LINE
  5
4FF
330
458
100
AcDbEntity
  8
L-CENTER
 48
0.5
100
AcDbLine
 10
-151.9412400968678
 20
-9.356989006149888
 30
0.0
 11
-130.4313198406018
 21
-9.356989006149888
 31
0.0
  0
LINE
  5
500
330
458
100
AcDbEntity
  8
4
100
AcDbLine
 10
-175.9285585196109
 20
0.1680109938501317
 30
0.0
 11
-170.4285585196109
 21
0.1680109938501175
 31
0.0
  0
LINE
  5
501
330
458
100
AcDbEntity
  8
4
100
AcDbLine
 10
-175.9285585196109
 20
-18.88198900614989
 30
0.0
 11
-170.4285585196109
 21
-18.88198900614989
 31
0.0
  0
LINE
  5
502
330
458
100
AcDbEntity
  8
4
100
AcDbLine
 10
-178.4285585196109
 20
2.643010993850112
 30
0.0
 11
-176.9285585196109
 21
2.643010993850112
 31
0.0
  0
LINE
  5
503
330
458
100
AcDbEntity
  8
4
100
AcDbLine
 10
-178.4285585196109
 20
-21.35698900614989
 30
0.0
 11
-176.9285585196109
 21
-21.3569890061499
 31
0.0
  0
LINE
  5
504
330
458
100
AcDbEntity
  8
4
100
AcDbLine
 10
-176.9285585196109
 20
2.643010993850112
 30
0.0
 11
-176.9285585196109
 21
-1.856989006149902
 31
0.0
  0
LINE
  5
505
330
458
100
AcDbEntity
  8
4
100
AcDbLine
 10
-178.4285585196109
 20
-1.856989006149888
 30
0.0
 11
-175.9285585196109
 21
-1.856989006149888
 31
0.0
  0
LINE
  5
506
330
458
100
AcDbEntity
  8
4
100
AcDbLine
 10
-178.4285585196109
 20
-16.85698900614989
 30
0.0
 11
-168.4285585196109
 21
-16.85698900614989
 31
0.0
  0
LINE
  5
507
330
458
100
AcDbEntity
  8
4
100
AcDbLine
 10
-176.9285585196109
 20
-16.8569890061499
 30
0.0
 11
-176.9285585196109
 21
-21.3569890061499
 31
0.0
  0
CIRCLE
  5
508
330
458
100
AcDbEntity
  8
4
100
AcDbCircle
 10
-141.1680465574606
 20
-9.356989006149888
 30
0.0
 40
7.5
  0
CIRCLE
  5
509
330
458
100
AcDbEntity
  8
4
100
AcDbCircle
 10
-141.1680465574606
 20
-9.356989006149888
 30
0.0
 40
9.525
  0
CIRCLE
  5
50A
330
458
100
AcDbEntity
  8
4
100
AcDbCircle
 10
-141.1680465574606
 20
-9.356989006149888
 30
0.0
 40
5.75
  0
CIRCLE
  5
50B
330
458
100
AcDbEntity
  8
4
100
AcDbCircle
 10
-141.1680465574606
 20
-9.356989006149888
 30
0.0
 40
2.5
  0
CIRCLE
  5
50C
330
458
100
AcDbEntity
  8
4
100
AcDbCircle
 10
-141.1680465574606
 20
-9.356989006149888
 30
0.0
 40
1.5
  0
CIRCLE
  5
50D
330
458
100
AcDbEntity
  8
L-CENTER
 48
0.5
100
AcDbCircle
 10
-141.1680465574606
 20
-9.356989006149888
 30
0.0
 40
3.75
  0
CIRCLE
  5
50E
330
458
100
AcDbEntity
  8
4
100
AcDbCircle
 10
-141.1680465574606
 20
-5.606989006149888
 30
0.0
 40
1.0
  0
LINE
  5
50F
330
458
100
AcDbEntity
  8
L-CENTER
 48
0.5
100
AcDbLine
 10
-136.4437961896911
 20
-6.629441784598974
 30
0.0
 11
-145.8469629124222
 21
-12.0583626232027
 31
0.0
  0
CIRCLE
  5
510
330
458
100
AcDbEntity
  8
4
100
AcDbCircle
 10
-137.9204512932689
 20
-7.481989006149895
 30
0.0
 40
1.0
  0
CIRCLE
  5
511
330
458
100
AcDbEntity
  8
4
100
AcDbCircle
 10
-141.1680465574606
 20
-13.10698900614989
 30
0.0
 40
1.0
  0
CIRCLE
  5
512
330
458
100
AcDbEntity
  8
4
100
AcDbCircle
 10
-137.9204512932689
 20
-11.23198900614988
 30
0.0
 40
1.0
  0
CIRCLE
  5
513
330
458
100
AcDbEntity
  8
4
100
AcDbCircle
 10
-144.4156418216522
 20
-7.481989006149895
 30
0.0
 40
1.0
  0
CIRCLE
  5
514
330
458
100
AcDbEntity
  8
4
100
AcDbCircle
 10
-144.4156418216522
 20
-11.23198900614988
 30
0.0
 40
1.0
  0
LINE
  5
515
330
458
100
AcDbEntity
  8
L-CENTER
 48
0.5
100
AcDbLine
 10
-136.4437961896911
 20
-12.0845362277008
 30
0.0
 11
-145.8469629124222
 21
-6.655615389097079
 31
0.0
  0
LINE
  5
516
330
458
100
AcDbEntity
  8
4
100
AcDbLine
 10
-169.4285585196109
 20
-12.10698900614988
 30
0.0
 11
-180.4285585196109
 21
-12.10698900614989
 31
0.0
  0
LINE
  5
517
330
458
100
AcDbEntity
  8
4
100
AcDbLine
 10
-169.4285585196109
 20
-14.10698900614989
 30
0.0
 11
-180.4285585196109
 21
-14.10698900614989
 31
0.0
  0
LINE
  5
518
330
458
100
AcDbEntity
  8
L-CENTER
 48
0.5
100
AcDbLine
 10
-181.0721440299275
 20
-13.10698900614989
 30
0.0
 11
-167.5059636760633
 21
-13.10698900614989
 31
0.0
  0
LINE
  5
519
330
458
100
AcDbEntity
  8
4
100
AcDbLine
 10
-180.4285585196109
 20
-14.10698900614989
 30
0.0
 11
-180.4285585196109
 21
-15.10698900614989
 31
0.0
  0
LINE
  5
51A
330
458
100
AcDbEntity
  8
4
100
AcDbLine
 10
-168.4285585196109
 20
-15.10698900614989
 30
0.0
 11
-180.4285585196109
 21
-15.10698900614989
 31
0.0
  0
LINE
  5
51B
330
458
100
AcDbEntity
  8
4
100
AcDbLine
 10
-178.4285585196109
 20
-21.85698900614989
 30
0.0
 11
-178.4285585196109
 21
-16.85698900614989
 31
0.0
  0
LINE
  5
51C
330
458
100
AcDbEntity
  8
4
100
AcDbLine
 10
-175.9285585196109
 20
-18.88198900614989
 30
0.0
 11
-175.9285585196109
 21
-16.85698900614989
 31
0.0
  0
LINE
  5
51D
330
458
100
AcDbEntity
  8
4
100
AcDbLine
 10
-175.9285585196109
 20
0.1680109938501175
 30
0.0
 11
-175.9285585196109
 21
-9.356989006149881
 31
0.0
  0
LINE
  5
51E
330
458
100
AcDbEntity
  8
4
100
AcDbLine
 10
-170.4285585196109
 20
0.1680109938501175
 30
0.0
 11
-170.4285585196109
 21
-1.856989006149888
 31
0.0
  0
LINE
  5
51F
330
458
100
AcDbEntity
  8
4
100
AcDbLine
 10
-170.4285585196109
 20
-18.88198900614989
 30
0.0
 11
-170.4285585196109
 21
-16.85698900614989
 31
0.0
  0
LINE
  5
520
330
458
100
AcDbEntity
  8
2
100
AcDbLine
 10
-175.9285585196109
 20
-1.856989006149888
 30
0.0
 11
-170.4285585196109
 21
-1.856989006149888
 31
0.0
  0
LINE
  5
521
330
458
100
AcDbEntity
  8
4
100
AcDbLine
 10
-170.4285585196109
 20
-1.856989006149888
 30
0.0
 11
-168.4285585196109
 21
-1.856989006149888
 31
0.0
  0
LINE
  5
522
330
458
100
AcDbEntity
  8
4
100
AcDbLine
 10
-168.4285585196109
 20
-16.85698900614989
 30
0.0
 11
-168.4285585196109
 21
-1.856989006149888
 31
0.0
  0
LINE
  5
523
330
458
100
AcDbEntity
  8
4
100
AcDbLine
 10
-169.4285585196109
 20
-14.10698900614989
 30
0.0
 11
-169.4285585196109
 21
-12.10698900614988
 31
0.0
  0
LINE
  5
524
330
458
100
AcDbEntity
  8
2
100
AcDbLine
 10
-178.4285585196109
 20
1.934859460481775
 30
0.0
 11
-177.7204069862426
 21
2.643010993850112
 31
0.0
  0
LINE
  5
525
330
458
100
AcDbEntity
  8
2
100
AcDbLine
 10
-178.4285585196109
 20
0.5206458981086826
 30
0.0
 11
-176.9285585196108
 21
2.020645898108697
 31
0.0
  0
LINE
  5
526
330
458
100
AcDbEntity
  8
2
100
AcDbLine
 10
-178.4285585196109
 20
-0.8935676642644239
 30
0.0
 11
-176.9285585196109
 21
0.6064323357355903
 31
0.0
  0
LINE
  5
527
330
458
100
AcDbEntity
  8
2
100
AcDbLine
 10
-177.9777662991233
 20
-1.856989006149888
 30
0.0
 11
-176.9285585196109
 21
-0.807781226637502
 31
0.0
  0
LINE
  5
528
330
458
100
AcDbEntity
  8
2
100
AcDbLine
 10
-178.4285585196109
 20
-20.39356766426442
 30
0.0
 11
-176.9285585196109
 21
-18.89356766426441
 31
0.0
  0
LINE
  5
529
330
458
100
AcDbEntity
  8
2
100
AcDbLine
 10
-177.9777662991233
 20
-21.35698900614989
 30
0.0
 11
-176.9285585196109
 21
-20.3077812266375
 31
0.0
  0
LINE
  5
52A
330
458
100
AcDbEntity
  8
2
100
AcDbLine
 10
-178.4285585196109
 20
-18.97935410189132
 30
0.0
 11
-176.9285585196109
 21
-17.4793541018913
 31
0.0
  0
LINE
  5
52B
330
458
100
AcDbEntity
  8
2
100
AcDbLine
 10
-178.4285585196109
 20
-17.56514053951823
 30
0.0
 11
-177.7204069862426
 21
-16.85698900614989
 31
0.0
  0
LINE
  5
52C
330
458
100
AcDbEntity
  8
2
100
AcDbLine
 10
-178.4285585196109
 20
-18.97935410189132
 30
0.0
 11
-184.4285585196109
 21
-12.97935410189135
 31
0.0
  0
LINE
  5
52D
330
458
100
AcDbEntity
  8
2
100
AcDbLine
 10
-178.4285585196109
 20
-20.39356766426442
 30
0.0
 11
-184.4285585196109
 21
-14.39356766426441
 31
0.0
  0
LINE
  5
52E
330
458
100
AcDbEntity
  8
2
100
AcDbLine
 10
-178.4285585196109
 20
-21.80778122663748
 30
0.0
 11
-184.4285585196109
 21
-15.80778122663758
 31
0.0
  0
LINE
  5
52F
330
458
100
AcDbEntity
  8
2
100
AcDbLine
 10
-178.4285585196109
 20
-17.56514053951823
 30
0.0
 11
-184.4285585196109
 21
-11.56514053951823
 31
0.0
  0
LINE
  5
530
330
458
100
AcDbEntity
  8
2
100
AcDbLine
 10
-179.7935643024716
 20
-21.85698900614988
 30
0.0
 11
-184.4285585196109
 21
-17.22199478901067
 31
0.0
  0
LINE
  5
531
330
458
100
AcDbEntity
  8
2
100
AcDbLine
 10
-181.2077778648447
 20
-21.8569890061499
 30
0.0
 11
-184.4285585196109
 21
-18.63620835138374
 31
0.0
  0
LINE
  5
532
330
458
100
AcDbEntity
  8
2
100
AcDbLine
 10
-182.6219914272178
 20
-21.85698900614989
 30
0.0
 11
-184.4285585196109
 21
-20.05042191375684
 31
0.0
  0
LINE
  5
533
330
458
100
AcDbEntity
  8
2
100
AcDbLine
 10
-184.0515740062044
 20
-21.84161998953638
 30
0.0
 11
-184.4131895029974
 21
-21.48000449274341
 31
0.0
  0
LINE
  5
534
330
458
100
AcDbEntity
  8
2
100
AcDbLine
 10
-177.7224964906061
 20
-16.85698900614988
 30
0.0
 11
-179.4724964906061
 21
-15.10698900614989
 31
0.0
  0
LINE
  5
535
330
458
100
AcDbEntity
  8
2
100
AcDbLine
 10
-176.308282928233
 20
-16.85698900614988
 30
0.0
 11
-178.058282928233
 21
-15.10698900614989
 31
0.0
  0
LINE
  5
536
330
458
100
AcDbEntity
  8
2
100
AcDbLine
 10
-174.8940693658599
 20
-16.85698900614988
 30
0.0
 11
-176.6440693658599
 21
-15.10698900614989
 31
0.0
  0
LINE
  5
537
330
458
100
AcDbEntity
  8
2
100
AcDbLine
 10
-173.4798558034868
 20
-16.85698900614988
 30
0.0
 11
-175.2298558034868
 21
-15.10698900614989
 31
0.0
  0
LINE
  5
538
330
458
100
AcDbEntity
  8
2
100
AcDbLine
 10
-172.0656422411137
 20
-16.85698900614989
 30
0.0
 11
-173.8156422411137
 21
-15.1069890061499
 31
0.0
  0
LINE
  5
539
330
458
100
AcDbEntity
  8
2
100
AcDbLine
 10
-170.6514286787406
 20
-16.8569890061499
 30
0.0
 11
-172.4014286787407
 21
-15.1069890061499
 31
0.0
  0
LINE
  5
53A
330
458
100
AcDbEntity
  8
2
100
AcDbLine
 10
-169.2372151163675
 20
-16.85698900614989
 30
0.0
 11
-170.9872151163675
 21
-15.1069890061499
 31
0.0
  0
LINE
  5
53B
330
458
100
AcDbEntity
  8
2
100
AcDbLine
 10
-168.4285585196109
 20
-16.25143204053345
 30
0.0
 11
-169.5730015539945
 21
-15.10698900614989
 31
0.0
  0
LINE
  5
53C
330
458
100
AcDbEntity
  8
2
100
AcDbLine
 10
-169.4285585196109
 20
-13.83721847816039
 30
0.0
 11
-171.1587879916214
 21
-12.10698900614987
 31
0.0
  0
LINE
  5
53D
330
458
100
AcDbEntity
  8
2
100
AcDbLine
 10
-169.4285585196109
 20
-12.42300491578725
 30
0.0
 11
-169.7445744292482
 21
-12.10698900614987
 31
0.0
  0
LINE
  5
53E
330
458
100
AcDbEntity
  8
2
100
AcDbLine
 10
-180.4285585196109
 20
-14.15092697714511
 30
0.0
 11
-183.0164344616014
 21
-11.56305103515465
 31
0.0
  0
LINE
  5
53F
330
458
100
AcDbEntity
  8
2
100
AcDbLine
 10
-179.058282928233
 20
-14.10698900614989
 30
0.0
 11
-181.308282928233
 21
-11.85698900614989
 31
0.0
  0
LINE
  5
540
330
458
100
AcDbEntity
  8
2
100
AcDbLine
 10
-177.6440693658599
 20
-14.10698900614988
 30
0.0
 11
-179.6440693658599
 21
-12.10698900614988
 31
0.0
  0
LINE
  5
541
330
458
100
AcDbEntity
  8
2
100
AcDbLine
 10
-176.2298558034868
 20
-14.10698900614988
 30
0.0
 11
-178.2298558034869
 21
-12.10698900614988
 31
0.0
  0
LINE
  5
542
330
458
100
AcDbEntity
  8
2
100
AcDbLine
 10
-174.8156422411137
 20
-14.10698900614989
 30
0.0
 11
-176.8156422411138
 21
-12.10698900614987
 31
0.0
  0
LINE
  5
543
330
458
100
AcDbEntity
  8
2
100
AcDbLine
 10
-173.4014286787407
 20
-14.10698900614989
 30
0.0
 11
-175.4014286787407
 21
-12.10698900614988
 31
0.0
  0
LINE
  5
544
330
458
100
AcDbEntity
  8
2
100
AcDbLine
 10
-171.9872151163675
 20
-14.10698900614989
 30
0.0
 11
-173.9872151163676
 21
-12.10698900614987
 31
0.0
  0
LINE
  5
545
330
458
100
AcDbEntity
  8
2
100
AcDbLine
 10
-170.5730015539945
 20
-14.10698900614989
 30
0.0
 11
-172.5730015539945
 21
-12.10698900614987
 31
0.0
  0
CIRCLE
  5
546
330
458
100
AcDbEntity
  8
4
100
AcDbCircle
 10
-211.65273886681
 20
-9.461411349245509
 30
0.0
 40
1.5
  0
LINE
  5
547
330
458
100
AcDbEntity
  8
2
100
AcDbLine
 10
-207.5345325364821
 20
7.805833247117022
 30
0.0
 11
-210.5905328431132
 21
3.679216831874569
 31
0.0
  0
SOLID
  5
548
330
458
100
AcDbEntity
  8
2
100
AcDbTrace
 10
-210.7244707244856
 20
3.778405650353506
 30
0.0
 11
-210.4565949617407
 21
3.580028013395662
 31
0.0
 12
-211.1856657539867
 22
2.875589543640046
 32
0.0
 13
-211.1856657539867
 23
2.875589543640046
 33
0.0
  0
LINE
  5
549
330
458
100
AcDbEntity
  8
2
100
AcDbLine
 10
-222.65273886681
 20
-14.90756377195211
 30
0.0
 11
-222.65273886681
 21
-29.21774251243517
 31
0.0
  0
LINE
  5
54A
330
458
100
AcDbEntity
  8
2
100
AcDbLine
 10
-200.65273886681
 20
-14.90756377195214
 30
0.0
 11
-200.65273886681
 21
-29.21774251243517
 31
0.0
  0
LINE
  5
54B
330
458
100
AcDbEntity
  8
2
100
AcDbLine
 10
-221.65273886681
 20
-28.71774251243517
 30
0.0
 11
-201.65273886681
 21
-28.71774251243517
 31
0.0
  0
SOLID
  5
54C
330
458
100
AcDbEntity
  8
2
100
AcDbTrace
 10
-221.65273886681
 20
-28.5510758457685
 30
0.0
 11
-221.65273886681
 21
-28.88440917910183
 31
0.0
 12
-222.65273886681
 22
-28.71774251243517
 32
0.0
 13
-222.65273886681
 23
-28.71774251243517
 33
0.0
  0
SOLID
  5
54D
330
458
100
AcDbEntity
  8
2
100
AcDbTrace
 10
-201.65273886681
 20
-28.5510758457685
 30
0.0
 11
-201.65273886681
 21
-28.88440917910183
 31
0.0
 12
-200.65273886681
 22
-28.71774251243517
 32
0.0
 13
-200.65273886681
 23
-28.71774251243517
 33
0.0
  0
LINE
  5
54E
330
458
100
AcDbEntity
  8
2
100
AcDbLine
 10
-184.1785585196109
 20
3.143010993850112
 30
0.0
 11
-192.8625231462753
 21
3.143010993850112
 31
0.0
  0
LINE
  5
54F
330
458
100
AcDbEntity
  8
2
100
AcDbLine
 10
-184.1785585196109
 20
-21.85698900614989
 30
0.0
 11
-192.8625231462753
 21
-21.85698900614988
 31
0.0
  0
LINE
  5
550
330
458
100
AcDbEntity
  8
2
100
AcDbLine
 10
-192.3625231462753
 20
2.143010993850112
 30
0.0
 11
-192.3625231462753
 21
-20.85698900614988
 31
0.0
  0
SOLID
  5
551
330
458
100
AcDbEntity
  8
2
100
AcDbTrace
 10
-192.529189812942
 20
2.143010993850112
 30
0.0
 11
-192.1958564796086
 21
2.143010993850112
 31
0.0
 12
-192.3625231462753
 22
3.143010993850112
 32
0.0
 13
-192.3625231462753
 23
3.143010993850112
 33
0.0
  0
SOLID
  5
552
330
458
100
AcDbEntity
  8
2
100
AcDbTrace
 10
-192.529189812942
 20
-20.85698900614988
 30
0.0
 11
-192.1958564796086
 21
-20.85698900614988
 31
0.0
 12
-192.3625231462753
 22
-21.85698900614988
 32
0.0
 13
-192.3625231462753
 23
-21.85698900614988
 33
0.0
  0
TEXT
  5
553
330
458
100
AcDbEntity
  8
3
100
AcDbText
 10
-212.90273886681
 20
-27.96774251243517
 30
0.0
 40
1.5
  1
22
100
AcDbText
  0
TEXT
  5
554
330
458
100
AcDbEntity
  8
3
100
AcDbText
 10
-209.7711804085056
 20
5.734680197652878
 30
0.0
 40
1.5
  1
R2
 50
53.47789240644163
100
AcDbText
  0
TEXT
  5
555
330
458
100
AcDbEntity
  8
3
100
AcDbText
 10
-193.1125231462753
 20
-11.86041456726285
 30
0.0
 40
1.5
  1
φ25
 50
90.0
  7
KANJI
100
AcDbText
  0
LINE
  5
556
330
458
100
AcDbEntity
  8
2
100
AcDbLine
 10
-184.6785585196109
 20
-10.85698900614989
 30
0.0
 11
-189.4086582427648
 21
-10.85698900614989
 31
0.0
  0
LINE
  5
557
330
458
100
AcDbEntity
  8
2
100
AcDbLine
 10
-188.9086582427648
 20
-9.856989006149888
 30
0.0
 11
-188.9086582427648
 21
-6.426206037463771
 31
0.0
  0
SOLID
  5
558
330
458
100
AcDbEntity
  8
2
100
AcDbTrace
 10
-189.0753249094314
 20
-9.856989006149888
 30
0.0
 11
-188.7419915760981
 21
-9.856989006149888
 31
0.0
 12
-188.9086582427648
 22
-10.85698900614989
 32
0.0
 13
-188.9086582427648
 23
-10.85698900614989
 33
0.0
  0
TEXT
  5
559
330
458
100
AcDbEntity
  8
3
100
AcDbText
 10
-189.6586582427648
 20
-9.754510471104524
 30
0.0
 40
1.5
  1
φ3
 50
90.0
  7
KANJI
100
AcDbText
  0
LINE
  5
55A
330
458
100
AcDbEntity
  8
2
100
AcDbLine
 10
-182.4285585196109
 20
-12.10698900614989
 30
0.0
 11
-182.4285585196109
 21
-17.72024115671684
 31
0.0
  0
LINE
  5
55B
330
458
100
AcDbEntity
  8
2
100
AcDbLine
 10
-187.966730873199
 20
-17.22024115671684
 30
0.0
 11
-180.6871678973529
 21
-17.22024115671684
 31
0.0
  0
SOLID
  5
55C
330
458
100
AcDbEntity
  8
2
100
AcDbTrace
 10
-185.4285585196109
 20
-17.3869078233835
 30
0.0
 11
-185.4285585196109
 21
-17.05357449005017
 31
0.0
 12
-184.4285585196109
 22
-17.22024115671683
 32
0.0
 13
-184.4285585196109
 23
-17.22024115671683
 33
0.0
  0
SOLID
  5
55D
330
458
100
AcDbEntity
  8
2
100
AcDbTrace
 10
-181.4285585196109
 20
-17.05357449005015
 30
0.0
 11
-181.4285585196109
 21
-17.38690782338347
 31
0.0
 12
-182.4285585196109
 22
-17.22024115671681
 32
0.0
 13
-182.4285585196109
 23
-17.22024115671681
 33
0.0
  0
TEXT
  5
55E
330
458
100
AcDbEntity
  8
3
100
AcDbText
 10
-187.1566012325121
 20
-16.47024115671684
 30
0.0
 40
1.5
  1
2
100
AcDbText
  0
TEXT
  5
55F
330
458
100
AcDbEntity
  8
1
 62
     1
100
AcDbText
 10
-188.9112948340767
 20
-15.842142831842
 30
0.0
 40
0.6000000000000001
  1
2
  7
KANJI
 72
     4
 11
-188.7112948340767
 21
-15.542142831842
 31
0.0
100
AcDbText
  0
LWPOLYLINE
  5
560
330
458
100
AcDbEntity
  8
1
 62
     1
100
AcDbPolyline
 90
        4
 70
     0
 43
0.0
 10
-188.6831428859522
 20
-14.65273765444203
 10
-189.4831428859522
 20
-16.03837830049713
 10
-187.8831428859522
 20
-16.03837830049713
 10
-188.6831428859522
 20
-14.65273765444203
  0
LINE
  5
561
330
458
100
AcDbEntity
  8
2
100
AcDbLine
 10
-190.2167240499539
 20
6.399822111795942
 30
0.0
 11
-185.2162491013003
 21
3.41233080110085
 31
0.0
  0
SOLID
  5
562
330
458
100
AcDbEntity
  8
2
100
AcDbTrace
 10
-185.1307691227169
 20
3.55540753239967
 30
0.0
 11
-185.3017290798837
 21
3.269254069802017
 31
0.0
 12
-184.3577887135074
 22
2.899450929600292
 32
0.0
 13
-184.3577887135074
 23
2.899450929600292
 33
0.0
  0
TEXT
  5
563
330
458
100
AcDbEntity
  8
3
100
AcDbText
 10
-189.5863556913714
 20
6.654541759350167
 30
0.0
 40
1.5
  1
R0.5
 50
329.1441523499487
100
AcDbText
  0
LINE
  5
564
330
458
100
AcDbEntity
  8
2
100
AcDbLine
 10
-184.4285585196109
 20
2.893010993850112
 30
0.0
 11
-184.4285585196109
 21
8.369021627746065
 31
0.0
  0
LINE
  5
565
330
458
100
AcDbEntity
  8
2
100
AcDbLine
 10
-180.4285585196109
 20
3.393010993850112
 30
0.0
 11
-180.4285585196109
 21
8.369021627746065
 31
0.0
  0
LINE
  5
566
330
458
100
AcDbEntity
  8
2
100
AcDbLine
 10
-183.4285585196109
 20
7.869021627746065
 30
0.0
 11
-181.4285585196109
 21
7.869021627746065
 31
0.0
  0
SOLID
  5
567
330
458
100
AcDbEntity
  8
2
100
AcDbTrace
 10
-183.4285585196109
 20
8.035688294412736
 30
0.0
 11
-183.4285585196109
 21
7.702354961079394
 31
0.0
 12
-184.4285585196109
 22
7.869021627746065
 32
0.0
 13
-184.4285585196109
 23
7.869021627746065
 33
0.0
  0
SOLID
  5
568
330
458
100
AcDbEntity
  8
2
100
AcDbTrace
 10
-181.4285585196109
 20
8.035688294412736
 30
0.0
 11
-181.4285585196109
 21
7.702354961079394
 31
0.0
 12
-180.4285585196109
 22
7.869021627746065
 32
0.0
 13
-180.4285585196109
 23
7.869021627746065
 33
0.0
  0
LINE
  5
569
330
458
100
AcDbEntity
  8
2
100
AcDbLine
 10
-180.4285585196109
 20
3.393010993850112
 30
0.0
 11
-180.4285585196109
 21
8.369021627746065
 31
0.0
  0
LINE
  5
56A
330
458
100
AcDbEntity
  8
2
100
AcDbLine
 10
-178.4285585196109
 20
3.393010993850112
 30
0.0
 11
-178.4285585196109
 21
8.369021627746065
 31
0.0
  0
LINE
  5
56B
330
458
100
AcDbEntity
  8
2
100
AcDbLine
 10
-180.4285585196109
 20
7.869021627746065
 30
0.0
 11
-175.5024685142433
 21
7.869021627746065
 31
0.0
  0
SOLID
  5
56C
330
458
100
AcDbEntity
  8
2
100
AcDbTrace
 10
-177.4285585196109
 20
8.035688294412736
 30
0.0
 11
-177.4285585196109
 21
7.702354961079394
 31
0.0
 12
-178.4285585196109
 22
7.869021627746065
 32
0.0
 13
-178.4285585196109
 23
7.869021627746065
 33
0.0
  0
TEXT
  5
56D
330
458
100
AcDbEntity
  8
3
100
AcDbText
 10
-182.9285585196109
 20
8.619021627746065
 30
0.0
 40
1.5
  1
4
100
AcDbText
  0
TEXT
  5
56E
330
458
100
AcDbEntity
  8
3
100
AcDbText
 10
-177.3253042542718
 20
8.619021627746065
 30
0.0
 40
1.5
  1
2
100
AcDbText
  0
LINE
  5
56F
330
458
100
AcDbEntity
  8
2
100
AcDbLine
 10
-172.1991781803928
 20
-11.85698900614988
 30
0.0
 11
-179.931332106957
 21
-11.85698900614988
 31
0.0
  0
TEXT
  5
570
330
458
100
AcDbEntity
  8
3
100
AcDbText
 10
-173.6570841616016
 20
-8.984389602670532
 30
0.0
 40
1.5
  1
φ5
 50
90.0
  7
KANJI
100
AcDbText
  0
LINE
  5
571
330
458
100
AcDbEntity
  8
2
100
AcDbLine
 10
-172.9070841616016
 20
-11.85698900614988
 30
0.0
 11
-172.9070841616016
 21
-5.757837826702257
 31
0.0
  0
SOLID
  5
572
330
458
100
AcDbEntity
  8
2
100
AcDbTrace
 10
-173.0737508282682
 20
-10.85698900614988
 30
0.0
 11
-172.7404174949349
 21
-10.85698900614988
 31
0.0
 12
-172.9070841616016
 22
-11.85698900614988
 32
0.0
 13
-172.9070841616016
 23
-11.85698900614988
 33
0.0
  0
TEXT
  5
573
330
458
100
AcDbEntity
  8
3
100
AcDbText
 10
-171.7082962306944
 20
6.148781403827897
 30
0.0
 40
1.5
  1
パッキン
  7
KANJI
100
AcDbText
  0
LINE
  5
574
330
458
100
AcDbEntity
  8
2
100
AcDbLine
 10
-177.4665041630741
 20
0.8128086113780455
 30
0.0
 11
-172.0750736385102
 21
5.680341038644542
 31
0.0
  0
LINE
  5
575
330
458
100
AcDbEntity
  8
2
100
AcDbLine
 10
-172.0750736385102
 20
5.680341038644542
 30
0.0
 11
-159.4937908564995
 21
5.680341038644542
 31
0.0
  0
TEXT
  5
576
330
458
100
AcDbEntity
  8
3
100
AcDbText
 10
-171.8501881522834
 20
3.596638086050334
 30
0.0
 40
1.5
  1
￥ＰＣ－Ａ－Ｓ
  7
KANJI
100
AcDbText
  0
LINE
  5
577
330
458
100
AcDbEntity
  8
2
100
AcDbLine
 10
-169.4285585196109
 20
-11.85698900614988
 30
0.0
 11
-169.4285585196109
 21
-6.902329375975341
 31
0.0
  0
LINE
  5
578
330
458
100
AcDbEntity
  8
2
100
AcDbLine
 10
-171.1010155318057
 20
-7.402329375975341
 30
0.0
 11
-165.6480715663823
 21
-7.402329375975341
 31
0.0
  0
SOLID
  5
579
330
458
100
AcDbEntity
  8
2
100
AcDbTrace
 10
-170.4285585196108
 20
-7.568996042641999
 30
0.0
 11
-170.4285585196108
 21
-7.23566270930867
 31
0.0
 12
-169.4285585196108
 22
-7.402329375975334
 32
0.0
 13
-169.4285585196108
 23
-7.402329375975334
 33
0.0
  0
SOLID
  5
57A
330
458
100
AcDbEntity
  8
2
100
AcDbTrace
 10
-167.4285585196109
 20
-7.23566270930867
 30
0.0
 11
-167.4285585196109
 21
-7.568996042641999
 31
0.0
 12
-168.4285585196109
 22
-7.402329375975334
 32
0.0
 13
-168.4285585196109
 23
-7.402329375975334
 33
0.0
  0
TEXT
  5
57B
330
458
100
AcDbEntity
  8
3
100
AcDbText
 10
-166.9443654416751
 20
-6.652329375975341
 30
0.0
 40
1.5
  1
1
100
AcDbText
  0
LWPOLYLINE
  5
57C
330
458
100
AcDbEntity
  8
1
 62
     1
100
AcDbPolyline
 90
        4
 70
     0
 43
0.0
 10
-166.8017127589104
 20
-3.140388753264119
 10
-167.6017127589104
 20
-4.526029399319214
 10
-166.0017127589104
 20
-4.526029399319214
 10
-166.8017127589104
 20
-3.140388753264119
  0
TEXT
  5
57D
330
458
100
AcDbEntity
  8
1
 62
     1
100
AcDbText
 10
-167.029864707035
 20
-4.329793930664084
 30
0.0
 40
0.6000000000000001
  1
2
  7
KANJI
 72
     4
 11
-166.829864707035
 21
-4.029793930664084
 31
0.0
100
AcDbText
  0
LINE
  5
57E
330
458
100
AcDbEntity
  8
2
100
AcDbLine
 10
-168.1785585196109
 20
-15.10698900614989
 30
0.0
 11
-161.3506381253472
 21
-15.10698900614989
 31
0.0
  0
LINE
  5
57F
330
458
100
AcDbEntity
  8
2
100
AcDbLine
 10
-161.8506381253472
 20
-14.10698900614989
 30
0.0
 11
-161.8506381253472
 21
-5.582747242940854
 31
0.0
  0
SOLID
  5
580
330
458
100
AcDbEntity
  8
2
100
AcDbTrace
 10
-162.0173047920139
 20
-14.10698900614989
 30
0.0
 11
-161.6839714586806
 21
-14.10698900614989
 31
0.0
 12
-161.8506381253472
 22
-15.10698900614989
 32
0.0
 13
-161.8506381253472
 23
-15.10698900614989
 33
0.0
  0
TEXT
  5
581
330
458
100
AcDbEntity
  8
3
100
AcDbText
 10
-162.6006381253472
 20
-12.22453247105749
 30
0.0
 40
1.5
  1
φ11.5
 50
90.0
  7
KANJI
100
AcDbText
  0
LINE
  5
582
330
458
100
AcDbEntity
  8
2
100
AcDbLine
 10
-168.1785585196109
 20
-1.856989006149888
 30
0.0
 11
-158.0230525418002
 21
-1.856989006149888
 31
0.0
  0
LINE
  5
583
330
458
100
AcDbEntity
  8
2
100
AcDbLine
 10
-168.1785585196109
 20
-16.85698900614989
 30
0.0
 11
-158.0230525418002
 21
-16.8569890061499
 31
0.0
  0
LINE
  5
584
330
458
100
AcDbEntity
  8
2
100
AcDbLine
 10
-158.5230525418002
 20
-2.856989006149888
 30
0.0
 11
-158.5230525418002
 21
-15.85698900614989
 31
0.0
  0
SOLID
  5
585
330
458
100
AcDbEntity
  8
2
100
AcDbTrace
 10
-158.6897192084669
 20
-2.856989006149888
 30
0.0
 11
-158.3563858751335
 21
-2.856989006149888
 31
0.0
 12
-158.5230525418002
 22
-1.856989006149888
 32
0.0
 13
-158.5230525418002
 23
-1.856989006149888
 33
0.0
  0
SOLID
  5
586
330
458
100
AcDbEntity
  8
2
100
AcDbTrace
 10
-158.6897192084669
 20
-15.85698900614989
 30
0.0
 11
-158.3563858751335
 21
-15.8569890061499
 31
0.0
 12
-158.5230525418002
 22
-16.85698900614989
 32
0.0
 13
-158.5230525418002
 23
-16.85698900614989
 33
0.0
  0
LINE
  5
587
330
458
100
AcDbEntity
  8
2
100
AcDbLine
 10
-170.1785585196109
 20
0.1680109938501175
 30
0.0
 11
-154.3470788849951
 21
0.1680109938501175
 31
0.0
  0
LINE
  5
588
330
458
100
AcDbEntity
  8
2
100
AcDbLine
 10
-170.1785585196109
 20
-18.88198900614989
 30
0.0
 11
-154.3470788849951
 21
-18.8819890061499
 31
0.0
  0
LINE
  5
589
330
458
100
AcDbEntity
  8
2
100
AcDbLine
 10
-154.8470788849951
 20
-0.8319890061498825
 30
0.0
 11
-154.8470788849951
 21
-17.8819890061499
 31
0.0
  0
SOLID
  5
58A
330
458
100
AcDbEntity
  8
2
100
AcDbTrace
 10
-155.0137455516618
 20
-0.8319890061498825
 30
0.0
 11
-154.6804122183284
 21
-0.8319890061498825
 31
0.0
 12
-154.8470788849951
 22
0.1680109938501175
 32
0.0
 13
-154.8470788849951
 23
0.1680109938501175
 33
0.0
  0
SOLID
  5
58B
330
458
100
AcDbEntity
  8
2
100
AcDbTrace
 10
-155.0137455516618
 20
-17.8819890061499
 30
0.0
 11
-154.6804122183284
 21
-17.8819890061499
 31
0.0
 12
-154.8470788849951
 22
-18.8819890061499
 32
0.0
 13
-154.8470788849951
 23
-18.8819890061499
 33
0.0
  0
TEXT
  5
58C
330
458
100
AcDbEntity
  8
3
100
AcDbText
 10
-159.2730525418002
 20
-11.74733211660065
 30
0.0
 40
1.5
  1
φ15
 50
90.0
  7
KANJI
100
AcDbText
  0
TEXT
  5
58D
330
458
100
AcDbEntity
  8
3
100
AcDbText
 10
-155.5970788849951
 20
-14.01445474092906
 30
0.0
 40
1.5
  1
W3/4山12
 50
90.0
  7
KANJI
100
AcDbText
  0
LINE
  5
58E
330
458
100
AcDbEntity
  8
2
100
AcDbLine
 10
-141.6851471208067
 20
-4.75106435561861
 30
0.0
 11
-147.083680920783
 21
4.184795482214781
 31
0.0
  0
LINE
  5
58F
330
458
100
AcDbEntity
  8
2
100
AcDbLine
 10
-154.181010066152
 20
4.184795482214781
 30
0.0
 11
-147.083680920783
 21
4.184795482214781
 31
0.0
  0
TEXT
  5
590
330
458
100
AcDbEntity
  8
3
100
AcDbText
 10
-153.7284134905291
 20
4.591162772045649
 30
0.0
 40
1.5
  1
6×φ2
  7
KANJI
100
AcDbText
  0
SOLID
  5
591
330
458
100
AcDbEntity
  8
2
100
AcDbTrace
 10
-142.0743932141412
 20
-3.814973945133794
 30
0.0
 11
-142.3569497746587
 21
-3.991815402998199
 31
0.0
 12
-141.6851471208067
 22
-4.751064355618638
 32
0.0
 13
-141.6851471208067
 23
-4.751064355618638
 33
0.0
  0
LINE
  5
592
330
458
100
AcDbEntity
  8
2
100
AcDbLine
 10
-136.227289838745
 20
-6.504441784598967
 30
0.0
 11
-129.862828042246
 21
-2.829918053143217
 31
0.0
  0
LINE
  5
593
330
458
100
AcDbEntity
  8
2
100
AcDbLine
 10
-141.1680465574606
 20
2.062382090213873
 30
0.0
 11
-141.1680465574606
 21
3.697152899863454
 31
0.0
  0
ARC
  5
594
330
458
100
AcDbEntity
  8
2
100
AcDbCircle
 10
-141.1680465574606
 20
-9.356989006149888
 30
0.0
 40
12.55414190601334
100
AcDbArc
 50
34.56510195103277
 51
85.43489804896723
  0
SOLID
  5
595
330
458
100
AcDbEntity
  8
2
100
AcDbTrace
 10
-130.6890315623632
 20
-2.145477708208688
 30
0.0
 11
-130.9708397381136
 21
-2.323509343575395
 31
0.0
 12
-130.2958407441382
 22
-3.079918053143217
 32
0.0
 13
-130.2958407441382
 23
-3.079918053143217
 33
0.0
  0
SOLID
  5
596
330
458
100
AcDbEntity
  8
2
100
AcDbTrace
 10
-140.1754779023434
 20
2.990790978335781
 30
0.0
 11
-140.1622020713137
 21
3.323859835213128
 31
0.0
 12
-141.1680465574606
 22
3.19715289986344
 32
0.0
 13
-141.1680465574606
 23
3.19715289986344
 33
0.0
  0
TEXT
  5
597
330
458
100
AcDbEntity
  8
3
100
AcDbText
 10
-135.9944754037
 20
3.042606889374952
 30
0.0
 40
1.5
  1
60°
 50
329.3302290664237
100
AcDbText
  0
LINE
  5
598
330
458
100
AcDbEntity
  8
2
100
AcDbLine
 10
-152.2190263415779
 20
-25.67649649724003
 30
0.0
 11
-143.8313862616037
 21
-13.29006942998245
 31
0.0
  0
LINE
  5
599
330
458
100
AcDbEntity
  8
2
100
AcDbLine
 10
-138.5047068533174
 20
-5.423908582317338
 30
0.0
 11
-138.0570471212483
 21
-4.762828162872374
 31
0.0
  0
LINE
  5
59A
330
458
100
AcDbEntity
  8
2
100
AcDbLine
 10
-139.0654099489265
 20
-6.251925513650498
 30
0.0
 11
-143.2706831659946
 21
-12.46205249864928
 31
0.0
  0
SOLID
  5
59B
330
458
100
AcDbEntity
  8
2
100
AcDbTrace
 10
-138.6427096752063
 20
-5.330458066382484
 30
0.0
 11
-138.3667040314286
 21
-5.517359098252172
 31
0.0
 12
-139.0654099489265
 22
-6.251925513650491
 32
0.0
 13
-139.0654099489265
 23
-6.251925513650491
 33
0.0
  0
SOLID
  5
59C
330
458
100
AcDbEntity
  8
2
100
AcDbTrace
 10
-143.9693890834926
 20
-13.1966189140476
 30
0.0
 11
-143.6933834397148
 21
-13.38351994591729
 31
0.0
 12
-143.2706831659946
 22
-12.46205249864928
 32
0.0
 13
-143.2706831659946
 23
-12.46205249864928
 33
0.0
  0
TEXT
  5
59D
330
458
100
AcDbEntity
  8
3
100
AcDbText
 10
-152.4400204871239
 20
-24.78718569842901
 30
0.0
 40
1.5
  1
P.C.D7.5
 50
55.89556455551629
100
AcDbText
  0
LINE
  5
59E
330
458
100
AcDbEntity
  8
2
100
AcDbLine
 10
-178.4285585196109
 20
-22.1069890061499
 30
0.0
 11
-178.4285585196109
 21
-29.04699573964933
 31
0.0
  0
LINE
  5
59F
330
458
100
AcDbEntity
  8
2
100
AcDbLine
 10
-175.9285585196109
 20
-19.13198900614989
 30
0.0
 11
-175.9285585196109
 21
-29.04699573964933
 31
0.0
  0
LINE
  5
5A0
330
458
100
AcDbEntity
  8
2
100
AcDbLine
 10
-182.7103940306896
 20
-28.54699573964933
 30
0.0
 11
-175.9285585196109
 21
-28.54699573964933
 31
0.0
  0
LINE
  5
5A1
330
458
100
AcDbEntity
  8
2
100
AcDbLine
 10
-175.9285585196109
 20
-19.13198900614989
 30
0.0
 11
-175.9285585196109
 21
-29.04699573964933
 31
0.0
  0
LINE
  5
5A2
330
458
100
AcDbEntity
  8
2
100
AcDbLine
 10
-170.4285585196109
 20
-19.13198900614989
 30
0.0
 11
-170.4285585196109
 21
-29.04699573964933
 31
0.0
  0
LINE
  5
5A3
330
458
100
AcDbEntity
  8
2
100
AcDbLine
 10
-174.9285585196109
 20
-28.54699573964933
 30
0.0
 11
-171.4285585196109
 21
-28.54699573964933
 31
0.0
  0
SOLID
  5
5A4
330
458
100
AcDbEntity
  8
2
100
AcDbTrace
 10
-174.9285585196109
 20
-28.38032907298267
 30
0.0
 11
-174.9285585196109
 21
-28.713662406316
 31
0.0
 12
-175.9285585196109
 22
-28.54699573964933
 32
0.0
 13
-175.9285585196109
 23
-28.54699573964933
 33
0.0
  0
SOLID
  5
5A5
330
458
100
AcDbEntity
  8
2
100
AcDbTrace
 10
-171.4285585196109
 20
-28.38032907298267
 30
0.0
 11
-171.4285585196109
 21
-28.713662406316
 31
0.0
 12
-170.4285585196109
 22
-28.54699573964933
 32
0.0
 13
-170.4285585196109
 23
-28.54699573964933
 33
0.0
  0
LINE
  5
5A6
330
458
100
AcDbEntity
  8
2
100
AcDbLine
 10
-170.4285585196109
 20
-19.13198900614989
 30
0.0
 11
-170.4285585196109
 21
-29.04699573964933
 31
0.0
  0
LINE
  5
5A7
330
458
100
AcDbEntity
  8
2
100
AcDbLine
 10
-168.4285585196109
 20
-17.10698900614989
 30
0.0
 11
-168.4285585196109
 21
-29.04699573964933
 31
0.0
  0
LINE
  5
5A8
330
458
100
AcDbEntity
  8
2
100
AcDbLine
 10
-170.4285585196109
 20
-28.54699573964933
 30
0.0
 11
-165.4909142892205
 21
-28.54699573964933
 31
0.0
  0
LINE
  5
5A9
330
458
100
AcDbEntity
  8
2
100
AcDbLine
 10
-178.4285585196109
 20
-28.79699573964933
 30
0.0
 11
-178.4285585196109
 21
-32.39217018545958
 31
0.0
  0
LINE
  5
5AA
330
458
100
AcDbEntity
  8
2
100
AcDbLine
 10
-168.4285585196109
 20
-28.79699573964933
 30
0.0
 11
-168.4285585196109
 21
-32.39217018545958
 31
0.0
  0
LINE
  5
5AB
330
458
100
AcDbEntity
  8
2
100
AcDbLine
 10
-177.4285585196109
 20
-31.89217018545958
 30
0.0
 11
-169.4285585196109
 21
-31.89217018545958
 31
0.0
  0
SOLID
  5
5AC
330
458
100
AcDbEntity
  8
2
100
AcDbTrace
 10
-177.4285585196109
 20
-31.72550351879291
 30
0.0
 11
-177.4285585196109
 21
-32.05883685212624
 31
0.0
 12
-178.4285585196109
 22
-31.89217018545958
 32
0.0
 13
-178.4285585196109
 23
-31.89217018545958
 33
0.0
  0
SOLID
  5
5AD
330
458
100
AcDbEntity
  8
2
100
AcDbTrace
 10
-169.4285585196109
 20
-31.72550351879291
 30
0.0
 11
-169.4285585196109
 21
-32.05883685212624
 31
0.0
 12
-168.4285585196109
 22
-31.89217018545958
 32
0.0
 13
-168.4285585196109
 23
-31.89217018545958
 33
0.0
  0
LINE
  5
5AE
330
458
100
AcDbEntity
  8
2
100
AcDbLine
 10
-178.4285585196109
 20
-28.79699573964933
 30
0.0
 11
-178.4285585196109
 21
-32.39217018545958
 31
0.0
  0
LINE
  5
5AF
330
458
100
AcDbEntity
  8
2
100
AcDbLine
 10
-184.4285585196109
 20
-21.60698900614989
 30
0.0
 11
-184.4285585196109
 21
-32.39217018545958
 31
0.0
  0
LINE
  5
5B0
330
458
100
AcDbEntity
  8
2
100
AcDbLine
 10
-179.4285585196109
 20
-31.89217018545958
 30
0.0
 11
-183.4285585196109
 21
-31.89217018545958
 31
0.0
  0
SOLID
  5
5B1
330
458
100
AcDbEntity
  8
2
100
AcDbTrace
 10
-179.4285585196109
 20
-31.72550351879291
 30
0.0
 11
-179.4285585196109
 21
-32.05883685212624
 31
0.0
 12
-178.4285585196109
 22
-31.89217018545958
 32
0.0
 13
-178.4285585196109
 23
-31.89217018545958
 33
0.0
  0
SOLID
  5
5B2
330
458
100
AcDbEntity
  8
2
100
AcDbTrace
 10
-183.4285585196109
 20
-31.72550351879291
 30
0.0
 11
-183.4285585196109
 21
-32.05883685212624
 31
0.0
 12
-184.4285585196109
 22
-31.89217018545958
 32
0.0
 13
-184.4285585196109
 23
-31.89217018545958
 33
0.0
  0
LINE
  5
5B3
330
458
100
AcDbEntity
  8
2
100
AcDbLine
 10
-184.4285585196109
 20
-32.14217018545958
 30
0.0
 11
-184.4285585196109
 21
-35.8133704039069
 31
0.0
  0
LINE
  5
5B4
330
458
100
AcDbEntity
  8
2
100
AcDbLine
 10
-168.4285585196109
 20
-32.14217018545958
 30
0.0
 11
-168.4285585196109
 21
-35.8133704039069
 31
0.0
  0
LINE
  5
5B5
330
458
100
AcDbEntity
  8
2
100
AcDbLine
 10
-183.4285585196109
 20
-35.3133704039069
 30
0.0
 11
-169.4285585196109
 21
-35.3133704039069
 31
0.0
  0
SOLID
  5
5B6
330
458
100
AcDbEntity
  8
2
100
AcDbTrace
 10
-183.4285585196109
 20
-35.14670373724023
 30
0.0
 11
-183.4285585196109
 21
-35.48003707057357
 31
0.0
 12
-184.4285585196109
 22
-35.3133704039069
 32
0.0
 13
-184.4285585196109
 23
-35.3133704039069
 33
0.0
  0
SOLID
  5
5B7
330
458
100
AcDbEntity
  8
2
100
AcDbTrace
 10
-169.4285585196109
 20
-35.14670373724023
 30
0.0
 11
-169.4285585196109
 21
-35.48003707057357
 31
0.0
 12
-168.4285585196109
 22
-35.3133704039069
 32
0.0
 13
-168.4285585196109
 23
-35.3133704039069
 33
0.0
  0
SOLID
  5
5B8
330
458
100
AcDbEntity
  8
2
100
AcDbTrace
 10
-167.4285585196109
 20
-28.38032907298267
 30
0.0
 11
-167.4285585196109
 21
-28.713662406316
 31
0.0
 12
-168.4285585196109
 22
-28.54699573964933
 32
0.0
 13
-168.4285585196109
 23
-28.54699573964933
 33
0.0
  0
SOLID
  5
5B9
330
458
100
AcDbEntity
  8
2
100
AcDbTrace
 10
-179.4285585196109
 20
-28.38032907298267
 30
0.0
 11
-179.4285585196109
 21
-28.713662406316
 31
0.0
 12
-178.4285585196109
 22
-28.54699573964933
 32
0.0
 13
-178.4285585196109
 23
-28.54699573964933
 33
0.0
  0
TEXT
  5
5BA
330
458
100
AcDbEntity
  8
3
100
AcDbText
 10
-182.3305916565231
 20
-27.79699573964933
 30
0.0
 40
1.5
  1
2.5
100
AcDbText
  0
TEXT
  5
5BB
330
458
100
AcDbEntity
  8
3
100
AcDbText
 10
-174.6785585196109
 20
-27.79699573964933
 30
0.0
 40
1.5
  1
5.5
100
AcDbText
  0
TEXT
  5
5BC
330
458
100
AcDbEntity
  8
3
100
AcDbText
 10
-167.3353070360439
 20
-27.79699573964933
 30
0.0
 40
1.5
  1
2
100
AcDbText
  0
TEXT
  5
5BD
330
458
100
AcDbEntity
  8
3
100
AcDbText
 10
-174.3035585196109
 20
-31.14217018545958
 30
0.0
 40
1.5
  1
10
100
AcDbText
  0
TEXT
  5
5BE
330
458
100
AcDbEntity
  8
3
100
AcDbText
 10
-181.9285585196109
 20
-31.14217018545958
 30
0.0
 40
1.5
  1
6
100
AcDbText
  0
TEXT
  5
5BF
330
458
100
AcDbEntity
  8
3
100
AcDbText
 10
-177.4285585196109
 20
-34.5633704039069
 30
0.0
 40
1.5
  1
16
100
AcDbText
  0
TEXT
  5
5C0
330
458
100
AcDbEntity
  8
1
 62
     1
100
AcDbText
 10
-137.4473238765079
 20
4.088907982938975
 30
0.0
 40
0.6000000000000001
  1
2
  7
KANJI
 72
     4
 11
-137.2473238765079
 21
4.388907982938974
 31
0.0
100
AcDbText
  0
LWPOLYLINE
  5
5C1
330
458
100
AcDbEntity
  8
1
 62
     1
100
AcDbPolyline
 90
        4
 70
     0
 43
0.0
 10
-137.2191719283834
 20
5.278313160338939
 10
-138.0191719283834
 20
3.892672514283845
 10
-136.4191719283834
 20
3.892672514283845
 10
-137.2191719283834
 20
5.278313160338939
  0
LWPOLYLINE
  5
5C2
330
458
100
AcDbEntity
  8
1
 62
     1
100
AcDbPolyline
 90
        4
 70
     0
 43
0.0
 10
-152.9401502443535
 20
8.356020458417447
 10
-153.7401502443535
 20
6.970379812362353
 10
-152.1401502443535
 20
6.970379812362353
 10
-152.9401502443535
 20
8.356020458417447
  0
TEXT
  5
5C3
330
458
100
AcDbEntity
  8
1
 62
     1
100
AcDbText
 10
-153.1683021924781
 20
7.166615281017482
 30
0.0
 40
0.6000000000000001
  1
2
  7
KANJI
 72
     4
 11
-152.9683021924781
 21
7.466615281017482
 31
0.0
100
AcDbText
  0
LWPOLYLINE
  5
5C4
330
458
100
AcDbEntity
  8
1
 62
     1
100
AcDbPolyline
 90
        4
 70
     0
 43
0.0
 10
-114.6481136589013
 20
9.302703200021625
 10
-115.4481136589013
 20
7.917062553966531
 10
-113.8481136589012
 20
7.917062553966531
 10
-114.6481136589013
 20
9.302703200021625
  0
TEXT
  5
5C5
330
458
100
AcDbEntity
  8
1
 62
     1
100
AcDbText
 10
-114.8762656070258
 20
8.11329802262166
 30
0.0
 40
0.6000000000000001
  1
2
  7
KANJI
 72
     4
 11
-114.6762656070258
 21
8.41329802262166
 31
0.0
100
AcDbText
  0
TEXT
  5
5C6
330
458
100
AcDbEntity
  8
1
 62
     1
100
AcDbText
 10
-114.6364009515626
 20
16.50296612132669
 30
0.0
 40
1.75
  1
佐　藤
  7
KANJI
100
AcDbText
  0
TEXT
  5
5C7
330
458
100
AcDbEntity
  8
1
 62
     1
100
AcDbText
 10
-115.9248826223465
 20
13.63709412512054
 30
0.0
 40
1.1375
  1
'10-10-28
  7
KANJI
100
AcDbText
  0
TEXT
  5
5C8
330
458
100
AcDbEntity
  8
1
 62
     1
100
AcDbText
 10
-105.9248826223464
 20
13.63709412512054
 30
0.0
 40
1.1375
  1
'10-10-28
  7
KANJI
100
AcDbText
  0
TEXT
  5
5C9
330
458
100
AcDbEntity
  8
1
 62
     1
100
AcDbText
 10
-104.6364009515625
 20
16.50296612132669
 30
0.0
 40
1.75
  1
鶴　田
  7
KANJI
100
AcDbText
  0
LINE
  5
5CA
330
458
100
AcDbEntity
  8
L-CENTER
 48
0.5
100
AcDbLine
 10
-62.62007983803915
 20
6.938691032764837
 30
0.0
 11
-62.62007983803915
 21
-23.56481431319048
 31
0.0
  0
LINE
  5
5CB
330
458
100
AcDbEntity
  8
L-CENTER
 48
0.5
100
AcDbLine
 10
-77.0750918438905
 20
-8.412410425296798
 30
0.0
 11
-47.82051592976381
 21
-8.412410425296798
 31
0.0
  0
CIRCLE
  5
5CC
330
458
100
AcDbEntity
  8
4
100
AcDbCircle
 10
-62.62007983803915
 20
-8.412410425296798
 30
0.0
 40
12.5
  0
LINE
  5
5CD
330
458
100
AcDbEntity
  8
4
100
AcDbLine
 10
-73.62007983803915
 20
-3.216258007351712
 30
0.0
 11
-73.62007983803915
 21
-13.6085628480034
 31
0.0
  0
LINE
  5
5CE
330
458
100
AcDbEntity
  8
4
100
AcDbLine
 10
-51.62007983803917
 20
-3.21625799782862
 30
0.0
 11
-51.62007983803915
 21
-13.60856284800343
 31
0.0
  0
LINE
  5
5CF
330
458
100
AcDbEntity
  8
4
100
AcDbLine
 10
-52.62007983803915
 20
-15.34061365557231
 30
0.0
 11
-61.62007983803915
 21
-20.53676607827892
 31
0.0
  0
ARC
  5
5D0
330
458
100
AcDbEntity
  8
4
100
AcDbCircle
 10
-71.62007983803915
 20
-13.6085628480034
 30
0.0
 40
2.0
100
AcDbArc
 50
180.0
 51
239.9999999999999
  0
LINE
  5
5D1
330
458
100
AcDbEntity
  8
4
100
AcDbLine
 10
-72.62007983803915
 20
-15.34061365557228
 30
0.0
 11
-63.62007983803915
 21
-20.53676607827892
 31
0.0
  0
ARC
  5
5D2
330
458
100
AcDbEntity
  8
4
100
AcDbCircle
 10
-62.62007983803915
 20
-18.80471527071003
 30
0.0
 40
2.0
100
AcDbArc
 50
239.9999999999999
 51
300.0
  0
CIRCLE
  5
5D3
330
458
100
AcDbEntity
  8
4
100
AcDbCircle
 10
-62.62007983803915
 20
-8.412410425296798
 30
0.0
 40
1.5
  0
ARC
  5
5D4
330
458
100
AcDbEntity
  8
4
100
AcDbCircle
 10
-53.62007983803915
 20
-13.60856284800343
 30
0.0
 40
2.0
100
AcDbArc
 50
300.0
 51
0.0
  0
LINE
  5
5D5
330
458
100
AcDbEntity
  8
4
100
AcDbLine
 10
-61.62007982757316
 20
3.711945227685362
 30
0.0
 11
-52.62007983785426
 21
-1.48420719036649
 31
0.0
  0
LINE
  5
5D6
330
458
100
AcDbEntity
  8
4
100
AcDbLine
 10
-63.62007982757316
 20
3.711945227685362
 30
0.0
 11
-72.62007983785423
 21
-1.484207199676078
 31
0.0
  0
ARC
  5
5D7
330
458
100
AcDbEntity
  8
4
100
AcDbCircle
 10
-71.62007983803915
 20
-3.216258007351712
 30
0.0
 40
2.0
100
AcDbArc
 50
119.999999993884
 51
180.0
  0
ARC
  5
5D8
330
458
100
AcDbEntity
  8
4
100
AcDbCircle
 10
-62.62007982757316
 20
1.97989442011648
 30
0.0
 40
2.0
100
AcDbArc
 50
60.00000000000006
 51
119.9999999999999
  0
ARC
  5
5D9
330
458
100
AcDbEntity
  8
4
100
AcDbCircle
 10
-53.62007983803915
 20
-3.21625799782862
 30
0.0
 40
2.0
100
AcDbArc
 50
0.0
 51
59.99999999388404
  0
LINE
  5
5DA
330
458
100
AcDbEntity
  8
4
100
AcDbLine
 10
-29.39589949084007
 20
4.192011917798823
 30
0.0
 11
-29.39589949084004
 21
-20.80798808220118
 31
0.0
  0
LINE
  5
5DB
330
458
100
AcDbEntity
  8
4
100
AcDbLine
 10
-31.39589949084007
 20
4.192011917798823
 30
0.0
 11
-31.39589949084009
 21
-20.80798808220118
 31
0.0
  0
LINE
  5
5DC
330
458
100
AcDbEntity
  8
4
100
AcDbLine
 10
-35.39589949084007
 20
3.692011917798823
 30
0.0
 11
-35.39589949084007
 21
-20.30798808220118
 31
0.0
  0
LINE
  5
5DD
330
458
100
AcDbEntity
  8
L-CENTER
 48
0.5
100
AcDbLine
 10
-38.12148165554163
 20
-8.307988082201177
 30
0.0
 11
-16.49853280907814
 21
-8.307988082201177
 31
0.0
  0
LINE
  5
5DE
330
458
100
AcDbEntity
  8
4
100
AcDbLine
 10
-34.89589949084007
 20
-20.80798808220118
 30
0.0
 11
-29.39589949084007
 21
-20.80798808220118
 31
0.0
  0
ARC
  5
5DF
330
458
100
AcDbEntity
  8
4
100
AcDbCircle
 10
-34.89589949084007
 20
-20.30798808220118
 30
0.0
 40
0.5
100
AcDbArc
 50
180.0
 51
270.0
  0
LINE
  5
5E0
330
458
100
AcDbEntity
  8
4
100
AcDbLine
 10
-29.39589949084007
 20
-20.30798808220118
 30
0.0
 11
-27.89589949084007
 21
-20.30798808220118
 31
0.0
  0
LINE
  5
5E1
330
458
100
AcDbEntity
  8
4
100
AcDbLine
 10
-27.89589949084007
 20
3.692011917798823
 30
0.0
 11
-27.89589949084007
 21
-20.30798808220118
 31
0.0
  0
LINE
  5
5E2
330
458
100
AcDbEntity
  8
4
100
AcDbLine
 10
-35.39589949084007
 20
-1.957135116496097
 30
0.0
 11
-31.39589949084007
 21
-1.957135116496083
 31
0.0
  0
LINE
  5
5E3
330
458
100
AcDbEntity
  8
4
100
AcDbLine
 10
-34.89589949084007
 20
4.192011917798823
 30
0.0
 11
-29.39589949084007
 21
4.192011917798823
 31
0.0
  0
ARC
  5
5E4
330
458
100
AcDbEntity
  8
4
100
AcDbCircle
 10
-34.89589949084007
 20
3.692011917798823
 30
0.0
 40
0.5
100
AcDbArc
 50
90.0
 51
180.0
  0
LINE
  5
5E5
330
458
100
AcDbEntity
  8
4
100
AcDbLine
 10
-29.39589949084007
 20
3.692011917798823
 30
0.0
 11
-27.89589949084007
 21
3.692011917798823
 31
0.0
  0
LINE
  5
5E6
330
458
100
AcDbEntity
  8
4
100
AcDbLine
 10
-35.39589949084007
 20
-14.65884104790626
 30
0.0
 11
-31.39589949084007
 21
-14.65884104790627
 31
0.0
  0
TEXT
  5
5E7
330
458
100
AcDbEntity
  8
1
 62
     1
100
AcDbText
 10
-114.0379152338095
 20
-8.368801911623095
 30
0.0
 40
1.111943160898295
  1
注記追加
  7
KANJI
100
AcDbText
  0
LINE
  5
5E8
330
458
100
AcDbEntity
  8
1
 62
     9
100
AcDbLine
 10
-126.7488823246705
 20
-8.928230360742447
 30
0.0
 11
-96.74888232467049
 21
-8.928230360742447
 31
0.0
  0
LWPOLYLINE
  5
5E9
330
458
100
AcDbEntity
  8
1
 62
     1
100
AcDbPolyline
 90
        4
 70
     0
 43
0.0
 10
-125.5498202305578
 20
-6.989703155866351
 10
-126.3498202305578
 20
-8.375343801921446
 10
-124.7498202305578
 20
-8.375343801921446
 10
-125.5498202305578
 20
-6.989703155866351
  0
TEXT
  5
5EA
330
458
100
AcDbEntity
  8
1
 62
     1
100
AcDbText
 10
-125.7779721786824
 20
-8.179108333266317
 30
0.0
 40
0.6000000000000001
  1
4
  7
KANJI
 72
     4
 11
-125.5779721786824
 21
-7.879108333266316
 31
0.0
100
AcDbText
  0
TEXT
  5
5EB
330
458
100
AcDbEntity
  8
1
 62
     1
100
AcDbText
 10
-123.2838202695079
 20
-8.273265376191077
 30
0.0
 40
0.9900000000000001
  1
'10-10-28
  7
KANJI
100
AcDbText
  0
TEXT
  5
5EC
330
458
100
AcDbEntity
  8
1
 62
     1
100
AcDbText
 10
-99.81737815596014
 20
-8.318090064796841
 30
0.0
 40
1.111943160898295
  1
高橋
  7
KANJI
100
AcDbText
  0
TEXT
  5
5ED
330
458
100
AcDbEntity
  8
3
100
AcDbText
 10
-125.1895262675158
 20
2.716770303702631
 30
0.0
 40
1.49625
  1
１．型ズレ・ヒケ０．２ｍｍ以下
 41
0.8699999999999999
  7
KANJI
100
AcDbText
  0
TEXT
  5
5EE
330
458
100
AcDbEntity
  8
3
100
AcDbText
 10
-125.1895262675158
 20
0.3246491244676264
 30
0.0
 40
1.49625
  1
２．バリのないこと
 41
0.8699999999999999
  7
KANJI
100
AcDbText
  0
LWPOLYLINE
  5
5EF
330
458
100
AcDbEntity
  8
1
 62
     1
100
AcDbPolyline
 90
        4
 70
     0
 43
0.0
 10
-101.0424890385532
 20
4.141984708492203
 10
-101.8424890385532
 20
2.756344062437108
 10
-100.2424890385532
 20
2.756344062437108
 10
-101.0424890385532
 20
4.141984708492203
  0
TEXT
  5
5F0
330
458
100
AcDbEntity
  8
1
 62
     1
100
AcDbText
 10
-101.2706409866777
 20
2.952579531092238
 30
0.0
 40
0.6000000000000001
  1
4
  7
KANJI
 72
     4
 11
-101.0706409866777
 21
3.252579531092238
 31
0.0
100
AcDbText
  0
TEXT
  5
5F1
330
458
100
AcDbEntity
  8
2
100
AcDbText
 10
-227.3445192171301
 20
23.20988219353262
 30
0.0
 40
1.39999986
  1
１２０を超え　４００以下
 41
0.6
  7
KANJI
100
AcDbText
  0
TEXT
  5
5F2
330
458
100
AcDbEntity
  8
2
100
AcDbText
 10
-227.3445192171301
 20
25.70988194353268
 30
0.0
 40
1.39999986
  1
３０を超え　１２０以下
 41
0.6
  7
KANJI
100
AcDbText
  0
LINE
  5
5F3
330
458
100
AcDbEntity
  8
2
100
AcDbLine
 10
-228.2488823246705
 20
25.15316977231768
 30
0.0
 11
-205.7488853246704
 21
25.15316977231768
 31
0.0
  0
TEXT
  5
5F4
330
458
100
AcDbEntity
  8
2
100
AcDbText
 10
-227.3445192171301
 20
28.20988169353274
 30
0.0
 40
1.39999986
  1
６を超え　３０以下
 41
0.6
  7
KANJI
100
AcDbText
  0
LINE
  5
5F5
330
458
100
AcDbEntity
  8
2
100
AcDbLine
 10
-228.2488823246705
 20
27.65316952231774
 30
0.0
 11
-205.7488853246704
 21
27.65316952231773
 31
0.0
  0
TEXT
  5
5F6
330
458
100
AcDbEntity
  8
2
100
AcDbText
 10
-227.3445192171301
 20
30.70988144353279
 30
0.0
 40
1.39999986
  1
０．５以上　６以下
 41
0.6
  7
KANJI
100
AcDbText
  0
LINE
  5
5F7
330
458
100
AcDbEntity
  8
2
100
AcDbLine
 10
-228.2488823246705
 20
30.15316927231781
 30
0.0
 11
-205.7488853246704
 21
30.15316927231781
 31
0.0
  0
TEXT
  5
5F8
330
458
100
AcDbEntity
  8
3
100
AcDbText
 10
-224.6517260188938
 20
33.20988119353285
 30
0.0
 40
1.39999986
  1
寸法の区分
  7
KANJI
100
AcDbText
  0
LINE
  5
5F9
330
458
100
AcDbEntity
  8
2
100
AcDbLine
 10
-228.2488823246705
 20
32.65316902231787
 30
0.0
 11
-205.7488853246704
 21
32.65316902231785
 31
0.0
  0
TEXT
  5
5FA
330
458
100
AcDbEntity
  8
3
100
AcDbText
 10
-223.9695805564948
 20
35.70988094353289
 30
0.0
 40
1.39999986
  1
ＪＩＳ　Ｂ　０４０５－ｍ
 41
0.7
  7
KANJI
100
AcDbText
  0
LINE
  5
5FB
330
458
100
AcDbEntity
  8
1
100
AcDbLine
 10
-228.2488823246705
 20
35.1531687723179
 30
0.0
 11
-205.7488853246704
 21
35.15316877231788
 31
0.0
  0
TEXT
  5
5FC
330
458
100
AcDbEntity
  8
2
100
AcDbText
 10
-211.664090033854
 20
25.70988194353268
 30
0.0
 40
1.39999986
  1
±０．３
 41
0.7
  7
KANJI
100
AcDbText
  0
LINE
  5
5FD
330
458
100
AcDbEntity
  8
2
100
AcDbLine
 10
-213.2488843246704
 20
22.65317002231764
 30
0.0
 11
-213.2488843246704
 21
35.1531687723179
 31
0.0
  0
TEXT
  5
5FE
330
458
100
AcDbEntity
  8
2
100
AcDbText
 10
-211.664090033854
 20
23.20988219353262
 30
0.0
 40
1.39999986
  1
±０．５
 41
0.7
  7
KANJI
100
AcDbText
  0
TEXT
  5
5FF
330
458
100
AcDbEntity
  8
3
100
AcDbText
 10
-211.7980703257886
 20
33.20988119353285
 30
0.0
 40
1.39999986
  1
公　差
  7
KANJI
100
AcDbText
  0
TEXT
  5
600
330
458
100
AcDbEntity
  8
2
100
AcDbText
 10
-211.664090033854
 20
28.20988169353274
 30
0.0
 40
1.39999986
  1
±０．２
 41
0.7
  7
KANJI
100
AcDbText
  0
TEXT
  5
601
330
458
100
AcDbEntity
  8
2
100
AcDbText
 10
-211.664090033854
 20
30.70988144353279
 30
0.0
 40
1.39999986
  1
±０．１
 41
0.7
  7
KANJI
100
AcDbText
  0
LINE
  5
602
330
458
100
AcDbEntity
  8
1
100
AcDbLine
 10
-228.2488823246705
 20
22.65317002231768
 30
0.0
 11
-183.2488883246704
 21
22.65317002231768
 31
0.0
  0
TEXT
  5
603
330
458
100
AcDbEntity
  8
3
100
AcDbText
 10
-199.3892448210725
 20
35.70988094353292
 30
0.0
 40
1.39999986
  1
表面性状記号
  7
KANJI
100
AcDbText
  0
LINE
  5
604
330
458
100
AcDbEntity
  8
2
100
AcDbLine
 10
-202.0579573353318
 20
25.68653825645212
 30
0.0
 11
-201.2579574153318
 21
27.07217876394316
 31
0.0
  0
LINE
  5
605
330
458
100
AcDbEntity
  8
2
100
AcDbLine
 10
-202.8579572553318
 20
27.07217876394316
 30
0.0
 11
-202.0579573353318
 21
25.68653825645212
 31
0.0
  0
LINE
  5
606
330
458
100
AcDbEntity
  8
2
100
AcDbLine
 10
-201.2579574153318
 20
27.07217876394314
 30
0.0
 11
-200.4579574953318
 21
25.68653825645211
 31
0.0
  0
LINE
  5
607
330
458
100
AcDbEntity
  8
2
100
AcDbLine
 10
-200.4579574953318
 20
25.68653825645211
 30
0.0
 11
-199.6579575753318
 21
27.07217876394314
 31
0.0
  0
LINE
  5
608
330
458
100
AcDbEntity
  8
2
100
AcDbLine
 10
-204.4579570953318
 20
27.07217876394317
 30
0.0
 11
-203.6579571753318
 21
25.68653825645214
 31
0.0
  0
LINE
  5
609
330
458
100
AcDbEntity
  8
2
100
AcDbLine
 10
-203.6579571753318
 20
25.68653825645214
 30
0.0
 11
-202.8579572553318
 21
27.07217876394317
 31
0.0
  0
LINE
  5
60A
330
458
100
AcDbEntity
  8
2
100
AcDbLine
 10
-198.2488853246704
 20
35.15316877231794
 30
0.0
 11
-198.2488853246705
 21
22.65317002231764
 31
0.0
  0
LINE
  5
60B
330
458
100
AcDbEntity
  8
2
100
AcDbLine
 10
-202.8579572553318
 20
24.1358124968028
 30
0.0
 11
-204.4579570953318
 21
24.13581249680281
 31
0.0
  0
LINE
  5
60C
330
458
100
AcDbEntity
  8
2
100
AcDbLine
 10
-203.6579571753318
 20
22.75017198931178
 30
0.0
 11
-202.8579572553318
 21
24.13581249680281
 31
0.0
  0
LINE
  5
60D
330
458
100
AcDbEntity
  8
2
100
AcDbLine
 10
-204.4579570953318
 20
24.13581249680281
 30
0.0
 11
-203.6579571753318
 21
22.75017198931178
 31
0.0
  0
LINE
  5
60E
330
458
100
AcDbEntity
  8
2
100
AcDbLine
 10
-199.6579575753318
 20
24.13581249680279
 30
0.0
 11
-201.2579574153318
 21
24.13581249680279
 31
0.0
  0
LINE
  5
60F
330
458
100
AcDbEntity
  8
2
100
AcDbLine
 10
-201.2579574153318
 20
24.13581249680279
 30
0.0
 11
-200.4579574953318
 21
22.75017198931175
 31
0.0
  0
LINE
  5
610
330
458
100
AcDbEntity
  8
2
100
AcDbLine
 10
-202.8579572553318
 20
24.1358124968028
 30
0.0
 11
-202.0579573353318
 21
22.75017198931177
 31
0.0
  0
LINE
  5
611
330
458
100
AcDbEntity
  8
2
100
AcDbLine
 10
-202.0579573353318
 20
22.75017198931177
 30
0.0
 11
-201.2579574153318
 21
24.1358124968028
 31
0.0
  0
TEXT
  5
612
330
458
100
AcDbEntity
  8
2
 48
2.0
100
AcDbText
 10
-202.248492248176
 20
24.324453548216
 30
0.0
 40
0.59999994
  1
G
  7
KANJI
 72
     4
 11
-202.048492268176
 21
24.624453518216
 31
0.0
100
AcDbText
  0
LINE
  5
613
330
458
100
AcDbEntity
  8
2
100
AcDbLine
 10
-201.2579574153318
 20
24.1358124968028
 30
0.0
 11
-202.8579572553318
 21
24.1358124968028
 31
0.0
  0
LINE
  5
614
330
458
100
AcDbEntity
  8
2
100
AcDbLine
 10
-200.4579574953318
 20
22.75017198931175
 30
0.0
 11
-199.6579575753318
 21
24.13581249680279
 31
0.0
  0
LWPOLYLINE
  5
615
330
458
100
AcDbEntity
  8
2
100
AcDbPolyline
 90
        3
 70
     0
 43
0.0
 10
-203.6581600393123
 20
33.36942625935369
 42
-0.855650782898509
 10
-202.0579573353318
 20
33.84952361381632
 42
0.8556144888275579
 10
-200.4581600393126
 20
34.32942625935358
 42
0.8556144888275579
  0
LINE
  5
616
330
458
100
AcDbEntity
  8
2
100
AcDbLine
 10
-202.8579572553318
 20
27.07217876394316
 30
0.0
 11
-204.4579570953318
 21
27.07217876394317
 31
0.0
  0
LINE
  5
617
330
458
100
AcDbEntity
  8
2
100
AcDbLine
 10
-203.6579571753318
 20
29.57217851394323
 30
0.0
 11
-202.8579572553318
 21
28.18653800645218
 31
0.0
  0
LINE
  5
618
330
458
100
AcDbEntity
  8
2
100
AcDbLine
 10
-202.0579573353318
 20
29.57217851394321
 30
0.0
 11
-203.6579571753318
 21
29.57217851394323
 31
0.0
  0
LINE
  5
619
330
458
100
AcDbEntity
  8
2
100
AcDbLine
 10
-199.6579575753318
 20
27.07217876394314
 30
0.0
 11
-201.2579574153318
 21
27.07217876394314
 31
0.0
  0
LINE
  5
61A
330
458
100
AcDbEntity
  8
2
100
AcDbLine
 10
-200.4579574953318
 20
29.5721785139432
 30
0.0
 11
-202.0579573353318
 21
29.57217851394321
 31
0.0
  0
LINE
  5
61B
330
458
100
AcDbEntity
  8
2
100
AcDbLine
 10
-201.2579574153318
 20
28.18653800645218
 30
0.0
 11
-200.4579574953318
 21
29.57217851394321
 31
0.0
  0
LINE
  5
61C
330
458
100
AcDbEntity
  8
2
100
AcDbLine
 10
-201.2579574153318
 20
27.07217876394316
 30
0.0
 11
-202.8579572553318
 21
27.07217876394316
 31
0.0
  0
LINE
  5
61D
330
458
100
AcDbEntity
  8
2
100
AcDbLine
 10
-202.8579572553318
 20
28.18653800645218
 30
0.0
 11
-202.0579573353318
 21
29.57217851394323
 31
0.0
  0
LINE
  5
61E
330
458
100
AcDbEntity
  8
2
100
AcDbLine
 10
-202.0579573353318
 20
29.57217851394321
 30
0.0
 11
-201.2579574153318
 21
28.18653800645218
 31
0.0
  0
LINE
  5
61F
330
458
100
AcDbEntity
  8
2
100
AcDbLine
 10
-201.2579574153318
 20
32.07217826394324
 30
0.0
 11
-202.8579572553318
 21
32.07217826394326
 31
0.0
  0
LINE
  5
620
330
458
100
AcDbEntity
  8
2
100
AcDbLine
 10
-202.8579572553318
 20
32.07217826394326
 30
0.0
 11
-202.0579573353318
 21
30.68653775645221
 31
0.0
  0
LINE
  5
621
330
458
100
AcDbEntity
  8
2
100
AcDbLine
 10
-202.0579573353318
 20
30.68653775645221
 30
0.0
 11
-201.2579574153318
 21
32.07217826394326
 31
0.0
  0
LINE
  5
622
330
458
100
AcDbEntity
  8
2
100
AcDbLine
 10
-189.3855899378525
 20
26.36690154982568
 30
0.0
 11
-188.7695899994525
 21
25.29995835905758
 31
0.0
  0
LINE
  5
623
330
458
100
AcDbEntity
  8
2
100
AcDbLine
 10
-188.7695899994525
 20
25.29995835905758
 30
0.0
 11
-187.5375901226525
 21
27.43384474059377
 31
0.0
  0
LINE
  5
624
330
458
100
AcDbEntity
  8
2
100
AcDbLine
 10
-190.7488853246704
 20
35.15316877231793
 30
0.0
 11
-190.7488853246705
 21
22.65317002231764
 31
0.0
  0
TEXT
  5
625
330
458
100
AcDbEntity
  8
2
100
AcDbText
 10
-187.3566945795285
 20
24.00786376503167
 30
0.0
 40
0.6775999322400003
  1
Ra 0.8
  7
KANJI
100
AcDbText
  0
LINE
  5
626
330
458
100
AcDbEntity
  8
2
100
AcDbLine
 10
-187.5375901226525
 20
24.9338449905937
 30
0.0
 11
-184.2258880208943
 21
24.93384499059367
 31
0.0
  0
LINE
  5
627
330
458
100
AcDbEntity
  8
2
100
AcDbLine
 10
-189.3855899378525
 20
23.8669017998256
 30
0.0
 11
-188.7695899994525
 21
22.7999586090575
 31
0.0
  0
LINE
  5
628
330
458
100
AcDbEntity
  8
2
100
AcDbLine
 10
-188.1535900610525
 20
23.8669017998256
 30
0.0
 11
-189.3855899378525
 21
23.8669017998256
 31
0.0
  0
LINE
  5
629
330
458
100
AcDbEntity
  8
2
100
AcDbLine
 10
-188.7695899994525
 20
22.7999586090575
 30
0.0
 11
-187.5375901226525
 21
24.9338449905937
 31
0.0
  0
LINE
  5
62A
330
458
100
AcDbEntity
  8
2
100
AcDbLine
 10
-187.5375901226524
 20
32.43384424059388
 30
0.0
 11
-184.9620676471646
 21
32.43384424059387
 31
0.0
  0
TEXT
  5
62B
330
458
100
AcDbEntity
  8
2
100
AcDbText
 10
-187.3566945795285
 20
31.50786301503186
 30
0.0
 40
0.6775999322400003
  1
Ra 8
  7
KANJI
100
AcDbText
  0
TEXT
  5
62C
330
458
100
AcDbEntity
  8
2
100
AcDbText
 10
-187.3566945795285
 20
29.0078632650318
 30
0.0
 40
0.6775999322400003
  1
Ra 3.2 
  7
KANJI
100
AcDbText
  0
TEXT
  5
62D
330
458
100
AcDbEntity
  8
2
100
AcDbText
 10
-187.3566945795285
 20
26.50786351503174
 30
0.0
 40
0.6775999322400003
  1
Ra 1.6
  7
KANJI
100
AcDbText
  0
LINE
  5
62E
330
458
100
AcDbEntity
  8
2
100
AcDbLine
 10
-187.5375901226525
 20
29.93384449059383
 30
0.0
 11
-184.0251115542139
 21
29.93384449059381
 31
0.0
  0
LINE
  5
62F
330
458
100
AcDbEntity
  8
2
100
AcDbLine
 10
-187.5375901226525
 20
27.43384474059377
 30
0.0
 11
-184.2258880208943
 21
27.43384474059376
 31
0.0
  0
LINE
  5
630
330
458
100
AcDbEntity
  8
2
100
AcDbLine
 10
-188.7695899994525
 20
32.79995760905776
 30
0.0
 11
-187.5375901226524
 21
34.93384399059394
 31
0.0
  0
LINE
  5
631
330
458
100
AcDbEntity
  8
2
100
AcDbLine
 10
-189.3855899378525
 20
28.86690129982574
 30
0.0
 11
-188.7695899994525
 21
27.79995810905764
 31
0.0
  0
LINE
  5
632
330
458
100
AcDbEntity
  8
2
100
AcDbLine
 10
-188.1535900610525
 20
28.86690129982573
 30
0.0
 11
-189.3855899378525
 21
28.86690129982574
 31
0.0
  0
LINE
  5
633
330
458
100
AcDbEntity
  8
2
100
AcDbLine
 10
-188.1535900610525
 20
26.36690154982567
 30
0.0
 11
-189.3855899378525
 21
26.36690154982568
 31
0.0
  0
LINE
  5
634
330
458
100
AcDbEntity
  8
2
100
AcDbLine
 10
-188.7695899994525
 20
27.79995810905764
 30
0.0
 11
-187.5375901226525
 21
29.93384449059383
 31
0.0
  0
CIRCLE
  5
635
330
458
100
AcDbEntity
  8
2
100
AcDbCircle
 10
-188.7695899994525
 20
33.6374603081173
 30
0.0
 40
0.4187513495297635
  0
LINE
  5
636
330
458
100
AcDbEntity
  8
2
100
AcDbLine
 10
-188.1535900610525
 20
31.36690104982578
 30
0.0
 11
-189.3855899378524
 21
31.3669010498258
 31
0.0
  0
LINE
  5
637
330
458
100
AcDbEntity
  8
2
100
AcDbLine
 10
-189.3855899378524
 20
31.3669010498258
 30
0.0
 11
-188.7695899994525
 21
30.2999578590577
 31
0.0
  0
LINE
  5
638
330
458
100
AcDbEntity
  8
2
100
AcDbLine
 10
-189.3855899378524
 20
33.86690079982586
 30
0.0
 11
-188.7695899994525
 21
32.79995760905776
 31
0.0
  0
LINE
  5
639
330
458
100
AcDbEntity
  8
2
100
AcDbLine
 10
-188.7695899994525
 20
30.2999578590577
 30
0.0
 11
-187.5375901226524
 21
32.43384424059388
 31
0.0
  0
LINE
  5
63A
330
458
100
AcDbEntity
  8
1
100
AcDbLine
 10
-205.7488853246705
 20
35.15316877231794
 30
0.0
 11
-183.2488883246704
 21
35.15316877231793
 31
0.0
  0
LINE
  5
63B
330
458
100
AcDbEntity
  8
2
100
AcDbLine
 10
-205.7488853246705
 20
25.15316977231772
 30
0.0
 11
-183.2488883246704
 21
25.15316977231772
 31
0.0
  0
LINE
  5
63C
330
458
100
AcDbEntity
  8
2
100
AcDbLine
 10
-205.7488853246705
 20
27.65316952231778
 30
0.0
 11
-183.2488883246704
 21
27.65316952231777
 31
0.0
  0
LINE
  5
63D
330
458
100
AcDbEntity
  8
2
100
AcDbLine
 10
-205.7488853246705
 20
30.15316927231784
 30
0.0
 11
-183.2488883246704
 21
30.15316927231784
 31
0.0
  0
LINE
  5
63E
330
458
100
AcDbEntity
  8
2
100
AcDbLine
 10
-205.7488853246705
 20
32.6531690223179
 30
0.0
 11
-183.2488883246704
 21
32.6531690223179
 31
0.0
  0
LWPOLYLINE
  5
63F
330
458
100
AcDbEntity
  8
2
100
AcDbPolyline
 90
        3
 70
     0
 43
0.0
 10
-196.1581600393123
 20
33.36942625935369
 42
-0.855650782898509
 10
-194.5579573353318
 20
33.84952361381632
 42
0.8556144888275579
 10
-192.9581600393126
 20
34.32942625935358
 42
0.8556144888275579
  0
LINE
  5
640
330
458
100
AcDbEntity
  8
2
100
AcDbLine
 10
-193.1179574793318
 20
22.70642270235284
 30
0.0
 11
-192.3979575513318
 21
23.95349915909476
 31
0.0
  0
LINE
  5
641
330
458
100
AcDbEntity
  8
2
100
AcDbLine
 10
-192.3979575513318
 20
23.95349915909476
 30
0.0
 11
-193.8379574073318
 21
23.95349915909476
 31
0.0
  0
LINE
  5
642
330
458
100
AcDbEntity
  8
2
100
AcDbLine
 10
-195.9979571913318
 20
22.70642270235285
 30
0.0
 11
-195.2779572633318
 21
23.95349915909479
 31
0.0
  0
LINE
  5
643
330
458
100
AcDbEntity
  8
2
100
AcDbLine
 10
-195.2779572633318
 20
23.95349915909478
 30
0.0
 11
-196.7179571193318
 21
23.95349915909479
 31
0.0
  0
LINE
  5
644
330
458
100
AcDbEntity
  8
2
100
AcDbLine
 10
-196.7179571193318
 20
23.95349915909479
 30
0.0
 11
-195.9979571913318
 21
22.70642270235285
 31
0.0
  0
LINE
  5
645
330
458
100
AcDbEntity
  8
2
100
AcDbLine
 10
-194.5579573353318
 20
22.70642270235284
 30
0.0
 11
-193.8379574073318
 21
23.95349915909478
 31
0.0
  0
LINE
  5
646
330
458
100
AcDbEntity
  8
2
100
AcDbLine
 10
-195.2779572633318
 20
23.95349915909478
 30
0.0
 11
-194.5579573353318
 21
22.70642270235284
 31
0.0
  0
LINE
  5
647
330
458
100
AcDbEntity
  8
2
100
AcDbLine
 10
-193.8379574073318
 20
23.95349915909476
 30
0.0
 11
-193.1179574793318
 21
22.70642270235284
 31
0.0
  0
LINE
  5
648
330
458
100
AcDbEntity
  8
2
100
AcDbLine
 10
-193.8379574073318
 20
23.95349915909478
 30
0.0
 11
-195.2779572633318
 21
23.95349915909478
 31
0.0
  0
TEXT
  5
649
330
458
100
AcDbEntity
  8
2
 48
2.0
100
AcDbText
 10
-195.5375456624605
 20
24.1610043156493
 30
0.0
 40
0.659999934
  1
3.2S
  7
KANJI
 72
     4
 11
-194.5475457614605
 21
24.4910042826493
 31
0.0
100
AcDbText
  0
TEXT
  5
64A
330
458
100
AcDbEntity
  8
2
 48
2.0
100
AcDbText
 10
-195.0975457064605
 20
26.66100406564939
 30
0.0
 40
0.659999934
  1
6S
  7
KANJI
 72
     4
 11
-194.5475457614605
 21
26.99100403264939
 31
0.0
100
AcDbText
  0
LINE
  5
64B
330
458
100
AcDbEntity
  8
2
100
AcDbLine
 10
-193.8379574073318
 20
26.45349890909486
 30
0.0
 11
-195.2779572633318
 21
26.45349890909486
 31
0.0
  0
LINE
  5
64C
330
458
100
AcDbEntity
  8
2
100
AcDbLine
 10
-194.5579573353318
 20
25.20642245235292
 30
0.0
 11
-193.8379574073318
 21
26.45349890909486
 31
0.0
  0
LINE
  5
64D
330
458
100
AcDbEntity
  8
2
100
AcDbLine
 10
-195.2779572633318
 20
26.45349890909486
 30
0.0
 11
-194.5579573353318
 21
25.20642245235292
 31
0.0
  0
LINE
  5
64E
330
458
100
AcDbEntity
  8
2
100
AcDbLine
 10
-196.7179571193318
 20
26.45349890909488
 30
0.0
 11
-195.9979571913318
 21
25.20642245235294
 31
0.0
  0
LINE
  5
64F
330
458
100
AcDbEntity
  8
2
100
AcDbLine
 10
-195.9979571913318
 20
25.20642245235294
 30
0.0
 11
-195.2779572633318
 21
26.45349890909488
 31
0.0
  0
LINE
  5
650
330
458
100
AcDbEntity
  8
2
100
AcDbLine
 10
-195.2779572633318
 20
26.45349890909486
 30
0.0
 11
-196.7179571193318
 21
26.45349890909488
 31
0.0
  0
LINE
  5
651
330
458
100
AcDbEntity
  8
2
100
AcDbLine
 10
-193.8379574073318
 20
26.45349890909485
 30
0.0
 11
-193.1179574793318
 21
25.20642245235292
 31
0.0
  0
LINE
  5
652
330
458
100
AcDbEntity
  8
2
100
AcDbLine
 10
-193.1179574793318
 20
25.20642245235292
 30
0.0
 11
-192.3979575513318
 21
26.45349890909485
 31
0.0
  0
LINE
  5
653
330
458
100
AcDbEntity
  8
2
100
AcDbLine
 10
-192.3979575513318
 20
26.45349890909485
 30
0.0
 11
-193.8379574073318
 21
26.45349890909485
 31
0.0
  0
LINE
  5
654
330
458
100
AcDbEntity
  8
2
100
AcDbLine
 10
-195.2779572633318
 20
27.70642220235298
 30
0.0
 11
-194.5579573353318
 21
28.95349865909492
 31
0.0
  0
LINE
  5
655
330
458
100
AcDbEntity
  8
2
100
AcDbLine
 10
-195.9979571913318
 20
28.95349865909492
 30
0.0
 11
-195.2779572633318
 21
27.70642220235298
 31
0.0
  0
LINE
  5
656
330
458
100
AcDbEntity
  8
2
100
AcDbLine
 10
-194.5579573353318
 20
28.9534986590949
 30
0.0
 11
-193.8379574073318
 21
27.70642220235298
 31
0.0
  0
LINE
  5
657
330
458
100
AcDbEntity
  8
2
100
AcDbLine
 10
-193.8379574073318
 20
27.70642220235298
 30
0.0
 11
-193.1179574793318
 21
28.9534986590949
 31
0.0
  0
TEXT
  5
658
330
458
100
AcDbEntity
  8
2
 48
2.0
100
AcDbText
 10
-195.7575456404605
 20
29.16100381564944
 30
0.0
 40
0.659999934
  1
12.5S
  7
KANJI
 72
     4
 11
-194.5475457614605
 21
29.49100378264944
 31
0.0
100
AcDbText
  0
LINE
  5
659
330
458
100
AcDbEntity
  8
2
100
AcDbLine
 10
-193.1179574793318
 20
28.9534986590949
 30
0.0
 11
-194.5579573353318
 21
28.9534986590949
 31
0.0
  0
LINE
  5
65A
330
458
100
AcDbEntity
  8
2
100
AcDbLine
 10
-194.5579573353318
 20
28.9534986590949
 30
0.0
 11
-195.9979571913318
 21
28.95349865909492
 31
0.0
  0
TEXT
  5
65B
330
458
100
AcDbEntity
  8
2
 48
2.0
100
AcDbText
 10
-195.4275456734605
 20
31.6610035656495
 30
0.0
 40
0.659999934
  1
35S
  7
KANJI
 72
     4
 11
-194.5475457614605
 21
31.9910035326495
 31
0.0
100
AcDbText
  0
LINE
  5
65C
330
458
100
AcDbEntity
  8
2
100
AcDbLine
 10
-194.5579573353318
 20
30.20642195235304
 30
0.0
 11
-193.8379574073318
 21
31.45349840909496
 31
0.0
  0
LINE
  5
65D
330
458
100
AcDbEntity
  8
2
100
AcDbLine
 10
-195.2779572633318
 20
31.45349840909496
 30
0.0
 11
-194.5579573353318
 21
30.20642195235304
 31
0.0
  0
LINE
  5
65E
330
458
100
AcDbEntity
  8
2
100
AcDbLine
 10
-193.8379574073318
 20
31.45349840909495
 30
0.0
 11
-195.2779572633318
 21
31.45349840909496
 31
0.0
  0
LINE
  5
65F
330
458
100
AcDbEntity
  8
1
100
AcDbLine
 10
-205.7488853246705
 20
37.653168522318
 30
0.0
 11
-205.7488853246705
 21
22.65317002231764
 31
0.0
  0
LINE
  5
660
330
458
100
AcDbEntity
  8
1
100
AcDbLine
 10
-183.2488883246704
 20
37.65316852231804
 30
0.0
 11
-183.2488883246704
 21
22.65317002231768
 31
0.0
  0
ENDBLK
  5
662
330
458
100
AcDbEntity
  8
2
100
AcDbBlockEnd
  0
ENDSEC
  0
SECTION
  2
ENTITIES
  0
LINE
  5
59
330
1B
100
AcDbEntity
  8
4
100
AcDbLine
 10
176.0432598555915
 20
191.0078710265211
 30
0.0
 11
176.0432598555915
 21
197.3078710265211
 31
0.0
  0
LINE
  5
5D
330
1B
100
AcDbEntity
  8
4
100
AcDbLine
 10
167.5432598555915
 20
197.3078710265211
 30
0.0
 11
167.5432598555915
 21
191.007871026521
 31
0.0
  0
LINE
  5
5E
330
1B
100
AcDbEntity
  8
4
100
AcDbLine
 10
176.0432598555915
 20
197.3078710265211
 30
0.0
 11
167.5432598555915
 21
197.3078710265211
 31
0.0
  0
LINE
  5
5F
330
1B
100
AcDbEntity
  8
4
100
AcDbLine
 10
167.5432598555915
 20
192.307871026521
 30
0.0
 11
176.0432598555915
 21
192.3078710265211
 31
0.0
  0
LINE
  5
60
330
1B
100
AcDbEntity
  8
4
100
AcDbLine
 10
212.5433358555915
 20
191.0078710265211
 30
0.0
 11
212.5433358555915
 21
197.3078710265211
 31
0.0
  0
LINE
  5
61
330
1B
100
AcDbEntity
  8
4
100
AcDbLine
 10
204.0433358555915
 20
197.3078710265211
 30
0.0
 11
204.0433358555915
 21
191.007871026521
 31
0.0
  0
LINE
  5
62
330
1B
100
AcDbEntity
  8
4
100
AcDbLine
 10
212.5433358555915
 20
197.3078710265211
 30
0.0
 11
204.0433358555915
 21
197.3078710265211
 31
0.0
  0
LINE
  5
63
330
1B
100
AcDbEntity
  8
4
100
AcDbLine
 10
204.0433358555915
 20
192.307871026521
 30
0.0
 11
212.5433358555915
 21
192.3078710265211
 31
0.0
  0
LINE
  5
64
330
1B
100
AcDbEntity
  8
4
100
AcDbLine
 10
285.5430918555915
 20
191.0078710265211
 30
0.0
 11
285.5430918555915
 21
197.3078710265211
 31
0.0
  0
LINE
  5
65
330
1B
100
AcDbEntity
  8
4
100
AcDbLine
 10
277.0430918555915
 20
197.3078710265211
 30
0.0
 11
277.0430918555915
 21
191.007871026521
 31
0.0
  0
LINE
  5
66
330
1B
100
AcDbEntity
  8
4
100
AcDbLine
 10
285.5430918555915
 20
197.3078710265211
 30
0.0
 11
277.0430918555915
 21
197.3078710265211
 31
0.0
  0
LINE
  5
67
330
1B
100
AcDbEntity
  8
4
100
AcDbLine
 10
277.0430918555915
 20
192.307871026521
 30
0.0
 11
285.5430918555915
 21
192.3078710265211
 31
0.0
  0
LINE
  5
68
330
1B
100
AcDbEntity
  8
4
100
AcDbLine
 10
322.0430918555915
 20
191.0078710265211
 30
0.0
 11
322.0430918555915
 21
197.3078710265211
 31
0.0
  0
LINE
  5
69
330
1B
100
AcDbEntity
  8
4
100
AcDbLine
 10
313.5430918555915
 20
197.3078710265211
 30
0.0
 11
313.5430918555915
 21
191.007871026521
 31
0.0
  0
LINE
  5
6A
330
1B
100
AcDbEntity
  8
4
100
AcDbLine
 10
322.0430918555915
 20
197.3078710265211
 30
0.0
 11
313.5430918555915
 21
197.3078710265211
 31
0.0
  0
LINE
  5
6B
330
1B
100
AcDbEntity
  8
4
100
AcDbLine
 10
313.5430918555915
 20
192.307871026521
 30
0.0
 11
322.0430918555915
 21
192.3078710265211
 31
0.0
  0
LINE
  5
6C
330
1B
100
AcDbEntity
  8
4
100
AcDbLine
 10
213.2932438555915
 20
191.607725026521
 30
0.0
 11
212.5433358555915
 21
191.594541535311
 31
0.0
  0
LINE
  5
6D
330
1B
100
AcDbEntity
  8
4
100
AcDbLine
 10
212.5433358555915
 20
191.594544760873
 30
0.0
 11
213.2931518555915
 21
191.607725026521
 31
0.0
  0
LINE
  5
6E
330
1B
100
AcDbEntity
  8
2
100
AcDbLine
 10
644.836588658063
 20
192.3078710265211
 30
0.0
 11
643.536588658063
 21
191.0078710265211
 31
0.0
  0
LINE
  5
6F
330
1B
100
AcDbEntity
  8
2
100
AcDbLine
 10
646.675066289148
 20
192.3078710265211
 30
0.0
 11
645.375066289148
 21
191.0078710265211
 31
0.0
  0
LINE
  5
70
330
1B
100
AcDbEntity
  8
4
100
AcDbLine
 10
649.625066289148
 20
191.0078710265211
 30
0.0
 11
649.625066289148
 21
197.3078710265211
 31
0.0
  0
LINE
  5
71
330
1B
100
AcDbEntity
  8
4
100
AcDbLine
 10
641.125066289148
 20
197.3078710265211
 30
0.0
 11
641.125066289148
 21
191.007871026521
 31
0.0
  0
LINE
  5
72
330
1B
100
AcDbEntity
  8
4
100
AcDbLine
 10
649.625066289148
 20
197.3078710265211
 30
0.0
 11
641.125066289148
 21
197.3078710265211
 31
0.0
  0
LINE
  5
73
330
1B
100
AcDbEntity
  8
4
100
AcDbLine
 10
640.7750662891481
 20
191.007871026521
 30
0.0
 11
649.9750662891481
 21
191.0078710265211
 31
0.0
  0
LINE
  5
74
330
1B
100
AcDbEntity
  8
4
100
AcDbLine
 10
641.125066289148
 20
192.307871026521
 30
0.0
 11
649.625066289148
 21
192.3078710265211
 31
0.0
  0
LINE
  5
75
330
1B
100
AcDbEntity
  8
2
100
AcDbLine
 10
581.6166186580629
 20
192.3078710265211
 30
0.0
 11
580.3166186580629
 21
191.0078710265211
 31
0.0
  0
LINE
  5
76
330
1B
100
AcDbEntity
  8
2
100
AcDbLine
 10
583.455096289148
 20
192.3078710265211
 30
0.0
 11
582.1550962891479
 21
191.0078710265211
 31
0.0
  0
LINE
  5
77
330
1B
100
AcDbEntity
  8
4
100
AcDbLine
 10
586.4050962891479
 20
191.0078710265211
 30
0.0
 11
586.4050962891479
 21
197.3078710265211
 31
0.0
  0
LINE
  5
78
330
1B
100
AcDbEntity
  8
4
100
AcDbLine
 10
577.9050962891479
 20
197.3078710265211
 30
0.0
 11
577.9050962891479
 21
191.007871026521
 31
0.0
  0
LINE
  5
79
330
1B
100
AcDbEntity
  8
4
100
AcDbLine
 10
586.4050962891479
 20
197.3078710265211
 30
0.0
 11
577.9050962891479
 21
197.3078710265211
 31
0.0
  0
LINE
  5
7A
330
1B
100
AcDbEntity
  8
4
100
AcDbLine
 10
577.555096289148
 20
191.007871026521
 30
0.0
 11
586.755096289148
 21
191.0078710265211
 31
0.0
  0
LINE
  5
7B
330
1B
100
AcDbEntity
  8
4
100
AcDbLine
 10
577.9050962891479
 20
192.307871026521
 30
0.0
 11
586.4050962891479
 21
192.3078710265211
 31
0.0
  0
LINE
  5
7C
330
1B
100
AcDbEntity
  8
2
100
AcDbLine
 10
518.3968906580628
 20
192.3078710265211
 30
0.0
 11
517.0968906580629
 21
191.0078710265211
 31
0.0
  0
LINE
  5
7D
330
1B
100
AcDbEntity
  8
2
100
AcDbLine
 10
520.2353682891479
 20
192.3078710265211
 30
0.0
 11
518.9353682891478
 21
191.0078710265211
 31
0.0
  0
LINE
  5
1C3
330
1B
100
AcDbEntity
  8
4
100
AcDbLine
 10
210.2932438555915
 20
402.6453406641102
 30
0.0
 11
208.2932438555915
 21
403.8000412024893
 31
0.0
  0
LINE
  5
1C4
330
1B
100
AcDbEntity
  8
4
100
AcDbLine
 10
208.2932438555915
 20
403.8000412024893
 30
0.0
 11
206.2932438555915
 21
402.6453406641102
 31
0.0
  0
LINE
  5
1C5
330
1B
100
AcDbEntity
  8
4
100
AcDbLine
 10
208.2932438555915
 20
399.1812390489725
 30
0.0
 11
210.2932438555915
 21
400.3359395873516
 31
0.0
  0
LINE
  5
1C6
330
1B
100
AcDbEntity
  8
4
100
AcDbLine
 10
206.2932438555915
 20
400.3359395873516
 30
0.0
 11
208.2932438555915
 21
399.1812390489725
 31
0.0
  0
CIRCLE
  5
1C7
330
1B
100
AcDbEntity
  8
4
100
AcDbCircle
 10
208.2932438555915
 20
401.4906401257309
 30
0.0
 40
4.25
  0
LINE
  5
1C8
330
1B
100
AcDbEntity
  8
4
100
AcDbLine
 10
206.2932438555915
 20
402.6453406641102
 30
0.0
 11
206.2932438555915
 21
400.3359395873516
 31
0.0
  0
LINE
  5
1C9
330
1B
100
AcDbEntity
  8
4
100
AcDbLine
 10
210.2932438555915
 20
400.3359395873516
 30
0.0
 11
210.2932438555915
 21
402.6453406641102
 31
0.0
  0
LINE
  5
1CA
330
1B
100
AcDbEntity
  8
4
100
AcDbLine
 10
283.2932438555915
 20
402.6453406641102
 30
0.0
 11
281.2932438555915
 21
403.8000412024893
 31
0.0
  0
LINE
  5
1CB
330
1B
100
AcDbEntity
  8
4
100
AcDbLine
 10
281.2932438555915
 20
403.8000412024893
 30
0.0
 11
279.2932438555915
 21
402.6453406641102
 31
0.0
  0
LINE
  5
1CC
330
1B
100
AcDbEntity
  8
4
100
AcDbLine
 10
281.2932438555915
 20
399.1812390489725
 30
0.0
 11
283.2932438555915
 21
400.3359395873516
 31
0.0
  0
LINE
  5
1CD
330
1B
100
AcDbEntity
  8
4
100
AcDbLine
 10
279.2932438555915
 20
400.3359395873516
 30
0.0
 11
281.2932438555915
 21
399.1812390489725
 31
0.0
  0
CIRCLE
  5
1CE
330
1B
100
AcDbEntity
  8
4
100
AcDbCircle
 10
281.2932438555915
 20
401.4906401257309
 30
0.0
 40
4.25
  0
LINE
  5
1CF
330
1B
100
AcDbEntity
  8
4
100
AcDbLine
 10
279.2932438555915
 20
402.6453406641102
 30
0.0
 11
279.2932438555915
 21
400.3359395873516
 31
0.0
  0
LINE
  5
1D0
330
1B
100
AcDbEntity
  8
4
100
AcDbLine
 10
283.2932438555915
 20
400.3359395873516
 30
0.0
 11
283.2932438555915
 21
402.6453406641102
 31
0.0
  0
LINE
  5
1D1
330
1B
100
AcDbEntity
  8
4
100
AcDbLine
 10
319.7932438555915
 20
465.8651951403741
 30
0.0
 11
317.7932438555915
 21
467.0198956787532
 31
0.0
  0
LINE
  5
1D2
330
1B
100
AcDbEntity
  8
4
100
AcDbLine
 10
317.7932438555915
 20
467.0198956787532
 30
0.0
 11
315.7932438555915
 21
465.8651951403741
 31
0.0
  0
LINE
  5
1D3
330
1B
100
AcDbEntity
  8
4
100
AcDbLine
 10
317.7932438555915
 20
462.4010935252364
 30
0.0
 11
319.7932438555915
 21
463.5557940636155
 31
0.0
  0
LINE
  5
1D4
330
1B
100
AcDbEntity
  8
4
100
AcDbLine
 10
315.7932438555915
 20
463.5557940636155
 30
0.0
 11
317.7932438555915
 21
462.4010935252364
 31
0.0
  0
CIRCLE
  5
1D5
330
1B
100
AcDbEntity
  8
4
100
AcDbCircle
 10
317.7932438555915
 20
464.7104946019948
 30
0.0
 40
4.25
  0
LINE
  5
1D6
330
1B
100
AcDbEntity
  8
4
100
AcDbLine
 10
315.7932438555915
 20
465.8651951403741
 30
0.0
 11
315.7932438555915
 21
463.5557940636155
 31
0.0
  0
LINE
  5
1D7
330
1B
100
AcDbEntity
  8
4
100
AcDbLine
 10
319.7932438555915
 20
463.5557940636155
 30
0.0
 11
319.7932438555915
 21
465.8651951403741
 31
0.0
  0
LINE
  5
1D8
330
1B
100
AcDbEntity
  8
4
100
AcDbLine
 10
173.7932438555915
 20
465.8651951403741
 30
0.0
 11
171.7932438555915
 21
467.0198956787532
 31
0.0
  0
LINE
  5
1D9
330
1B
100
AcDbEntity
  8
4
100
AcDbLine
 10
171.7932438555915
 20
467.0198956787532
 30
0.0
 11
169.7932438555915
 21
465.8651951403741
 31
0.0
  0
LINE
  5
1DA
330
1B
100
AcDbEntity
  8
4
100
AcDbLine
 10
171.7932438555915
 20
462.4010935252364
 30
0.0
 11
173.7932438555915
 21
463.5557940636155
 31
0.0
  0
LINE
  5
1DB
330
1B
100
AcDbEntity
  8
4
100
AcDbLine
 10
169.7932438555915
 20
463.5557940636155
 30
0.0
 11
171.7932438555915
 21
462.4010935252364
 31
0.0
  0
CIRCLE
  5
1DC
330
1B
100
AcDbEntity
  8
4
100
AcDbCircle
 10
171.7932438555915
 20
464.7104946019948
 30
0.0
 40
4.25
  0
LINE
  5
1DD
330
1B
100
AcDbEntity
  8
4
100
AcDbLine
 10
169.7932438555915
 20
465.8651951403741
 30
0.0
 11
169.7932438555915
 21
463.5557940636155
 31
0.0
  0
LINE
  5
1DE
330
1B
100
AcDbEntity
  8
4
100
AcDbLine
 10
173.7932438555915
 20
463.5557940636155
 30
0.0
 11
173.7932438555915
 21
465.8651951403741
 31
0.0
  0
LINE
  5
1DF
330
1B
100
AcDbEntity
  8
4
100
AcDbLine
 10
283.2932438555915
 20
529.0850496166382
 30
0.0
 11
281.2932438555915
 21
530.2397501550173
 31
0.0
  0
LINE
  5
1E0
330
1B
100
AcDbEntity
  8
4
100
AcDbLine
 10
281.2932438555915
 20
530.2397501550173
 30
0.0
 11
279.2932438555915
 21
529.0850496166382
 31
0.0
  0
LINE
  5
1E1
330
1B
100
AcDbEntity
  8
4
100
AcDbLine
 10
281.2932438555915
 20
525.6209480015006
 30
0.0
 11
283.2932438555915
 21
526.7756485398796
 31
0.0
  0
LINE
  5
1E2
330
1B
100
AcDbEntity
  8
4
100
AcDbLine
 10
279.2932438555915
 20
526.7756485398796
 30
0.0
 11
281.2932438555915
 21
525.6209480015006
 31
0.0
  0
CIRCLE
  5
1E3
330
1B
100
AcDbEntity
  8
4
100
AcDbCircle
 10
281.2932438555915
 20
527.9303490782589
 30
0.0
 40
4.25
  0
LINE
  5
1E4
330
1B
100
AcDbEntity
  8
4
100
AcDbLine
 10
279.2932438555915
 20
529.0850496166382
 30
0.0
 11
279.2932438555915
 21
526.7756485398796
 31
0.0
  0
LINE
  5
1E5
330
1B
100
AcDbEntity
  8
4
100
AcDbLine
 10
283.2932438555915
 20
526.7756485398796
 30
0.0
 11
283.2932438555915
 21
529.0850496166382
 31
0.0
  0
LINE
  5
1E6
330
1B
100
AcDbEntity
  8
4
100
AcDbLine
 10
210.2932438555915
 20
529.0850496166382
 30
0.0
 11
208.2932438555915
 21
530.2397501550173
 31
0.0
  0
LINE
  5
1E7
330
1B
100
AcDbEntity
  8
4
100
AcDbLine
 10
208.2932438555915
 20
530.2397501550173
 30
0.0
 11
206.2932438555915
 21
529.0850496166382
 31
0.0
  0
LINE
  5
1E8
330
1B
100
AcDbEntity
  8
4
100
AcDbLine
 10
208.2932438555915
 20
525.6209480015006
 30
0.0
 11
210.2932438555915
 21
526.7756485398796
 31
0.0
  0
LINE
  5
1E9
330
1B
100
AcDbEntity
  8
4
100
AcDbLine
 10
206.2932438555915
 20
526.7756485398796
 30
0.0
 11
208.2932438555915
 21
525.6209480015006
 31
0.0
  0
CIRCLE
  5
1EA
330
1B
100
AcDbEntity
  8
4
100
AcDbCircle
 10
208.2932438555915
 20
527.9303490782589
 30
0.0
 40
4.25
  0
LINE
  5
1EB
330
1B
100
AcDbEntity
  8
4
100
AcDbLine
 10
206.2932438555915
 20
529.0850496166382
 30
0.0
 11
206.2932438555915
 21
526.7756485398796
 31
0.0
  0
LINE
  5
1EC
330
1B
100
AcDbEntity
  8
4
100
AcDbLine
 10
210.2932438555915
 20
526.7756485398796
 30
0.0
 11
210.2932438555915
 21
529.0850496166382
 31
0.0
  0
LINE
  5
1ED
330
1B
100
AcDbEntity
  8
4
100
AcDbLine
 10
523.1853682891478
 20
191.0078710265211
 30
0.0
 11
523.1853682891478
 21
197.3078710265211
 31
0.0
  0
LINE
  5
1EE
330
1B
100
AcDbEntity
  8
4
100
AcDbLine
 10
514.6853682891478
 20
197.3078710265211
 30
0.0
 11
514.6853682891478
 21
191.007871026521
 31
0.0
  0
LINE
  5
1EF
330
1B
100
AcDbEntity
  8
4
100
AcDbLine
 10
523.1853682891478
 20
197.3078710265211
 30
0.0
 11
514.6853682891478
 21
197.3078710265211
 31
0.0
  0
LINE
  5
1F0
330
1B
100
AcDbEntity
  8
4
100
AcDbLine
 10
514.3353682891479
 20
191.007871026521
 30
0.0
 11
523.535368289148
 21
191.0078710265211
 31
0.0
  0
LINE
  5
1F1
330
1B
100
AcDbEntity
  8
4
100
AcDbLine
 10
514.6853682891478
 20
192.307871026521
 30
0.0
 11
523.1853682891478
 21
192.3078710265211
 31
0.0
  0
ARC
  5
1F2
330
1B
100
AcDbEntity
  8
4
100
AcDbCircle
 10
321.7932438555915
 20
190.0078710265211
 30
0.0
 40
1.0
100
AcDbArc
 50
0.0
 51
90.0
  0
LINE
  5
1F3
330
1B
100
AcDbEntity
  8
4
100
AcDbLine
 10
255.6185438555915
 20
551.2104946019948
 30
0.0
 11
255.6185438555915
 21
556.2104946019948
 31
0.0
  0
LINE
  5
1F4
330
1B
100
AcDbEntity
  8
4
100
AcDbLine
 10
233.9679438555916
 20
551.2104946019948
 30
0.0
 11
233.9679438555916
 21
556.2104946019948
 31
0.0
  0
LINE
  5
1F7
330
1B
100
AcDbEntity
  8
L-CENTER
100
AcDbLine
 10
327.228038363087
 20
519.7104946019948
 30
0.0
 11
353.3584493480961
 21
519.7104946019948
 31
0.0
  0
LINE
  5
1F8
330
1B
100
AcDbEntity
  8
4
100
AcDbLine
 10
257.2932438555915
 20
551.2104946019948
 30
0.0
 11
257.2932438555915
 21
549.2104946019948
 31
0.0
  0
LINE
  5
1F9
330
1B
100
AcDbEntity
  8
4
100
AcDbLine
 10
256.2932438555915
 20
547.7104946019948
 30
0.0
 11
256.2932438555915
 21
549.2104946019948
 31
0.0
  0
LINE
  5
1FA
330
1B
100
AcDbEntity
  8
4
100
AcDbLine
 10
232.2932438555915
 20
549.2104946019948
 30
0.0
 11
232.2932438555915
 21
551.2104946019948
 31
0.0
  0
LINE
  5
1FB
330
1B
100
AcDbEntity
  8
4
100
AcDbLine
 10
233.2932438555915
 20
547.7104946019948
 30
0.0
 11
233.2932438555915
 21
549.2104946019948
 31
0.0
  0
LINE
  5
1FC
330
1B
100
AcDbEntity
  8
4
100
AcDbLine
 10
256.2932438555915
 20
547.7104946019948
 30
0.0
 11
233.2932438555915
 21
547.7104946019948
 31
0.0
  0
LINE
  5
1FD
330
1B
100
AcDbEntity
  8
4
100
AcDbLine
 10
257.2932438555915
 20
549.2104946019948
 30
0.0
 11
232.2932438555915
 21
549.2104946019948
 31
0.0
  0
LINE
  5
1FE
330
1B
100
AcDbEntity
  8
4
100
AcDbLine
 10
257.2932438555915
 20
551.2104946019948
 30
0.0
 11
232.2932438555915
 21
551.2104946019948
 31
0.0
  0
LINE
  5
1FF
330
1B
100
AcDbEntity
  8
4
100
AcDbLine
 10
255.6185438555915
 20
556.2104946019948
 30
0.0
 11
233.9679438555916
 21
556.2104946019948
 31
0.0
  0
LINE
  5
200
330
1B
100
AcDbEntity
  8
4
100
AcDbLine
 10
373.7930918555919
 20
386.2104946019948
 30
0.0
 11
373.7930918555917
 21
379.7104946019948
 31
0.0
  0
LINE
  5
201
330
1B
100
AcDbEntity
  8
4
100
AcDbLine
 10
345.2930918555917
 20
386.2104946019948
 30
0.0
 11
374.7930918555917
 21
386.2104946019948
 31
0.0
  0
LINE
  5
202
330
1B
100
AcDbEntity
  8
4
100
AcDbLine
 10
345.2930918555917
 20
391.2104946019948
 30
0.0
 11
374.7930918555917
 21
391.2104946019948
 31
0.0
  0
ARC
  5
203
330
1B
100
AcDbEntity
  8
4
100
AcDbCircle
 10
345.2930918555917
 20
388.7104946019948
 30
0.0
 40
2.5
100
AcDbArc
 50
90.0
 51
270.0
  0
LINE
  5
204
330
1B
100
AcDbEntity
  8
4
100
AcDbLine
 10
373.7930918555917
 20
397.7104946019948
 30
0.0
 11
374.7930918555917
 21
396.7104946019948
 31
0.0
  0
LINE
  5
205
330
1B
100
AcDbEntity
  8
4
100
AcDbLine
 10
374.7930918555917
 20
380.7104946019948
 30
0.0
 11
373.7930918555917
 21
379.7104946019948
 31
0.0
  0
LINE
  5
206
330
1B
100
AcDbEntity
  8
4
100
AcDbLine
 10
373.7930918555917
 20
397.7104946019948
 30
0.0
 11
373.7930918555919
 21
391.2104946019948
 31
0.0
  0
LINE
  5
207
330
1B
100
AcDbEntity
  8
4
100
AcDbLine
 10
374.7930918555917
 20
380.7104946019948
 30
0.0
 11
374.7930918555917
 21
396.7104946019948
 31
0.0
  0
LINE
  5
208
330
1B
100
AcDbEntity
  8
4
100
AcDbLine
 10
325.7930918555917
 20
398.7104946019948
 30
0.0
 11
339.7930918555917
 21
398.7104946019948
 31
0.0
  0
LINE
  5
209
330
1B
100
AcDbEntity
  8
4
100
AcDbLine
 10
339.7930918555917
 20
379.7104946019948
 30
0.0
 11
373.7930918555917
 21
379.7104946019948
 31
0.0
  0
LINE
  5
20A
330
1B
100
AcDbEntity
  8
4
100
AcDbLine
 10
339.7930918555917
 20
397.7104946019948
 30
0.0
 11
373.7930918555917
 21
397.7104946019948
 31
0.0
  0
LINE
  5
20B
330
1B
100
AcDbEntity
  8
4
100
AcDbLine
 10
325.7930918555917
 20
378.7104946019948
 30
0.0
 11
339.7930918555917
 21
378.7104946019948
 31
0.0
  0
LINE
  5
20C
330
1B
100
AcDbEntity
  8
4
100
AcDbLine
 10
339.7930918555917
 20
378.7104946019948
 30
0.0
 11
339.7930918555917
 21
398.7104946019948
 31
0.0
  0
LINE
  5
20D
330
1B
100
AcDbEntity
  8
4
100
AcDbLine
 10
164.7932438555915
 20
412.2104946019948
 30
0.0
 11
163.7932438555915
 21
412.2104946019948
 31
0.0
  0
LINE
  5
20E
330
1B
100
AcDbEntity
  8
4
100
AcDbLine
 10
164.7932438555915
 20
365.2106006019948
 30
0.0
 11
163.7932438555915
 21
365.2106006019948
 31
0.0
  0
LINE
  5
20F
330
1B
100
AcDbEntity
  8
4
100
AcDbLine
 10
163.7932438555915
 20
412.2104946019948
 30
0.0
 11
163.7932438555915
 21
365.2106006019948
 31
0.0
  0
LINE
  5
210
330
1B
100
AcDbEntity
  8
4
100
AcDbLine
 10
324.7930918555917
 20
412.2104946019948
 30
0.0
 11
325.7930918555917
 21
412.2104946019948
 31
0.0
  0
LINE
  5
211
330
1B
100
AcDbEntity
  8
4
100
AcDbLine
 10
324.7930918555917
 20
365.2106006019948
 30
0.0
 11
325.7930918555917
 21
365.2106006019948
 31
0.0
  0
LINE
  5
212
330
1B
100
AcDbEntity
  8
4
100
AcDbLine
 10
325.7930918555917
 20
412.2104946019948
 30
0.0
 11
325.7930918555917
 21
365.2106006019948
 31
0.0
  0
LINE
  5
213
330
1B
100
AcDbEntity
  8
4
100
AcDbLine
 10
241.2932438555915
 20
456.7104946019948
 30
0.0
 11
241.2932438555915
 21
449.7104946019948
 31
0.0
  0
LINE
  5
214
330
1B
100
AcDbEntity
  8
4
100
AcDbLine
 10
248.2932438555915
 20
449.7104946019948
 30
0.0
 11
248.2932438555915
 21
456.7104946019948
 31
0.0
  0
LINE
  5
215
330
1B
100
AcDbEntity
  8
4
100
AcDbLine
 10
248.2932438555915
 20
449.7104946019948
 30
0.0
 11
241.2932438555915
 21
449.7104946019948
 31
0.0
  0
LINE
  5
216
330
1B
100
AcDbEntity
  8
4
100
AcDbLine
 10
248.2932438555915
 20
456.7104946019948
 30
0.0
 11
241.2932438555915
 21
456.7104946019948
 31
0.0
  0
ARC
  5
217
330
1B
100
AcDbEntity
  8
4
100
AcDbCircle
 10
244.7932438555915
 20
464.7104946019948
 30
0.0
 40
12.00004
100
AcDbArc
 50
286.9577050638622
 51
253.0422949361376
  0
LINE
  5
218
330
1B
100
AcDbEntity
  8
4
 62
     3
100
AcDbLine
 10
262.8037298555914
 20
368.7711526019949
 30
0.0
 11
264.6375038555916
 21
370.6049266019949
 31
0.0
  0
LINE
  5
219
330
1B
100
AcDbEntity
  8
4
 62
     3
100
AcDbLine
 10
260.2933238555916
 20
376.710492601995
 30
0.0
 11
260.7933238555916
 21
376.710492601995
 31
0.0
  0
ARC
  5
21A
330
1B
100
AcDbEntity
  8
4
 62
     3
100
AcDbCircle
 10
260.7933238555916
 20
371.710492601995
 30
0.0
 40
5.0
100
AcDbArc
 50
30.52252099999993
 51
90.0
  0
ARC
  5
21B
330
1B
100
AcDbEntity
  8
4
 62
     3
100
AcDbCircle
 10
262.5161828555915
 20
372.7262466019951
 30
0.0
 40
3.0
100
AcDbArc
 50
315.0000070000004
 51
30.52252100000285
  0
LINE
  5
21C
330
1B
100
AcDbEntity
  8
4
 62
     3
100
AcDbLine
 10
265.7933238555916
 20
363.210492601995
 30
0.0
 11
265.7933238555916
 21
365.710492601995
 31
0.0
  0
LINE
  5
21D
330
1B
100
AcDbEntity
  8
4
 62
     3
100
AcDbLine
 10
263.8643908555914
 20
366.210492601995
 30
0.0
 11
265.2933238555916
 21
366.210492601995
 31
0.0
  0
ARC
  5
21E
330
1B
100
AcDbEntity
  8
4
 62
     3
100
AcDbCircle
 10
265.2933238555916
 20
365.710492601995
 30
0.0
 40
0.5
100
AcDbArc
 50
0.0
 51
90.0
  0
ARC
  5
21F
330
1B
100
AcDbEntity
  8
4
 62
     3
100
AcDbCircle
 10
265.2933238555916
 20
363.210492601995
 30
0.0
 40
0.5
100
AcDbArc
 50
270.0
 51
0.0
  0
ARC
  5
220
330
1B
100
AcDbEntity
  8
4
 62
     3
100
AcDbCircle
 10
263.8643908555914
 20
367.710492601995
 30
0.0
 40
1.5
100
AcDbArc
 50
135.000006999999
 51
270.0
  0
ARC
  5
221
330
1B
100
AcDbEntity
  8
4
 62
     3
100
AcDbCircle
 10
252.2933238555916
 20
368.4604946019948
 30
0.0
 40
0.5
100
AcDbArc
 50
270.0
 51
0.0
  0
ARC
  5
222
330
1B
100
AcDbEntity
  8
4
 62
     3
100
AcDbCircle
 10
249.7933238555916
 20
368.4604946019948
 30
0.0
 40
0.5
100
AcDbArc
 50
180.0
 51
270.0
  0
LINE
  5
223
330
1B
100
AcDbEntity
  8
4
 62
     3
100
AcDbLine
 10
252.7933238555916
 20
368.4604946019948
 30
0.0
 11
252.7933238555916
 21
370.9604946019948
 31
0.0
  0
ARC
  5
224
330
1B
100
AcDbEntity
  8
4
 62
     3
100
AcDbCircle
 10
252.2933238555916
 20
370.9604946019948
 30
0.0
 40
0.5
100
AcDbArc
 50
0.0
 51
90.0
  0
LINE
  5
225
330
1B
100
AcDbEntity
  8
4
 62
     3
100
AcDbLine
 10
249.2933238555916
 20
368.4604946019948
 30
0.0
 11
249.2933238555916
 21
370.9604946019948
 31
0.0
  0
ARC
  5
226
330
1B
100
AcDbEntity
  8
4
 62
     3
100
AcDbCircle
 10
249.7933238555916
 20
370.9604946019948
 30
0.0
 40
0.5
100
AcDbArc
 50
90.0
 51
180.0
  0
LINE
  5
227
330
1B
100
AcDbEntity
  8
4
 62
     3
100
AcDbLine
 10
252.2933238555916
 20
371.4604946019948
 30
0.0
 11
249.7933238555916
 21
371.4604946019948
 31
0.0
  0
LINE
  5
228
330
1B
100
AcDbEntity
  8
4
 62
     3
100
AcDbLine
 10
252.2933238555916
 20
367.9604946019948
 30
0.0
 11
249.7933238555916
 21
367.9604946019948
 31
0.0
  0
LINE
  5
229
330
1B
100
AcDbEntity
  8
4
 62
     3
100
AcDbLine
 10
255.8002738555915
 20
371.4604946019948
 30
0.0
 11
256.9220058555916
 21
371.4604946019948
 31
0.0
  0
ARC
  5
22A
330
1B
100
AcDbEntity
  8
4
 62
     3
100
AcDbCircle
 10
255.8002738555915
 20
371.9604946019948
 30
0.0
 40
0.5
100
AcDbArc
 50
176.8152309999926
 51
270.0
  0
ARC
  5
22B
330
1B
100
AcDbEntity
  8
4
 62
     3
100
AcDbCircle
 10
242.2931358555916
 20
372.2104946019948
 30
0.0
 40
4.5
100
AcDbArc
 50
16.55009800000055
 51
90.0
  0
LINE
  5
22C
330
1B
100
AcDbEntity
  8
4
 62
     3
100
AcDbLine
 10
240.7933158555916
 20
376.7104946019948
 30
0.0
 11
242.2931358555916
 21
376.7104946019948
 31
0.0
  0
ARC
  5
22D
330
1B
100
AcDbEntity
  8
4
 62
     3
100
AcDbCircle
 10
245.7933158555916
 20
369.7104946019948
 30
0.0
 40
2.5
100
AcDbArc
 50
92.37734300000007
 51
267.6256110000026
  0
ARC
  5
22E
330
1B
100
AcDbEntity
  8
4
 62
     3
100
AcDbCircle
 10
245.6481338555914
 20
373.2074826019949
 30
0.0
 40
1.0
100
AcDbArc
 50
272.3773430000026
 51
16.55009800000334
  0
LINE
  5
22F
330
1B
100
AcDbEntity
  8
4
 62
     3
100
AcDbLine
 10
255.2933238555916
 20
366.0033856019949
 30
0.0
 11
255.2933238555916
 21
363.210492601995
 31
0.0
  0
ARC
  5
230
330
1B
100
AcDbEntity
  8
4
 62
     3
100
AcDbCircle
 10
255.7933238555916
 20
366.0033856019949
 30
0.0
 40
0.5
100
AcDbArc
 50
135.000006999999
 51
180.0
  0
ARC
  5
231
330
1B
100
AcDbEntity
  8
4
 62
     3
100
AcDbCircle
 10
255.7933238555916
 20
363.210492601995
 30
0.0
 40
0.5
100
AcDbArc
 50
180.0
 51
270.0
  0
ARC
  5
232
330
1B
100
AcDbEntity
  8
4
 62
     3
100
AcDbCircle
 10
242.2933178555916
 20
367.2104946019948
 30
0.0
 40
4.5
100
AcDbArc
 50
270.0
 51
343.4497749999995
  0
LINE
  5
233
330
1B
100
AcDbEntity
  8
4
 62
     3
100
AcDbLine
 10
240.7933158555916
 20
362.7104946019948
 30
0.0
 11
242.2933178555916
 21
362.7104946019948
 31
0.0
  0
ARC
  5
234
330
1B
100
AcDbEntity
  8
4
 62
     3
100
AcDbCircle
 10
245.6483138555914
 20
366.2134996019948
 30
0.0
 40
1.0
100
AcDbArc
 50
343.449775000004
 51
87.62561099999998
  0
LINE
  5
235
330
1B
100
AcDbEntity
  8
4
 62
     3
100
AcDbLine
 10
255.4397708555914
 20
366.3569386019948
 30
0.0
 11
257.9826658555914
 21
368.8998346019949
 31
0.0
  0
LINE
  5
236
330
1B
100
AcDbEntity
  8
4
 62
     3
100
AcDbLine
 10
255.7933238555916
 20
362.710492601995
 30
0.0
 11
265.2933238555916
 21
362.710492601995
 31
0.0
  0
ARC
  5
237
330
1B
100
AcDbEntity
  8
4
 62
     3
100
AcDbCircle
 10
256.9220058555916
 20
369.9604946019948
 30
0.0
 40
1.5
100
AcDbArc
 50
315.0000070000036
 51
90.0
  0
ARC
  5
238
330
1B
100
AcDbEntity
  8
4
 62
     3
100
AcDbCircle
 10
260.2933238555916
 20
371.710492601995
 30
0.0
 40
5.0
100
AcDbArc
 50
90.0
 51
176.8152310000004
  0
LINE
  5
239
330
1B
100
AcDbEntity
  8
4
 62
     3
100
AcDbLine
 10
236.2933158555916
 20
367.2104946019948
 30
0.0
 11
236.2933158555916
 21
372.2104946019948
 31
0.0
  0
ARC
  5
23A
330
1B
100
AcDbEntity
  8
4
 62
     3
100
AcDbCircle
 10
240.7933158555916
 20
367.2104946019948
 30
0.0
 40
4.5
100
AcDbArc
 50
180.0
 51
270.0
  0
ARC
  5
23B
330
1B
100
AcDbEntity
  8
4
 62
     3
100
AcDbCircle
 10
240.7933158555916
 20
372.2104946019948
 30
0.0
 40
4.5
100
AcDbArc
 50
90.0
 51
180.0
  0
LINE
  5
23C
330
1B
100
AcDbEntity
  8
4
 62
     3
100
AcDbLine
 10
320.7932438555915
 20
418.4071466019949
 30
0.0
 11
320.7932438555915
 21
355.7104946019948
 31
0.0
  0
ARC
  5
23D
330
1B
100
AcDbEntity
  8
4
 62
     3
100
AcDbCircle
 10
312.9480778555915
 20
396.5556606019949
 30
0.0
 40
3.0
100
AcDbArc
 50
284.7890839999978
 51
345.2109159999977
  0
ARC
  5
23E
330
1B
100
AcDbEntity
  8
4
 62
     3
100
AcDbCircle
 10
244.7932438555915
 20
654.7104946019948
 30
0.0
 40
270.0
100
AcDbArc
 50
270.0
 51
284.789084
  0
ARC
  5
23F
330
1B
100
AcDbEntity
  8
4
 62
     3
100
AcDbCircle
 10
312.9480778555915
 20
532.8653286019947
 30
0.0
 40
3.0
100
AcDbArc
 50
14.7890840000023
 51
75.21091600000219
  0
ARC
  5
240
330
1B
100
AcDbEntity
  8
4
 62
     3
100
AcDbCircle
 10
244.7932438555915
 20
274.7104946019948
 30
0.0
 40
270.0
100
AcDbArc
 50
75.21091600000003
 51
90.0
  0
ARC
  5
241
330
1B
100
AcDbEntity
  8
4
 62
     3
100
AcDbCircle
 10
54.79324385559153
 20
464.7104946019948
 30
0.0
 40
270.0
100
AcDbArc
 50
345.2109159999999
 51
14.78908400000003
  0
ARC
  5
242
330
1B
100
AcDbEntity
  8
4
100
AcDbCircle
 10
304.8589240107824
 20
445.7074930629138
 30
0.0
 40
3.0
100
AcDbArc
 50
342.4441717938628
 51
96.7266365090824
  0
ARC
  5
243
330
1B
100
AcDbEntity
  8
4
100
AcDbCircle
 10
304.8589240107824
 20
483.713496141076
 30
0.0
 40
3.0
100
AcDbArc
 50
263.2733634909176
 51
17.55582820614166
  0
ARC
  5
244
330
1B
100
AcDbEntity
  8
4
100
AcDbCircle
 10
263.7962453946727
 20
404.6448144468039
 30
0.0
 40
3.0
100
AcDbArc
 50
173.2733634909176
 51
287.5558282061372
  0
LINE
  5
245
330
1B
100
AcDbEntity
  8
L-CENTER
100
AcDbLine
 10
212.4844933276973
 20
408.7500971586143
 30
0.0
 11
204.1019943834858
 21
394.2311830928473
 31
0.0
  0
ARC
  5
246
330
1B
100
AcDbEntity
  8
4
100
AcDbCircle
 10
225.7902423165103
 20
404.6448144468039
 30
0.0
 40
3.0
100
AcDbArc
 50
252.4441717938623
 51
6.726636509082475
  0
ARC
  5
247
330
1B
100
AcDbEntity
  8
4
100
AcDbCircle
 10
267.9042511525797
 20
430.9375082171342
 30
0.0
 40
4.0
100
AcDbArc
 50
98.54718456090764
 51
173.2733634909186
  0
ARC
  5
248
330
1B
100
AcDbEntity
  8
4
100
AcDbCircle
 10
278.5662302404523
 20
441.5994873050066
 30
0.0
 40
4.0
100
AcDbArc
 50
96.72663650908137
 51
171.4528154390924
  0
ARC
  5
249
330
1B
100
AcDbEntity
  8
4
100
AcDbCircle
 10
269.6725699603621
 20
439.8311684972242
 30
0.0
 40
3.0
100
AcDbArc
 50
279.7440477067221
 51
350.2559522932778
  0
ARC
  5
24A
330
1B
100
AcDbEntity
  8
4
100
AcDbCircle
 10
270.9682112185094
 20
438.5355272390767
 30
0.0
 40
3.0
100
AcDbArc
 50
280.152130732873
 51
349.847869267127
  0
ARC
  5
24B
330
1B
100
AcDbEntity
  8
4
100
AcDbCircle
 10
270.9682112185094
 20
490.8854619649129
 30
0.0
 40
3.0
100
AcDbArc
 50
10.15213073287302
 51
79.84786926712698
  0
ARC
  5
24C
330
1B
100
AcDbEntity
  8
4
100
AcDbCircle
 10
269.6725699603621
 20
489.5898207067654
 30
0.0
 40
3.0
100
AcDbArc
 50
9.744047706722183
 51
80.25595229327783
  0
ARC
  5
24D
330
1B
100
AcDbEntity
  8
4
100
AcDbCircle
 10
278.5662302404521
 20
487.8215018989832
 30
0.0
 40
4.0
100
AcDbArc
 50
188.5471845609076
 51
263.2733634909186
  0
ARC
  5
24E
330
1B
100
AcDbEntity
  8
4
100
AcDbCircle
 10
124.7932438555915
 20
464.7104946019948
 30
0.0
 40
150.0
100
AcDbArc
 50
350.2559522932774
 51
9.744047706722746
  0
ARC
  5
24F
330
1B
100
AcDbEntity
  8
4
100
AcDbCircle
 10
124.7932438555915
 20
464.7104946019948
 30
0.0
 40
151.5
100
AcDbArc
 50
349.8478692671262
 51
10.15213073287381
  0
ARC
  5
250
330
1B
100
AcDbEntity
  8
4
100
AcDbCircle
 10
211.0202574707307
 20
441.5994873050066
 30
0.0
 40
4.0
100
AcDbArc
 50
8.547184560907574
 51
83.27336349091863
  0
ARC
  5
251
330
1B
100
AcDbEntity
  8
4
100
AcDbCircle
 10
219.9139177508207
 20
439.8311684972242
 30
0.0
 40
3.0
100
AcDbArc
 50
189.7440477067221
 51
260.2559522932779
  0
ARC
  5
252
330
1B
100
AcDbEntity
  8
4
100
AcDbCircle
 10
218.6182764926732
 20
438.5355272390767
 30
0.0
 40
3.0
100
AcDbArc
 50
190.1521307328731
 51
259.847869267127
  0
ARC
  5
253
330
1B
100
AcDbEntity
  8
4
100
AcDbCircle
 10
184.7275637004007
 20
445.7074930629136
 30
0.0
 40
3.0
100
AcDbArc
 50
83.2733634909176
 51
197.5558282061372
  0
LINE
  5
254
330
1B
100
AcDbEntity
  8
4
100
AcDbLine
 10
185.0789610333911
 20
448.6868419707067
 30
0.0
 11
211.4887872480515
 21
445.5719525153971
 31
0.0
  0
ARC
  5
255
330
1B
100
AcDbEntity
  8
4
100
AcDbCircle
 10
218.6182764926732
 20
490.8854619649129
 30
0.0
 40
3.0
100
AcDbArc
 50
100.152130732873
 51
169.8478692671225
  0
ARC
  5
256
330
1B
100
AcDbEntity
  8
4
100
AcDbCircle
 10
219.9139177508207
 20
489.5898207067654
 30
0.0
 40
3.0
100
AcDbArc
 50
99.74404770672216
 51
170.2559522932779
  0
ARC
  5
257
330
1B
100
AcDbEntity
  8
4
100
AcDbCircle
 10
211.0202574707307
 20
487.821501898983
 30
0.0
 40
4.0
100
AcDbArc
 50
276.7266365090814
 51
351.4528154390924
  0
ARC
  5
258
330
1B
100
AcDbEntity
  8
4
100
AcDbCircle
 10
184.7275637004007
 20
483.713496141076
 30
0.0
 40
3.0
100
AcDbArc
 50
162.4441717938582
 51
276.7266365090824
  0
LINE
  5
259
330
1B
100
AcDbEntity
  8
4
100
AcDbLine
 10
185.0789610333911
 20
480.7341472332829
 30
0.0
 11
211.4887872480515
 21
483.8490366885925
 31
0.0
  0
CIRCLE
  5
25A
330
1B
100
AcDbEntity
  8
4
100
AcDbCircle
 10
194.7932438555915
 20
464.7104946019948
 30
0.0
 40
14.0
  0
LINE
  5
25B
330
1B
100
AcDbEntity
  8
L-CENTER
100
AcDbLine
 10
194.7932438555915
 20
445.1104946019949
 30
0.0
 11
194.7932438555915
 21
484.3104946019947
 31
0.0
  0
ARC
  5
25C
330
1B
100
AcDbEntity
  8
4
100
AcDbCircle
 10
364.7932438555915
 20
464.7104946019948
 30
0.0
 40
150.0
100
AcDbArc
 50
170.2559522932773
 51
189.7440477067226
  0
ARC
  5
25D
330
1B
100
AcDbEntity
  8
4
100
AcDbCircle
 10
364.7932438555915
 20
464.7104946019948
 30
0.0
 40
151.5
100
AcDbArc
 50
169.8478692671262
 51
190.1521307328737
  0
CIRCLE
  5
25E
330
1B
100
AcDbEntity
  8
4
100
AcDbCircle
 10
244.7932438555915
 20
464.7104946019948
 30
0.0
 40
23.5
  0
ARC
  5
25F
330
1B
100
AcDbEntity
  8
4
100
AcDbCircle
 10
244.7932438555915
 20
344.7104946019948
 30
0.0
 40
150.0
100
AcDbArc
 50
80.25595229327729
 51
99.74404770672263
  0
ARC
  5
260
330
1B
100
AcDbEntity
  8
4
100
AcDbCircle
 10
244.7932438555915
 20
584.7104946019948
 30
0.0
 40
151.5
100
AcDbArc
 50
259.8478692671262
 51
280.1521307328738
  0
ARC
  5
261
330
1B
100
AcDbEntity
  8
4
100
AcDbCircle
 10
244.7932438555915
 20
584.7104946019948
 30
0.0
 40
150.0
100
AcDbArc
 50
260.2559522932773
 51
279.7440477067226
  0
ARC
  5
262
330
1B
100
AcDbEntity
  8
4
100
AcDbCircle
 10
221.6822365586033
 20
430.937508217134
 30
0.0
 40
4.0
100
AcDbArc
 50
6.726636509081279
 51
81.45281543909238
  0
LINE
  5
263
330
1B
100
AcDbEntity
  8
4
100
AcDbLine
 10
228.7695912243037
 20
404.9962117797944
 30
0.0
 11
225.6547017689941
 21
431.4060379944548
 31
0.0
  0
LINE
  5
264
330
1B
100
AcDbEntity
  8
4
100
AcDbLine
 10
260.8168964868798
 20
404.9962117797944
 30
0.0
 11
263.9317859421892
 21
431.4060379944548
 31
0.0
  0
ARC
  5
265
330
1B
100
AcDbEntity
  8
4
100
AcDbCircle
 10
263.7962453946727
 20
524.7761747571857
 30
0.0
 40
3.0
100
AcDbArc
 50
72.44417179386248
 51
186.7266365090823
  0
LINE
  5
266
330
1B
100
AcDbEntity
  8
4
100
AcDbLine
 10
260.8168964868798
 20
524.4247774241952
 30
0.0
 11
263.9317859421892
 21
498.0149512095348
 31
0.0
  0
LINE
  5
267
330
1B
100
AcDbEntity
  8
4
100
AcDbLine
 10
228.7695912243034
 20
524.4247774241952
 30
0.0
 11
225.6547017689938
 21
498.0149512095348
 31
0.0
  0
LINE
  5
268
330
1B
100
AcDbEntity
  8
L-CENTER
100
AcDbLine
 10
212.4844933276973
 20
520.6708920453754
 30
0.0
 11
204.1019943834858
 21
535.1898061111423
 31
0.0
  0
ARC
  5
269
330
1B
100
AcDbEntity
  8
4
100
AcDbCircle
 10
225.7902423165103
 20
524.7761747571857
 30
0.0
 40
3.0
100
AcDbArc
 50
353.2733634909175
 51
107.5558282061375
  0
ARC
  5
26A
330
1B
100
AcDbEntity
  8
4
100
AcDbCircle
 10
244.7932438555915
 20
344.7104946019948
 30
0.0
 40
151.5
100
AcDbArc
 50
79.84786926712616
 51
100.1521307328738
  0
ARC
  5
26B
330
1B
100
AcDbEntity
  8
4
100
AcDbCircle
 10
221.6822365586033
 20
498.4834809868556
 30
0.0
 40
4.0
100
AcDbArc
 50
278.5471845609077
 51
353.2733634909187
  0
ARC
  5
26C
330
1B
100
AcDbEntity
  8
4
100
AcDbCircle
 10
267.9042511525797
 20
498.4834809868556
 30
0.0
 40
4.0
100
AcDbArc
 50
186.7266365090814
 51
261.4528154390923
  0
CIRCLE
  5
26D
330
1B
100
AcDbEntity
  8
4
100
AcDbCircle
 10
244.7932438555915
 20
464.7104946019948
 30
0.0
 40
78.0
  0
CIRCLE
  5
26E
330
1B
100
AcDbEntity
  8
L-CENTER
100
AcDbCircle
 10
244.7932438555915
 20
464.7104946019948
 30
0.0
 40
73.0
  0
CIRCLE
  5
26F
330
1B
100
AcDbEntity
  8
4
100
AcDbCircle
 10
244.7932438555915
 20
464.7104946019948
 30
0.0
 40
66.0
  0
LINE
  5
270
330
1B
100
AcDbEntity
  8
L-CENTER
100
AcDbLine
 10
277.1019943834858
 20
520.6708920453754
 30
0.0
 11
285.4844933276973
 21
535.1898061111423
 31
0.0
  0
LINE
  5
271
330
1B
100
AcDbEntity
  8
4
100
AcDbLine
 10
304.5075266777919
 20
480.7341472332831
 30
0.0
 11
278.0977004631316
 21
483.8490366885925
 31
0.0
  0
LINE
  5
272
330
1B
100
AcDbEntity
  8
4
100
AcDbLine
 10
304.5075266777919
 20
448.6868419707067
 30
0.0
 11
278.0977004631316
 21
445.5719525153974
 31
0.0
  0
LINE
  5
273
330
1B
100
AcDbEntity
  8
L-CENTER
100
AcDbLine
 10
277.1019943834858
 20
408.7500971586143
 30
0.0
 11
285.4844933276973
 21
394.2311830928473
 31
0.0
  0
LINE
  5
274
330
1B
100
AcDbEntity
  8
L-CENTER
100
AcDbLine
 10
244.7932438555915
 20
349.0207141176857
 30
0.0
 11
244.7932438555915
 21
560.1943425227474
 31
0.0
  0
ARC
  5
275
330
1B
100
AcDbEntity
  8
4
 62
     3
100
AcDbCircle
 10
349.2932438555915
 20
536.7104946019948
 30
0.0
 40
3.0
100
AcDbArc
 50
0.0
 51
90.0
  0
CIRCLE
  5
276
330
1B
100
AcDbEntity
  8
4
 62
     3
100
AcDbCircle
 10
340.2932438555915
 20
519.7104946019948
 30
0.0
 40
5.5
  0
LINE
  5
277
330
1B
100
AcDbEntity
  8
4
100
AcDbLine
 10
352.2932438555915
 20
502.2400476019949
 30
0.0
 11
352.2932438555915
 21
536.7104946019948
 31
0.0
  0
LINE
  5
278
330
1B
100
AcDbEntity
  8
L-CENTER
100
AcDbLine
 10
340.2932438555915
 20
506.6452891094902
 30
0.0
 11
340.2932438555915
 21
532.7757000944994
 31
0.0
  0
LINE
  5
279
330
1B
100
AcDbEntity
  8
4
100
AcDbLine
 10
323.1214008555917
 20
494.7104946019948
 30
0.0
 11
349.8000478555914
 21
499.2831656019949
 31
0.0
  0
ARC
  5
27A
330
1B
100
AcDbEntity
  8
4
100
AcDbCircle
 10
349.2932438555915
 20
427.1809416019947
 30
0.0
 40
3.0
100
AcDbArc
 50
0.0
 51
80.27411400000071
  0
LINE
  5
27B
330
1B
100
AcDbEntity
  8
4
 62
     3
100
AcDbLine
 10
324.7932438555915
 20
421.2104946019948
 30
0.0
 11
323.6087008555915
 21
421.2104946019948
 31
0.0
  0
LINE
  5
27C
330
1B
100
AcDbEntity
  8
4
100
AcDbLine
 10
323.1214008555917
 20
434.7104946019948
 30
0.0
 11
349.8000478555914
 21
430.1378236019949
 31
0.0
  0
LINE
  5
27D
330
1B
100
AcDbEntity
  8
L-CENTER
100
AcDbLine
 10
327.228038363087
 20
409.7104946019948
 30
0.0
 11
353.3584493480961
 21
409.7104946019948
 31
0.0
  0
CIRCLE
  5
27E
330
1B
100
AcDbEntity
  8
4
 62
     3
100
AcDbCircle
 10
340.2932438555915
 20
409.7104946019948
 30
0.0
 40
5.5
  0
LINE
  5
27F
330
1B
100
AcDbEntity
  8
L-CENTER
100
AcDbLine
 10
340.2932438555915
 20
396.6452891094902
 30
0.0
 11
340.2932438555915
 21
422.7757000944994
 31
0.0
  0
LINE
  5
280
330
1B
100
AcDbEntity
  8
4
100
AcDbLine
 10
352.2932438555913
 20
397.7104946019948
 30
0.0
 11
352.2932438555915
 21
427.1809416019947
 31
0.0
  0
LINE
  5
281
330
1B
100
AcDbEntity
  8
4
 62
     3
100
AcDbLine
 10
324.7932438555915
 20
421.2104946019948
 30
0.0
 11
324.7932438555915
 21
356.2104946019948
 31
0.0
  0
ARC
  5
282
330
1B
100
AcDbEntity
  8
4
100
AcDbCircle
 10
349.2932438555915
 20
502.2400476019949
 30
0.0
 40
3.0
100
AcDbArc
 50
279.7258859999991
 51
0.0
  0
LINE
  5
283
330
1B
100
AcDbEntity
  8
4
 62
     3
100
AcDbLine
 10
258.7932438555915
 20
546.2394986019948
 30
0.0
 11
258.7932438555915
 21
547.7104946019948
 31
0.0
  0
ARC
  5
284
330
1B
100
AcDbEntity
  8
4
 62
     3
100
AcDbCircle
 10
260.7932438555915
 20
546.2394986019948
 30
0.0
 40
2.0
100
AcDbArc
 50
180.0
 51
266.6277129999986
  0
LINE
  5
285
330
1B
100
AcDbEntity
  8
4
 62
     3
100
AcDbLine
 10
230.7932438555915
 20
546.2394986019948
 30
0.0
 11
230.7932438555915
 21
547.7104946019948
 31
0.0
  0
ARC
  5
286
330
1B
100
AcDbEntity
  8
4
 62
     3
100
AcDbCircle
 10
228.7932438555915
 20
546.2394986019948
 30
0.0
 40
2.0
100
AcDbArc
 50
273.3722870000014
 51
0.0
  0
ARC
  5
287
330
1B
100
AcDbEntity
  8
4
 62
     3
100
AcDbCircle
 10
176.6384098555916
 20
532.8653286019947
 30
0.0
 40
3.0
100
AcDbArc
 50
104.7890839999978
 51
165.2109159999976
  0
ARC
  5
288
330
1B
100
AcDbEntity
  8
4
 62
     3
100
AcDbCircle
 10
244.7932438555915
 20
274.7104946019948
 30
0.0
 40
270.0
100
AcDbArc
 50
90.0
 51
104.789084
  0
LINE
  5
289
330
1B
100
AcDbEntity
  8
4
 62
     3
100
AcDbLine
 10
230.7932438555915
 20
547.7104946019948
 30
0.0
 11
258.7932438555915
 21
547.7104946019948
 31
0.0
  0
ARC
  5
28A
330
1B
100
AcDbEntity
  8
4
 62
     3
100
AcDbCircle
 10
140.2932438555915
 20
536.7104946019948
 30
0.0
 40
3.0
100
AcDbArc
 50
90.0
 51
180.0
  0
CIRCLE
  5
28B
330
1B
100
AcDbEntity
  8
4
 62
     3
100
AcDbCircle
 10
149.2932438555915
 20
519.7104946019948
 30
0.0
 40
5.5
  0
LINE
  5
28C
330
1B
100
AcDbEntity
  8
L-CENTER
100
AcDbLine
 10
162.3584493480961
 20
519.7104946019948
 30
0.0
 11
136.228038363087
 21
519.7104946019948
 31
0.0
  0
LINE
  5
28D
330
1B
100
AcDbEntity
  8
4
100
AcDbLine
 10
137.2932438555915
 20
502.2400476019949
 30
0.0
 11
137.2932438555915
 21
536.7104946019948
 31
0.0
  0
LINE
  5
28E
330
1B
100
AcDbEntity
  8
L-CENTER
100
AcDbLine
 10
149.2932438555915
 20
506.6452891094902
 30
0.0
 11
149.2932438555915
 21
532.7757000944994
 31
0.0
  0
LINE
  5
28F
330
1B
100
AcDbEntity
  8
4
 62
     3
100
AcDbLine
 10
193.0728418555916
 20
539.7104946019948
 30
0.0
 11
140.2932438555915
 21
539.7104946019948
 31
0.0
  0
ARC
  5
290
330
1B
100
AcDbEntity
  8
4
 62
     3
100
AcDbCircle
 10
165.9777868555916
 20
423.2104946019948
 30
0.0
 40
2.0
100
AcDbArc
 50
270.0
 51
8.776096000004959
  0
ARC
  5
291
330
1B
100
AcDbEntity
  8
4
 62
     3
100
AcDbCircle
 10
321.7297358555916
 20
355.2104946019948
 30
0.0
 40
1.0
100
AcDbArc
 50
90.0
 51
165.5224880000023
  0
ARC
  5
292
330
1B
100
AcDbEntity
  8
4
 62
     3
100
AcDbCircle
 10
319.7932438555915
 20
355.7104946019948
 30
0.0
 40
1.0
100
AcDbArc
 50
270.0
 51
345.5224880000022
  0
LINE
  5
293
330
1B
100
AcDbEntity
  8
4
 62
     3
100
AcDbLine
 10
227.2933128555915
 20
366.7104946019948
 30
0.0
 11
227.2933418555915
 21
376.2104946019948
 31
0.0
  0
ARC
  5
294
330
1B
100
AcDbEntity
  8
4
 62
     3
100
AcDbCircle
 10
226.7933398555915
 20
376.2104946019948
 30
0.0
 40
0.5
100
AcDbArc
 50
0.0
 51
90.0
  0
ARC
  5
295
330
1B
100
AcDbEntity
  8
4
 62
     3
100
AcDbCircle
 10
224.2933408555916
 20
376.2104946019948
 30
0.0
 40
0.5
100
AcDbArc
 50
90.0
 51
180.0
  0
LINE
  5
296
330
1B
100
AcDbEntity
  8
4
 62
     3
100
AcDbLine
 10
224.2933408555916
 20
376.7104946019948
 30
0.0
 11
226.7933398555915
 21
376.7104946019948
 31
0.0
  0
LINE
  5
297
330
1B
100
AcDbEntity
  8
4
 62
     3
100
AcDbLine
 10
227.7933148555915
 20
366.2104946019948
 30
0.0
 11
233.2933128555915
 21
366.2104946019948
 31
0.0
  0
LINE
  5
298
330
1B
100
AcDbEntity
  8
4
 62
     3
100
AcDbLine
 10
233.7933128555915
 20
363.2104946019948
 30
0.0
 11
233.7933128555915
 21
365.7104946019948
 31
0.0
  0
ARC
  5
299
330
1B
100
AcDbEntity
  8
4
 62
     3
100
AcDbCircle
 10
233.2933128555915
 20
365.7104946019948
 30
0.0
 40
0.5
100
AcDbArc
 50
0.0
 51
90.0
  0
ARC
  5
29A
330
1B
100
AcDbEntity
  8
4
 62
     3
100
AcDbCircle
 10
233.2933128555915
 20
363.2104946019948
 30
0.0
 40
0.5
100
AcDbArc
 50
270.0
 51
0.0
  0
ARC
  5
29B
330
1B
100
AcDbEntity
  8
4
 62
     3
100
AcDbCircle
 10
224.2933138555916
 20
363.2104946019948
 30
0.0
 40
0.5
100
AcDbArc
 50
179.9998799999956
 51
269.9998800000139
  0
LINE
  5
29C
330
1B
100
AcDbEntity
  8
4
 62
     3
100
AcDbLine
 10
224.2933128555915
 20
362.7104936019949
 30
0.0
 11
233.2933128555915
 21
362.7104946019948
 31
0.0
  0
LINE
  5
29D
330
1B
100
AcDbEntity
  8
4
 62
     3
100
AcDbLine
 10
223.7933138555916
 20
363.2104956019949
 30
0.0
 11
223.7933418555915
 21
376.2104946019948
 31
0.0
  0
ARC
  5
29E
330
1B
100
AcDbEntity
  8
4
 62
     3
100
AcDbCircle
 10
227.7933148555915
 20
366.7104946019948
 30
0.0
 40
0.5
100
AcDbArc
 50
180.0
 51
270.0
  0
ARC
  5
29F
330
1B
100
AcDbEntity
  8
4
 62
     3
100
AcDbCircle
 10
169.7932438555915
 20
355.7104946019948
 30
0.0
 40
1.0
100
AcDbArc
 50
180.0
 51
270.0
  0
ARC
  5
2A0
330
1B
100
AcDbEntity
  8
4
 62
     3
100
AcDbCircle
 10
167.8567518555915
 20
355.2104946019948
 30
0.0
 40
1.0
100
AcDbArc
 50
14.47751199999817
 51
90.0
  0
LINE
  5
2A1
330
1B
100
AcDbEntity
  8
4
 62
     3
100
AcDbLine
 10
319.7932438555915
 20
354.7104946019948
 30
0.0
 11
169.7932438555915
 21
354.7104946019948
 31
0.0
  0
ARC
  5
2A2
330
1B
100
AcDbEntity
  8
4
 62
     3
100
AcDbCircle
 10
244.7932438555915
 20
654.7104946019948
 30
0.0
 40
270.0
100
AcDbArc
 50
255.210916
 51
270.0
  0
LINE
  5
2A3
330
1B
100
AcDbEntity
  8
4
 62
     3
100
AcDbLine
 10
168.7932438555915
 20
418.4071466019949
 30
0.0
 11
168.7932438555915
 21
355.7104946019948
 31
0.0
  0
ARC
  5
2A4
330
1B
100
AcDbEntity
  8
4
 62
     3
100
AcDbCircle
 10
176.6384098555916
 20
396.5556606019949
 30
0.0
 40
3.0
100
AcDbArc
 50
194.7890840000024
 51
255.2109160000022
  0
ARC
  5
2A5
330
1B
100
AcDbEntity
  8
4
100
AcDbCircle
 10
140.2932438555915
 20
427.1809416019947
 30
0.0
 40
3.0
100
AcDbArc
 50
99.72588599999929
 51
180.0
  0
CIRCLE
  5
2A6
330
1B
100
AcDbEntity
  8
4
 62
     3
100
AcDbCircle
 10
149.2932438555915
 20
409.7104946019948
 30
0.0
 40
5.5
  0
LINE
  5
2A7
330
1B
100
AcDbEntity
  8
L-CENTER
100
AcDbLine
 10
162.3584493480961
 20
409.7104946019948
 30
0.0
 11
136.228038363087
 21
409.7104946019948
 31
0.0
  0
LINE
  5
2A8
330
1B
100
AcDbEntity
  8
L-CENTER
100
AcDbLine
 10
149.2932438555915
 20
396.6452891094902
 30
0.0
 11
149.2932438555915
 21
422.7757000944994
 31
0.0
  0
LINE
  5
2AB
330
1B
100
AcDbEntity
  8
4
100
AcDbLine
 10
137.2932438555915
 20
392.7104946019948
 30
0.0
 11
137.2932438555915
 21
427.1809416019947
 31
0.0
  0
LINE
  5
2AC
330
1B
100
AcDbEntity
  8
4
 62
     3
100
AcDbLine
 10
164.7932438555915
 20
421.2104946019948
 30
0.0
 11
164.7932438555915
 21
356.2104946019948
 31
0.0
  0
LINE
  5
2AD
330
1B
100
AcDbEntity
  8
4
 62
     3
100
AcDbLine
 10
167.8567518555915
 20
356.2104946019948
 30
0.0
 11
164.7932438555915
 21
356.2104946019948
 31
0.0
  0
LINE
  5
2AE
330
1B
100
AcDbEntity
  8
4
100
AcDbLine
 10
166.4650868555916
 20
434.7104946019948
 30
0.0
 11
139.7864398555915
 21
430.1378236019949
 31
0.0
  0
LINE
  5
2AF
330
1B
100
AcDbEntity
  8
4
 62
     3
100
AcDbLine
 10
165.9777868555916
 20
421.2104946019948
 30
0.0
 11
164.7932438555915
 21
421.2104946019948
 31
0.0
  0
LINE
  5
2B0
330
1B
100
AcDbEntity
  8
4
100
AcDbLine
 10
166.4650868555916
 20
494.7104946019948
 30
0.0
 11
139.7864398555915
 21
499.2831656019949
 31
0.0
  0
ARC
  5
2B1
330
1B
100
AcDbEntity
  8
4
 62
     3
100
AcDbCircle
 10
434.7932438555915
 20
464.7104946019948
 30
0.0
 40
270.0
100
AcDbArc
 50
165.210916
 51
194.789084
  0
ARC
  5
2B2
330
1B
100
AcDbEntity
  8
4
100
AcDbCircle
 10
140.2932438555915
 20
502.2400476019949
 30
0.0
 40
3.0
100
AcDbArc
 50
180.0
 51
260.2741140000009
  0
LINE
  5
2B3
330
1B
100
AcDbEntity
  8
L-CENTER
100
AcDbLine
 10
328.8909430125794
 20
464.7104946019948
 30
0.0
 11
160.6955446986037
 21
464.7104946019948
 31
0.0
  0
LINE
  5
2B4
330
1B
100
AcDbEntity
  8
L-CENTER
100
AcDbLine
 10
160.4403220586988
 20
388.7104946019948
 30
0.0
 11
378.947558687179
 21
388.7104946019948
 31
0.0
  0
LINE
  5
2B5
330
1B
100
AcDbEntity
  8
4
 62
     3
100
AcDbLine
 10
321.7297358555916
 20
356.2104946019948
 30
0.0
 11
324.7932438555915
 21
356.2104946019948
 31
0.0
  0
ARC
  5
2B6
330
1B
100
AcDbEntity
  8
4
 62
     3
100
AcDbCircle
 10
323.6087008555915
 20
423.2104946019948
 30
0.0
 40
2.0
100
AcDbArc
 50
171.223903999995
 51
270.0
  0
LINE
  5
2B7
330
1B
100
AcDbEntity
  8
4
 62
     3
100
AcDbLine
 10
296.5136458555917
 20
539.7104946019948
 30
0.0
 11
349.2932438555915
 21
539.7104946019948
 31
0.0
  0
ARC
  5
2C6
330
1B
100
AcDbEntity
  8
4
100
AcDbCircle
 10
659.1550962891479
 20
190.0078710265211
 30
0.0
 40
1.0
100
AcDbArc
 50
0.0
 51
90.0
  0
LINE
  5
2C8
330
1B
100
AcDbEntity
  8
4
100
AcDbLine
 10
612.1550962891479
 20
199.107725026521
 30
0.0
 11
613.6550962891479
 21
191.607725026521
 31
0.0
  0
LINE
  5
2C9
330
1B
100
AcDbEntity
  8
4
100
AcDbLine
 10
605.6550962891479
 20
199.107725026521
 30
0.0
 11
605.6550962891479
 21
200.107725026521
 31
0.0
  0
LINE
  5
2CA
330
1B
100
AcDbEntity
  8
4
100
AcDbLine
 10
641.125066289148
 20
191.1299559776995
 30
0.0
 11
613.6550962891479
 21
191.607725026521
 31
0.0
  0
LINE
  5
2CC
330
1B
100
AcDbEntity
  8
4
100
AcDbLine
 10
660.1550962891479
 20
176.1079690265211
 30
0.0
 11
660.1550962891479
 21
181.1079690265211
 31
0.0
  0
LINE
  5
2CD
330
1B
100
AcDbEntity
  8
4
100
AcDbLine
 10
665.1550962891479
 20
153.6079690265211
 30
0.0
 11
666.6550962891479
 21
153.6079690265211
 31
0.0
  0
LINE
  5
2CE
330
1B
100
AcDbEntity
  8
4
100
AcDbLine
 10
668.6550962891479
 20
148.3579690265211
 30
0.0
 11
673.6550962891479
 21
148.3579690265211
 31
0.0
  0
LINE
  5
2CF
330
1B
100
AcDbEntity
  8
4
100
AcDbLine
 10
666.6550962891479
 20
154.6079690265211
 30
0.0
 11
673.6550962891479
 21
154.6079690265211
 31
0.0
  0
LINE
  5
2D0
330
1B
100
AcDbEntity
  8
4
100
AcDbLine
 10
668.6550962891479
 20
135.8579690265211
 30
0.0
 11
673.6550962891479
 21
135.8579690265211
 31
0.0
  0
LINE
  5
2D1
330
1B
100
AcDbEntity
  8
4
100
AcDbLine
 10
662.1550962891479
 20
157.1079690265211
 30
0.0
 11
665.1550962891479
 21
157.1079690265211
 31
0.0
  0
LINE
  5
2D2
330
1B
100
AcDbEntity
  8
L-CENTER
100
AcDbLine
 10
645.375066289148
 20
199.3833590265211
 30
0.0
 11
645.375066289148
 21
169.402224612788
 31
0.0
  0
LINE
  5
2D3
330
1B
100
AcDbEntity
  8
4
100
AcDbLine
 10
660.1550962891479
 20
190.0078710265211
 30
0.0
 11
660.1550962891479
 21
181.1079690265211
 31
0.0
  0
LINE
  5
2D8
330
1B
100
AcDbEntity
  8
4
100
AcDbLine
 10
664.1550962891479
 20
127.1079690265211
 30
0.0
 11
665.1550962891479
 21
127.1079690265211
 31
0.0
  0
LINE
  5
2D9
330
1B
100
AcDbEntity
  8
4
100
AcDbLine
 10
665.1550962891479
 20
130.6079690265211
 30
0.0
 11
666.6550962891479
 21
130.6079690265211
 31
0.0
  0
LINE
  5
2DA
330
1B
100
AcDbEntity
  8
4
100
AcDbLine
 10
673.6550962891479
 20
129.6079690265211
 30
0.0
 11
666.6550962891479
 21
129.6079690265211
 31
0.0
  0
LINE
  5
2DB
330
1B
100
AcDbEntity
  8
4
100
AcDbLine
 10
665.1550962891479
 20
107.608075026521
 30
0.0
 11
665.1550962891479
 21
116.608075026521
 31
0.0
  0
LINE
  5
2DC
330
1B
100
AcDbEntity
  8
4
100
AcDbLine
 10
664.1550962891479
 20
107.608075026521
 30
0.0
 11
665.1550962891479
 21
107.608075026521
 31
0.0
  0
LINE
  5
2DD
330
1B
100
AcDbEntity
  8
4
100
AcDbLine
 10
664.1550962891479
 20
116.608075026521
 30
0.0
 11
665.1550962891479
 21
116.608075026521
 31
0.0
  0
LINE
  5
2DE
330
1B
100
AcDbEntity
  8
L-CENTER
100
AcDbLine
 10
657.679548289148
 20
112.108075026521
 30
0.0
 11
668.764906289148
 21
112.108075026521
 31
0.0
  0
ARC
  5
2DF
330
1B
100
AcDbEntity
  8
4
100
AcDbCircle
 10
660.1550962891479
 20
99.10807502652102
 30
0.0
 40
2.0
100
AcDbArc
 50
270.0
 51
0.0
  0
LINE
  5
2E0
330
1B
100
AcDbEntity
  8
4
100
AcDbLine
 10
660.1550962891479
 20
97.10807502652102
 30
0.0
 11
657.1550962891479
 21
97.10807502652102
 31
0.0
  0
ARC
  5
2E1
330
1B
100
AcDbEntity
  8
4
100
AcDbCircle
 10
655.1550962891479
 20
83.10807502652102
 30
0.0
 40
2.0
100
AcDbArc
 50
0.0
 51
90.0
  0
LINE
  5
2E2
330
1B
100
AcDbEntity
  8
4
100
AcDbLine
 10
664.1550962891479
 20
104.608075026521
 30
0.0
 11
662.1550962891479
 21
104.608075026521
 31
0.0
  0
LINE
  5
2E3
330
1B
100
AcDbEntity
  8
4
100
AcDbLine
 10
664.1550962891479
 20
127.1079690265211
 30
0.0
 11
664.1550962891479
 21
104.608075026521
 31
0.0
  0
ARC
  5
2E4
330
1B
100
AcDbEntity
  8
4
100
AcDbCircle
 10
619.1550962891479
 20
83.10807502652102
 30
0.0
 40
2.0
100
AcDbArc
 50
90.0
 51
180.0
  0
ARC
  5
2E5
330
1B
100
AcDbEntity
  8
4
100
AcDbCircle
 10
614.1550962891479
 20
83.10807502652102
 30
0.0
 40
2.0
100
AcDbArc
 50
90.0
 51
180.0
  0
LINE
  5
2E6
330
1B
100
AcDbEntity
  8
4
100
AcDbLine
 10
608.737614289148
 20
88.07909902652108
 30
0.0
 11
609.3549772880165
 21
89.10802302652098
 31
0.0
  0
ARC
  5
2E7
330
1B
100
AcDbEntity
  8
4
100
AcDbCircle
 10
607.022772289148
 20
89.10807502652102
 30
0.0
 40
2.000052
100
AcDbArc
 50
270.0
 51
329.0369849999998
  0
LINE
  5
2E8
330
1B
100
AcDbEntity
  8
4
100
AcDbLine
 10
655.1550962891479
 20
85.10807502652102
 30
0.0
 11
614.1550962891479
 21
85.10807502652102
 31
0.0
  0
LINE
  5
2E9
330
1B
100
AcDbEntity
  8
4
100
AcDbLine
 10
612.1550962891479
 20
67.10807502652102
 30
0.0
 11
657.1550962891479
 21
67.10807502652102
 31
0.0
  0
LINE
  5
2EA
330
1B
100
AcDbEntity
  8
L-CENTER
100
AcDbLine
 10
637.1550962891479
 20
95.10807502652102
 30
0.0
 11
637.1550962891479
 21
59.10807502652102
 31
0.0
  0
LINE
  5
2EB
330
1B
100
AcDbEntity
  8
4
  6
Continuous
100
AcDbLine
 10
612.1550962891479
 20
67.10807502652102
 30
0.0
 11
612.1550962891479
 21
97.10807502652102
 31
0.0
  0
LINE
  5
2EC
330
1B
100
AcDbEntity
  8
4
100
AcDbLine
 10
617.1550962891479
 20
83.10807502652102
 30
0.0
 11
617.1550962891479
 21
67.10807502652102
 31
0.0
  0
LINE
  5
2ED
330
1B
100
AcDbEntity
  8
4
100
AcDbLine
 10
657.1550962891479
 20
67.10807502652102
 30
0.0
 11
657.1550962891479
 21
97.10807502652102
 31
0.0
  0
LINE
  5
2EF
330
1B
100
AcDbEntity
  8
4
100
AcDbLine
 10
665.1550962891479
 20
127.1079690265211
 30
0.0
 11
665.1550962891479
 21
157.1079690265211
 31
0.0
  0
LINE
  5
2F0
330
1B
100
AcDbEntity
  8
4
100
AcDbLine
 10
673.6550962891479
 20
129.6079690265211
 30
0.0
 11
673.6550962891479
 21
154.6079690265211
 31
0.0
  0
LINE
  5
2F1
330
1B
100
AcDbEntity
  8
4
100
AcDbLine
 10
668.6550962891479
 20
129.6079690265211
 30
0.0
 11
668.6550962891479
 21
154.6079690265211
 31
0.0
  0
LINE
  5
2F2
330
1B
100
AcDbEntity
  8
4
100
AcDbLine
 10
666.6550962891479
 20
129.6079690265211
 30
0.0
 11
666.6550962891479
 21
154.6079690265211
 31
0.0
  0
LINE
  5
2F3
330
1B
100
AcDbEntity
  8
4
100
AcDbLine
 10
665.1550962891479
 20
130.6079690265211
 30
0.0
 11
665.1550962891479
 21
153.6079690265211
 31
0.0
  0
LINE
  5
2F4
330
1B
100
AcDbEntity
  8
4
100
AcDbLine
 10
662.1550962891479
 20
99.10807502652102
 30
0.0
 11
662.1550962891479
 21
176.1079690265211
 31
0.0
  0
LINE
  5
2FD
330
1B
100
AcDbEntity
  8
4
100
AcDbLine
 10
593.1550962891479
 20
252.1079690265211
 30
0.0
 11
594.1550962891479
 21
251.1079690265211
 31
0.0
  0
LINE
  5
2FE
330
1B
100
AcDbEntity
  8
4
100
AcDbLine
 10
571.1550962891479
 20
252.1079690265211
 30
0.0
 11
570.1550962891479
 21
251.1079690265211
 31
0.0
  0
LINE
  5
2FF
330
1B
100
AcDbEntity
  8
4
100
AcDbLine
 10
570.1550962891479
 20
251.1079690265211
 30
0.0
 11
582.1550962891479
 21
251.1079690265211
 31
0.0
  0
LINE
  5
300
330
1B
100
AcDbEntity
  8
4
100
AcDbLine
 10
593.1550962891479
 20
252.1079690265211
 30
0.0
 11
567.1550962891479
 21
252.1079690265211
 31
0.0
  0
LINE
  5
301
330
1B
100
AcDbEntity
  8
4
100
AcDbLine
 10
594.1550962891479
 20
251.1079690265211
 30
0.0
 11
582.1550962891479
 21
251.1079690265211
 31
0.0
  0
LINE
  5
311
330
1B
100
AcDbEntity
  8
4
100
AcDbLine
 10
570.1550962891479
 20
215.1079690265211
 30
0.0
 11
567.1550962891479
 21
215.1079690265211
 31
0.0
  0
LINE
  5
312
330
1B
100
AcDbEntity
  8
4
100
AcDbLine
 10
601.6550962891479
 20
191.607725026521
 30
0.0
 11
597.6550962891479
 21
191.0078710265211
 31
0.0
  0
LINE
  5
313
330
1B
100
AcDbEntity
  8
4
100
AcDbLine
 10
594.6550962891479
 20
200.107725026521
 30
0.0
 11
594.6550962891479
 21
212.1079690265211
 31
0.0
  0
LINE
  5
314
330
1B
100
AcDbEntity
  8
4
100
AcDbLine
 10
569.6550962891479
 20
200.107725026521
 30
0.0
 11
569.6550962891479
 21
212.1079690265211
 31
0.0
  0
LINE
  5
315
330
1B
100
AcDbEntity
  8
4
100
AcDbLine
 10
594.6550962891479
 20
212.1079690265211
 30
0.0
 11
569.6550962891479
 21
212.1079690265211
 31
0.0
  0
LINE
  5
316
330
1B
100
AcDbEntity
  8
4
100
AcDbLine
 10
558.6550962891479
 20
199.107725026521
 30
0.0
 11
558.6550962891479
 21
200.107725026521
 31
0.0
  0
LINE
  5
317
330
1B
100
AcDbEntity
  8
4
100
AcDbLine
 10
552.1550962891479
 20
199.107725026521
 30
0.0
 11
550.6550962891479
 21
191.607725026521
 31
0.0
  0
LINE
  5
318
330
1B
100
AcDbEntity
  8
4
100
AcDbLine
 10
577.554998289148
 20
191.607725026521
 30
0.0
 11
550.6550962891479
 21
191.607725026521
 31
0.0
  0
LINE
  5
319
330
1B
100
AcDbEntity
  8
4
100
AcDbLine
 10
562.6550962891479
 20
191.607725026521
 30
0.0
 11
566.6550962891479
 21
191.0078710265211
 31
0.0
  0
ARC
  5
31A
330
1B
100
AcDbEntity
  8
4
100
AcDbCircle
 10
505.1550962891479
 20
190.0078710265211
 30
0.0
 40
1.0
100
AcDbArc
 50
90.0
 51
180.0
  0
LINE
  5
31B
330
1B
100
AcDbEntity
  8
4
100
AcDbLine
 10
504.154852289148
 20
181.1079690265211
 30
0.0
 11
504.154852289148
 21
176.1079690265211
 31
0.0
  0
LINE
  5
31C
330
1B
100
AcDbEntity
  8
4
100
AcDbLine
 10
502.154852289148
 20
174.568175026521
 30
0.0
 11
502.154852289148
 21
176.1079690265211
 31
0.0
  0
LINE
  5
31D
330
1B
100
AcDbEntity
  8
4
100
AcDbLine
 10
508.654852289148
 20
148.107953026521
 30
0.0
 11
508.654852289148
 21
153.107725026521
 31
0.0
  0
LINE
  5
31E
330
1B
100
AcDbEntity
  8
4
100
AcDbLine
 10
503.654852289148
 20
153.107725026521
 30
0.0
 11
503.654852289148
 21
148.107953026521
 31
0.0
  0
ARC
  5
31F
330
1B
100
AcDbEntity
  8
4
100
AcDbCircle
 10
506.154852289148
 20
142.107953026521
 30
0.0
 40
8.999989999999999
100
AcDbArc
 50
106.1276650000003
 51
73.87238800000105
  0
LINE
  5
320
330
1B
100
AcDbEntity
  8
4
100
AcDbLine
 10
508.654852289148
 20
148.107953026521
 30
0.0
 11
503.654852289148
 21
148.107953026521
 31
0.0
  0
LINE
  5
321
330
1B
100
AcDbEntity
  8
4
100
AcDbLine
 10
508.654852289148
 20
153.107725026521
 30
0.0
 11
503.654852289148
 21
153.107725026521
 31
0.0
  0
ARC
  5
322
330
1B
100
AcDbEntity
  8
4
100
AcDbCircle
 10
476.1746262891479
 20
170.326475026521
 30
0.0
 40
1.999992
100
AcDbArc
 50
98.70573899999675
 51
171.8095610000003
  0
ARC
  5
323
330
1B
100
AcDbEntity
  8
4
100
AcDbCircle
 10
506.1458182891479
 20
-25.39192497347898
 30
0.0
 40
199.99993
100
AcDbArc
 50
89.99734199999997
 51
98.70623699999996
  0
LINE
  5
324
330
1B
100
AcDbEntity
  8
L-CENTER
100
AcDbLine
 10
518.9353682891478
 20
199.3833590265211
 30
0.0
 11
518.9353682891478
 21
169.402224612788
 31
0.0
  0
LINE
  5
325
330
1B
100
AcDbEntity
  8
4
100
AcDbLine
 10
504.1550962891479
 20
190.0078710265211
 30
0.0
 11
504.1550962891479
 21
181.1079690265211
 31
0.0
  0
LINE
  5
326
330
1B
100
AcDbEntity
  8
4
100
AcDbLine
 10
523.1853682891478
 20
191.1299602218969
 30
0.0
 11
550.6550962891479
 21
191.607725026521
 31
0.0
  0
ARC
  5
327
330
1B
100
AcDbEntity
  8
5
 62
     3
100
AcDbCircle
 10
600.1946532891482
 20
90.10802302652104
 30
0.0
 40
1.0
100
AcDbArc
 50
146.9761320000027
 51
270.0
  0
LINE
  5
328
330
1B
100
AcDbEntity
  8
5
 62
     3
100
AcDbLine
 10
599.356209289148
 20
90.65301102652103
 30
0.0
 11
603.551887289148
 21
97.10790002652101
 31
0.0
  0
ARC
  5
329
330
1B
100
AcDbEntity
  8
5
 62
     3
100
AcDbCircle
 10
564.1155392891478
 20
90.10802302652104
 30
0.0
 40
1.0
100
AcDbArc
 50
270.0
 51
33.02386799999731
  0
ARC
  5
32A
330
1B
100
AcDbEntity
  8
4
100
AcDbCircle
 10
550.1550962891479
 20
83.10807502652102
 30
0.0
 40
2.0
100
AcDbArc
 50
0.0
 51
90.0
  0
LINE
  5
32B
330
1B
100
AcDbEntity
  8
4
100
AcDbLine
 10
555.572576289148
 20
88.07909902652108
 30
0.0
 11
554.9552136515763
 21
89.10802302652093
 31
0.0
  0
LINE
  5
32C
330
1B
100
AcDbEntity
  8
5
 62
     3
100
AcDbLine
 10
564.1155392891478
 20
89.10802302652104
 30
0.0
 11
552.1550962891479
 21
89.10802302652093
 31
0.0
  0
ARC
  5
32D
330
1B
100
AcDbEntity
  8
4
100
AcDbCircle
 10
557.287420289148
 20
89.10807502652102
 30
0.0
 40
1.99995
100
AcDbArc
 50
210.9669649999998
 51
270.0
  0
LINE
  5
32E
330
1B
100
AcDbEntity
  8
5
 62
     3
100
AcDbLine
 10
564.9539832891478
 20
90.65301102652103
 30
0.0
 11
560.7583052891482
 21
97.10790002652101
 31
0.0
  0
ARC
  5
32F
330
1B
100
AcDbEntity
  8
4
100
AcDbCircle
 10
545.1550962891479
 20
83.10807502652102
 30
0.0
 40
2.0
100
AcDbArc
 50
0.0
 51
90.0
  0
LINE
  5
331
330
1B
100
AcDbEntity
  8
4
  6
Continuous
100
AcDbLine
 10
552.1550962891479
 20
67.10807502652102
 30
0.0
 11
552.1550962891479
 21
97.10807502652102
 31
0.0
  0
LINE
  5
332
330
1B
100
AcDbEntity
  8
4
100
AcDbLine
 10
547.1550962891479
 20
83.10807502652102
 30
0.0
 11
547.1550962891479
 21
67.10807502652102
 31
0.0
  0
LINE
  5
333
330
1B
100
AcDbEntity
  8
L-CENTER
100
AcDbLine
 10
527.1550962891479
 20
59.10807502652102
 30
0.0
 11
527.1550962891479
 21
95.10807502652102
 31
0.0
  0
ARC
  5
334
330
1B
100
AcDbEntity
  8
4
100
AcDbCircle
 10
509.154852289148
 20
83.10807502652102
 30
0.0
 40
2.0
100
AcDbArc
 50
90.0
 51
180.0
  0
ARC
  5
335
330
1B
100
AcDbEntity
  8
4
100
AcDbCircle
 10
502.154852289148
 20
104.6471390265211
 30
0.0
 40
5.000001999999999
100
AcDbArc
 50
0.0
 51
88.88367100000133
  0
ARC
  5
336
330
1B
100
AcDbEntity
  8
4
100
AcDbCircle
 10
476.1773122891479
 20
113.889325026521
 30
0.0
 40
1.999968
100
AcDbArc
 50
188.1982049999992
 51
261.2938330000014
  0
ARC
  5
337
330
1B
100
AcDbEntity
  8
4
100
AcDbCircle
 10
506.1458182891479
 20
309.6082130265208
 30
0.0
 40
199.999998
100
AcDbArc
 50
261.2953910000001
 51
268.886047
  0
LINE
  5
338
330
1B
100
AcDbEntity
  8
4
100
AcDbLine
 10
507.154852289148
 20
104.6471390265211
 30
0.0
 11
507.154852289148
 21
67.10807502652102
 31
0.0
  0
LINE
  5
339
330
1B
100
AcDbEntity
  8
4
100
AcDbLine
 10
507.154852289148
 20
67.10807502652102
 30
0.0
 11
552.1550962891479
 21
67.10807502652102
 31
0.0
  0
LINE
  5
33A
330
1B
100
AcDbEntity
  8
4
100
AcDbLine
 10
550.1550962891479
 20
85.10807502652102
 30
0.0
 11
509.154852289148
 21
85.10807502652102
 31
0.0
  0
LINE
  5
33B
330
1B
100
AcDbEntity
  8
L-CENTER
100
AcDbLine
 10
506.154852289148
 20
180.8366065199702
 30
0.0
 11
506.154852289148
 21
103.3792995330718
 31
0.0
  0
ARC
  5
33C
330
1B
100
AcDbEntity
  8
4
100
AcDbCircle
 10
672.1550962891479
 20
142.117003026521
 30
0.0
 40
199.999918
100
AcDbArc
 50
171.8100759999999
 51
188.196198
  0
CIRCLE
  5
33D
330
1B
100
AcDbEntity
  8
4
100
AcDbCircle
 10
506.154852289148
 20
142.1079690265211
 30
0.0
 40
23.5
  0
CIRCLE
  5
33E
330
1B
100
AcDbEntity
  8
4
100
AcDbCircle
 10
506.154852289148
 20
142.1079690265211
 30
0.0
 40
32.5
  0
LINE
  5
341
330
1B
100
AcDbEntity
  8
4
100
AcDbLine
 10
373.7930918555915
 20
151.1079690265211
 30
0.0
 11
374.7930918555915
 21
150.1079690265211
 31
0.0
  0
LINE
  5
342
330
1B
100
AcDbEntity
  8
4
100
AcDbLine
 10
374.7930918555915
 20
134.1079690265211
 30
0.0
 11
373.7930918555915
 21
133.1079690265211
 31
0.0
  0
LINE
  5
343
330
1B
100
AcDbEntity
  8
4
100
AcDbLine
 10
374.7930918555915
 20
134.1079690265211
 30
0.0
 11
374.7930918555915
 21
153.1079690265211
 31
0.0
  0
LINE
  5
344
330
1B
100
AcDbEntity
  8
4
100
AcDbLine
 10
373.7930918555915
 20
151.1079690265211
 30
0.0
 11
373.7930918555915
 21
133.1079690265211
 31
0.0
  0
LINE
  5
34A
330
1B
100
AcDbEntity
  8
4
100
AcDbLine
 10
342.7930918555917
 20
153.1079690265211
 30
0.0
 11
342.7930918555917
 21
151.1079690265211
 31
0.0
  0
LINE
  5
34C
330
1B
100
AcDbEntity
  8
4
100
AcDbLine
 10
322.7930918555917
 20
181.1079690265211
 30
0.0
 11
322.7930918555917
 21
176.1079690265211
 31
0.0
  0
LINE
  5
34D
330
1B
100
AcDbEntity
  8
4
100
AcDbLine
 10
324.7930918555917
 20
165.6079690265211
 30
0.0
 11
325.7930918555917
 21
165.6079690265211
 31
0.0
  0
LINE
  5
34E
330
1B
100
AcDbEntity
  8
4
100
AcDbLine
 10
325.7930918555917
 20
152.1079690265211
 30
0.0
 11
339.7930918555917
 21
152.1079690265211
 31
0.0
  0
LINE
  5
34F
330
1B
100
AcDbEntity
  8
L-CENTER
100
AcDbLine
 10
317.7930918555915
 20
199.3833590265211
 30
0.0
 11
317.7930918555915
 21
169.402224612788
 31
0.0
  0
LINE
  5
350
330
1B
100
AcDbEntity
  8
4
100
AcDbLine
 10
322.7930918555917
 20
190.0078710265211
 30
0.0
 11
322.7930918555917
 21
181.1079690265211
 31
0.0
  0
LINE
  5
351
330
1B
100
AcDbEntity
  8
4
100
AcDbLine
 10
339.7930918555917
 20
151.1079690265211
 30
0.0
 11
373.7930918555915
 21
151.1079690265211
 31
0.0
  0
LINE
  5
352
330
1B
100
AcDbEntity
  8
4
100
AcDbLine
 10
339.7930918555917
 20
133.1079690265211
 30
0.0
 11
373.7930918555915
 21
133.1079690265211
 31
0.0
  0
LINE
  5
354
330
1B
100
AcDbEntity
  8
4
100
AcDbLine
 10
342.7930918555917
 20
153.1079690265211
 30
0.0
 11
374.7930918555915
 21
153.1079690265211
 31
0.0
  0
ARC
  5
359
330
1B
100
AcDbEntity
  8
4
100
AcDbCircle
 10
350.2930918555917
 20
85.10807502652102
 30
0.0
 40
2.0
100
AcDbArc
 50
0.0
 51
90.0
  0
LINE
  5
35A
330
1B
100
AcDbEntity
  8
4
100
AcDbLine
 10
324.7930918555917
 20
118.608075026521
 30
0.0
 11
325.7930918555917
 21
118.608075026521
 31
0.0
  0
ARC
  5
35B
330
1B
100
AcDbEntity
  8
4
100
AcDbCircle
 10
326.7930918555917
 20
90.10807502652102
 30
0.0
 40
3.0
100
AcDbArc
 50
180.0
 51
270.0
  0
LINE
  5
35C
330
1B
100
AcDbEntity
  8
4
100
AcDbLine
 10
323.7930918555917
 20
90.10807502652102
 30
0.0
 11
323.7930918555917
 21
109.608075026521
 31
0.0
  0
LINE
  5
35D
330
1B
100
AcDbEntity
  8
4
100
AcDbLine
 10
350.2930918555917
 20
87.10807502652102
 30
0.0
 11
307.5181898555916
 21
87.10807502652102
 31
0.0
  0
LINE
  5
35E
330
1B
100
AcDbEntity
  8
4
100
AcDbLine
 10
325.7930918555917
 20
132.1079690265211
 30
0.0
 11
339.7930918555917
 21
132.1079690265211
 31
0.0
  0
LWPOLYLINE
  5
361
330
1B
100
AcDbEntity
  8
4
100
AcDbPolyline
 90
       31
 70
     0
 43
0.0
 10
330.3759078555915
 20
87.10807502652102
 10
330.5774738555915
 20
86.64702502652102
 10
330.7536118555915
 20
86.19087702652104
 10
330.8990618555915
 20
85.740651026521
 10
331.0986458555915
 20
84.43562902652099
 10
331.0687098555916
 20
84.01922702652104
 10
330.9817718555914
 20
83.61381902652107
 10
330.8325658555916
 20
83.22041902652103
 10
330.5567258555916
 20
82.74586102652103
 10
330.2027598555915
 20
82.28648102652102
 10
329.7980758555916
 20
81.837101026521
 10
328.5537978555915
 20
80.49718902652108
 10
328.2203278555917
 20
80.036037026521
 10
327.9731798555915
 20
79.559001026521
 10
327.8397678555916
 20
79.06090302652098
 10
327.8884778555916
 20
78.23069102652101
 10
328.1683678555914
 20
77.35798702652102
 10
328.5624518555915
 20
76.46502302652101
 10
328.9537518555915
 20
75.57403102652103
 10
329.2252858555917
 20
74.70724302652098
 10
329.2600718555916
 20
73.88689102652103
 10
329.0312818555915
 20
73.22199102652104
 10
328.6084178555916
 20
72.59364102652108
 10
328.0661778555916
 20
71.98621502652105
 10
327.4792578555916
 20
71.38408702652106
 10
326.9223558555916
 20
70.77163302652099
 10
326.4701698555914
 20
70.13322302652097
 10
326.1735298555916
 20
69.43003102652102
 10
326.0458918555914
 20
68.68767102652106
 10
326.0628498555916
 20
67.911801026521
 10
326.1999978555914
 20
67.10807502652102
  0
LINE
  5
362
330
1B
100
AcDbEntity
  8
4
100
AcDbLine
 10
352.2930918555917
 20
85.10807502652102
 30
0.0
 11
352.2930918555917
 21
67.10807502652102
 31
0.0
  0
LINE
  5
363
330
1B
100
AcDbEntity
  8
4
100
AcDbLine
 10
345.7930918555917
 20
87.10807502652102
 30
0.0
 11
345.7930918555917
 21
67.10807502652102
 31
0.0
  0
LINE
  5
364
330
1B
100
AcDbEntity
  8
4
100
AcDbLine
 10
334.7930918555917
 20
87.10807502652102
 30
0.0
 11
334.7930918555917
 21
67.10807502652102
 31
0.0
  0
LINE
  5
365
330
1B
100
AcDbEntity
  8
L-CENTER
100
AcDbLine
 10
340.2930918555917
 20
59.10807502652102
 30
0.0
 11
340.2930918555917
 21
95.10807502652102
 31
0.0
  0
TEXT
  5
367
330
1B
100
AcDbEntity
  8
3
  6
Continuous
100
AcDbText
 10
362.7659745394799
 20
38.99861131510443
 30
0.0
 40
5.99999985
  1
LC2-05
  7
KANJI
 72
     1
 11
379.2659741269799
 21
38.99861131510443
 31
0.0
100
AcDbText
  0
LINE
  5
36A
330
1B
100
AcDbEntity
  8
4
100
AcDbLine
 10
325.7930918555917
 20
165.6079690265211
 30
0.0
 11
325.7930918555917
 21
118.608075026521
 31
0.0
  0
LINE
  5
36B
330
1B
100
AcDbEntity
  8
4
100
AcDbLine
 10
320.7930918555917
 20
176.1079690265211
 30
0.0
 11
320.7930918555917
 21
109.608075026521
 31
0.0
  0
LINE
  5
36C
330
1B
100
AcDbEntity
  8
4
100
AcDbLine
 10
324.7930918555917
 20
176.1079690265211
 30
0.0
 11
324.7930918555917
 21
109.608075026521
 31
0.0
  0
LINE
  5
36D
330
1B
100
AcDbEntity
  8
4
100
AcDbLine
 10
339.7930918555917
 20
132.1079690265211
 30
0.0
 11
339.7930918555917
 21
152.1079690265211
 31
0.0
  0
LINE
  5
372
330
1B
100
AcDbEntity
  8
L-CENTER
100
AcDbLine
 10
582.1550962891479
 20
257.1182230265211
 30
0.0
 11
582.1550962891479
 21
27.09771502652103
 31
0.0
  0
LINE
  5
373
330
1B
100
AcDbEntity
  8
4
100
AcDbLine
 10
594.1550962891479
 20
212.1079690265211
 30
0.0
 11
594.1550962891479
 21
251.1079690265211
 31
0.0
  0
LINE
  5
374
330
1B
100
AcDbEntity
  8
4
100
AcDbLine
 10
570.1550962891479
 20
212.1079690265211
 30
0.0
 11
570.1550962891479
 21
251.1079690265211
 31
0.0
  0
LINE
  5
375
330
1B
100
AcDbEntity
  8
4
100
AcDbLine
 10
567.1550962891479
 20
215.1079690265211
 30
0.0
 11
567.1550962891479
 21
252.1079690265211
 31
0.0
  0
LINE
  5
376
330
1B
100
AcDbEntity
  8
4
100
AcDbLine
 10
586.7549482891479
 20
191.607725026521
 30
0.0
 11
613.6550962891479
 21
191.607725026521
 31
0.0
  0
LINE
  5
377
330
1B
100
AcDbEntity
  8
4
100
AcDbLine
 10
552.1550962891479
 20
199.107725026521
 30
0.0
 11
612.1550962891479
 21
199.107725026521
 31
0.0
  0
LINE
  5
378
330
1B
100
AcDbEntity
  8
4
100
AcDbLine
 10
605.6550962891479
 20
200.107725026521
 30
0.0
 11
558.6550962891479
 21
200.107725026521
 31
0.0
  0
LINE
  5
379
330
1B
100
AcDbEntity
  8
5
 62
     3
100
AcDbLine
 10
600.1946532891479
 20
89.10802302652104
 30
0.0
 11
612.1550962891479
 21
89.10802302652093
 31
0.0
  0
LINE
  5
37A
330
1B
100
AcDbEntity
  8
4
100
AcDbLine
 10
607.022772289148
 20
87.10807502652102
 30
0.0
 11
557.287420289148
 21
87.10807502652102
 31
0.0
  0
LINE
  5
37B
330
1B
100
AcDbEntity
  8
4
100
AcDbLine
 10
657.1550962891479
 20
97.10807502652102
 30
0.0
 11
507.154852289148
 21
97.10807502652102
 31
0.0
  0
LINE
  5
37D
330
1B
100
AcDbEntity
  8
4
100
AcDbLine
 10
505.1550962891479
 20
191.0078710265211
 30
0.0
 11
659.1550962891479
 21
191.0078710265211
 31
0.0
  0
LINE
  5
37E
330
1B
100
AcDbEntity
  8
4
100
AcDbLine
 10
502.154852289148
 20
176.1079690265211
 30
0.0
 11
662.1550962891479
 21
176.1079690265211
 31
0.0
  0
LINE
  5
37F
330
1B
100
AcDbEntity
  8
4
100
AcDbLine
 10
660.1550962891479
 20
181.1079690265211
 30
0.0
 11
504.154852289148
 21
181.1079690265211
 31
0.0
  0
LINE
  5
380
330
1B
100
AcDbEntity
  8
L-CENTER
100
AcDbLine
 10
467.4261987957021
 20
142.1079690265211
 30
0.0
 11
678.077878433096
 21
142.1079690265211
 31
0.0
  0
LINE
  5
39B
330
1B
100
AcDbEntity
  8
4
100
AcDbLine
 10
255.7932438555915
 20
252.1079690265211
 30
0.0
 11
256.7932438555915
 21
251.1079690265211
 31
0.0
  0
LINE
  5
3A0
330
1B
100
AcDbEntity
  8
4
100
AcDbLine
 10
233.7932438555915
 20
252.1079690265211
 30
0.0
 11
232.7932438555915
 21
251.1079690265211
 31
0.0
  0
LINE
  5
3A1
330
1B
100
AcDbEntity
  8
4
100
AcDbLine
 10
232.7932438555915
 20
251.1079690265211
 30
0.0
 11
241.2932438555915
 21
251.1079690265211
 31
0.0
  0
LINE
  5
3A6
330
1B
100
AcDbEntity
  8
4
100
AcDbLine
 10
256.7932438555915
 20
251.1079690265211
 30
0.0
 11
248.2932438555915
 21
251.1079690265211
 31
0.0
  0
LINE
  5
3A7
330
1B
100
AcDbEntity
  8
4
100
AcDbLine
 10
255.7932438555915
 20
252.1079690265211
 30
0.0
 11
233.7932438555915
 21
252.1079690265211
 31
0.0
  0
LINE
  5
3AD
330
1B
100
AcDbEntity
  8
4
100
AcDbLine
 10
274.7932438555915
 20
199.107725026521
 30
0.0
 11
276.2932438555915
 21
191.607725026521
 31
0.0
  0
LINE
  5
3AE
330
1B
100
AcDbEntity
  8
4
100
AcDbLine
 10
276.2932438555915
 20
191.607725026521
 30
0.0
 11
277.0430918555915
 21
191.5945425901197
 31
0.0
  0
LINE
  5
3AF
330
1B
100
AcDbEntity
  8
4
100
AcDbLine
 10
277.0430918555915
 20
191.5945458155529
 30
0.0
 11
276.2933358555915
 21
191.607725026521
 31
0.0
  0
LINE
  5
3B0
330
1B
100
AcDbEntity
  8
4
100
AcDbLine
 10
268.2932438555915
 20
199.107725026521
 30
0.0
 11
268.2932438555915
 21
200.107725026521
 31
0.0
  0
LINE
  5
3B1
330
1B
100
AcDbEntity
  8
4
100
AcDbLine
 10
264.2932438555915
 20
191.607725026521
 30
0.0
 11
260.2932438555915
 21
191.0078710265211
 31
0.0
  0
LINE
  5
3B2
330
1B
100
AcDbEntity
  8
4
100
AcDbLine
 10
257.2932438555915
 20
200.107725026521
 30
0.0
 11
257.2932438555915
 21
212.1079690265211
 31
0.0
  0
ARC
  5
3B3
330
1B
100
AcDbEntity
  8
4
100
AcDbCircle
 10
244.7932438555915
 20
218.6079690265211
 30
0.0
 40
3.5
100
AcDbArc
 50
180.0
 51
0.0
  0
LINE
  5
3B4
330
1B
100
AcDbEntity
  8
4
100
AcDbLine
 10
225.2932438555915
 20
191.607725026521
 30
0.0
 11
229.2932438555915
 21
191.0078710265211
 31
0.0
  0
LINE
  5
3B5
330
1B
100
AcDbEntity
  8
4
100
AcDbLine
 10
221.2932438555915
 20
199.107725026521
 30
0.0
 11
221.2932438555915
 21
200.107725026521
 31
0.0
  0
LINE
  5
3B6
330
1B
100
AcDbEntity
  8
4
100
AcDbLine
 10
232.2932438555915
 20
200.107725026521
 30
0.0
 11
232.2932438555915
 21
212.1079690265211
 31
0.0
  0
LINE
  5
3B7
330
1B
100
AcDbEntity
  8
4
100
AcDbLine
 10
268.2932438555915
 20
200.107725026521
 30
0.0
 11
221.2932438555915
 21
200.107725026521
 31
0.0
  0
LINE
  5
3B8
330
1B
100
AcDbEntity
  8
4
100
AcDbLine
 10
214.7932438555915
 20
199.107725026521
 30
0.0
 11
274.7932438555915
 21
199.107725026521
 31
0.0
  0
LINE
  5
3B9
330
1B
100
AcDbEntity
  8
4
100
AcDbLine
 10
257.2932438555915
 20
212.1079690265211
 30
0.0
 11
232.2932438555915
 21
212.1079690265211
 31
0.0
  0
LINE
  5
3BA
330
1B
100
AcDbEntity
  8
L-CENTER
100
AcDbLine
 10
281.2930918555915
 20
199.3833590265211
 30
0.0
 11
281.2930918555915
 21
169.402224612788
 31
0.0
  0
ARC
  5
3C4
330
1B
100
AcDbEntity
  8
4
100
AcDbCircle
 10
167.7932438555915
 20
190.0078710265211
 30
0.0
 40
1.0
100
AcDbArc
 50
90.0
 51
180.0
  0
LINE
  5
3C5
330
1B
100
AcDbEntity
  8
4
100
AcDbLine
 10
166.7932438555915
 20
181.1079690265211
 30
0.0
 11
166.7932438555915
 21
176.1079690265211
 31
0.0
  0
LINE
  5
3C6
330
1B
100
AcDbEntity
  8
4
100
AcDbLine
 10
164.7932438555915
 20
165.6079690265211
 30
0.0
 11
163.7932438555915
 21
165.6079690265211
 31
0.0
  0
LINE
  5
3C7
330
1B
100
AcDbEntity
  8
4
100
AcDbLine
 10
166.7932438555915
 20
190.0078710265211
 30
0.0
 11
166.7932438555915
 21
181.1079690265211
 31
0.0
  0
LINE
  5
3C8
330
1B
100
AcDbEntity
  8
L-CENTER
100
AcDbLine
 10
208.2933358555915
 20
199.3833590265211
 30
0.0
 11
208.2933358555915
 21
169.402224612788
 31
0.0
  0
LINE
  5
3C9
330
1B
100
AcDbEntity
  8
L-CENTER
100
AcDbLine
 10
171.7932598555915
 20
199.3833590265211
 30
0.0
 11
171.7932598555915
 21
169.402224612788
 31
0.0
  0
LINE
  5
3CA
330
1B
100
AcDbEntity
  8
L-CENTER
100
AcDbLine
 10
194.7932438555915
 20
202.1402122209879
 30
0.0
 11
194.7932438555915
 21
170.562332220988
 31
0.0
  0
LINE
  5
3CB
330
1B
100
AcDbEntity
  8
4
100
AcDbLine
 10
276.2932438555915
 20
191.607725026521
 30
0.0
 11
213.2932438555915
 21
191.607725026521
 31
0.0
  0
LINE
  5
3CC
330
1B
100
AcDbEntity
  8
4
100
AcDbLine
 10
214.7932438555915
 20
199.107725026521
 30
0.0
 11
213.2932438555915
 21
191.607725026521
 31
0.0
  0
ARC
  5
3CD
330
1B
100
AcDbEntity
  8
4
100
AcDbCircle
 10
278.2932438555915
 20
95.10809102652098
 30
0.0
 40
2.0
100
AcDbArc
 50
0.0
 51
90.0
  0
LINE
  5
3CE
330
1B
100
AcDbEntity
  8
4
100
AcDbLine
 10
271.9932126555914
 20
89.108039026521
 30
0.0
 11
270.7932438555915
 21
87.10809102652098
 31
0.0
  0
ARC
  5
3CF
330
1B
100
AcDbEntity
  8
5
 62
     3
100
AcDbCircle
 10
262.8328008555918
 20
90.108039026521
 30
0.0
 40
1.0
100
AcDbArc
 50
146.9761320000027
 51
270.0
  0
LINE
  5
3D0
330
1B
100
AcDbEntity
  8
5
 62
     3
100
AcDbLine
 10
261.9943568555916
 20
90.65302702652099
 30
0.0
 11
266.1900348555914
 21
97.10791602652097
 31
0.0
  0
LINE
  5
3D1
330
1B
100
AcDbEntity
  8
5
 62
     3
100
AcDbLine
 10
262.8328008555916
 20
89.108039026521
 30
0.0
 11
280.2930918555915
 21
89.10803902652088
 31
0.0
  0
ARC
  5
3D2
330
1B
100
AcDbEntity
  8
5
 62
     3
100
AcDbCircle
 10
226.7536868555912
 20
90.108039026521
 30
0.0
 40
1.0
100
AcDbArc
 50
270.0
 51
33.02386799999889
  0
LINE
  5
3D3
330
1B
100
AcDbEntity
  8
4
100
AcDbLine
 10
217.5932750555917
 20
89.10803902652088
 30
0.0
 11
218.7932438555915
 21
87.10809102652098
 31
0.0
  0
LINE
  5
3D4
330
1B
100
AcDbEntity
  8
5
 62
     3
100
AcDbLine
 10
227.5921308555914
 20
90.65302702652099
 30
0.0
 11
223.3964528555916
 21
97.10791602652097
 31
0.0
  0
LINE
  5
3D5
330
1B
100
AcDbEntity
  8
4
100
AcDbLine
 10
270.7932438555915
 20
87.10809102652098
 30
0.0
 11
218.7932438555915
 21
87.10809102652098
 31
0.0
  0
LINE
  5
3D6
330
1B
100
AcDbEntity
  8
4
100
AcDbLine
 10
280.2930918555915
 20
95.10809102652098
 30
0.0
 11
280.2930918555915
 21
67.10807502652102
 31
0.0
  0
ARC
  5
3D7
330
1B
100
AcDbEntity
  8
4
100
AcDbCircle
 10
211.2932438555915
 20
95.10809102652098
 30
0.0
 40
2.0
100
AcDbArc
 50
90.0
 51
180.0
  0
LINE
  5
3D8
330
1B
100
AcDbEntity
  8
4
100
AcDbLine
 10
164.7932438555915
 20
118.608075026521
 30
0.0
 11
163.7932438555915
 21
118.608075026521
 31
0.0
  0
ARC
  5
3D9
330
1B
100
AcDbEntity
  8
4
100
AcDbCircle
 10
162.7932438555915
 20
90.10807502652102
 30
0.0
 40
3.0
100
AcDbArc
 50
270.0005920000014
 51
0.0
  0
ARC
  5
3DA
330
1B
100
AcDbEntity
  8
4
100
AcDbCircle
 10
139.2932438555915
 20
85.10807502652102
 30
0.0
 40
2.0
100
AcDbArc
 50
90.0
 51
180.0
  0
LINE
  5
3DB
330
1B
100
AcDbEntity
  8
4
100
AcDbLine
 10
165.7932438555915
 20
90.10807502652102
 30
0.0
 11
165.7932438555915
 21
109.608075026521
 31
0.0
  0
LINE
  5
3DC
330
1B
100
AcDbEntity
  8
4
100
AcDbLine
 10
139.2932438555915
 20
87.10807502652102
 30
0.0
 11
182.0681458555914
 21
87.10807502652102
 31
0.0
  0
LINE
  5
3DD
330
1B
100
AcDbEntity
  8
4
100
AcDbLine
 10
209.2932438555915
 20
67.10807502652102
 30
0.0
 11
137.2932438555915
 21
67.10807502652102
 31
0.0
  0
LINE
  5
3DE
330
1B
100
AcDbEntity
  8
4
100
AcDbLine
 10
137.2932438555915
 20
85.10807502652102
 30
0.0
 11
137.2932438555915
 21
67.10807502652102
 31
0.0
  0
LINE
  5
3DF
330
1B
100
AcDbEntity
  8
L-CENTER
100
AcDbLine
 10
149.2932438555915
 20
59.10807502652102
 30
0.0
 11
149.2932438555915
 21
95.10807502652102
 31
0.0
  0
LINE
  5
3E0
330
1B
100
AcDbEntity
  8
4
100
AcDbLine
 10
209.2932438555915
 20
95.10809102652098
 30
0.0
 11
209.2932438555915
 21
67.10807502652102
 31
0.0
  0
LINE
  5
3E1
330
1B
100
AcDbEntity
  8
5
 62
     3
100
AcDbLine
 10
226.7536868555915
 20
89.108039026521
 30
0.0
 11
209.2932438555915
 21
89.10803902652088
 31
0.0
  0
LINE
  5
3E2
330
1B
100
AcDbEntity
  8
4
100
AcDbLine
 10
211.2932438555915
 20
97.10809102652098
 30
0.0
 11
278.2932438555915
 21
97.10809102652098
 31
0.0
  0
LINE
  5
3E3
330
1B
100
AcDbEntity
  8
4
100
AcDbLine
 10
163.7932438555915
 20
165.6079690265211
 30
0.0
 11
163.7932438555915
 21
118.608075026521
 31
0.0
  0
LINE
  5
3E4
330
1B
100
AcDbEntity
  8
4
100
AcDbLine
 10
168.7932438555915
 20
176.1079690265211
 30
0.0
 11
168.7932438555915
 21
109.608075026521
 31
0.0
  0
LINE
  5
3E5
330
1B
100
AcDbEntity
  8
4
100
AcDbLine
 10
164.7932438555915
 20
176.1079690265211
 30
0.0
 11
164.7932438555915
 21
109.608075026521
 31
0.0
  0
LINE
  5
3E7
330
1B
100
AcDbEntity
  8
L-CENTER
100
AcDbLine
 10
244.7932438555915
 20
27.09771502652103
 30
0.0
 11
244.7932438555915
 21
257.1182230265211
 31
0.0
  0
LINE
  5
3E8
330
1B
100
AcDbEntity
  8
4
100
AcDbLine
 10
241.2932438555915
 20
218.6079690265211
 30
0.0
 11
241.2932438555915
 21
252.1079690265211
 31
0.0
  0
LINE
  5
3E9
330
1B
100
AcDbEntity
  8
4
100
AcDbLine
 10
232.7932438555915
 20
212.1079690265211
 30
0.0
 11
232.7932438555915
 21
251.1079690265211
 31
0.0
  0
LINE
  5
3EA
330
1B
100
AcDbEntity
  8
4
100
AcDbLine
 10
248.2932438555915
 20
218.6079690265211
 30
0.0
 11
248.2932438555915
 21
252.1079690265211
 31
0.0
  0
LINE
  5
3EB
330
1B
100
AcDbEntity
  8
4
100
AcDbLine
 10
256.7932438555915
 20
212.1079690265211
 30
0.0
 11
256.7932438555915
 21
251.1079690265211
 31
0.0
  0
LINE
  5
42B
330
1B
100
AcDbEntity
  8
4
100
AcDbLine
 10
285.5430918555915
 20
191.4468843598544
 30
0.0
 11
310.7930918555915
 21
191.0078710265211
 31
0.0
  0
LINE
  5
42C
330
1B
100
AcDbEntity
  8
4
100
AcDbLine
 10
280.2930918555915
 20
67.10807502652102
 30
0.0
 11
352.2930918555917
 21
67.10807502652102
 31
0.0
  0
LINE
  5
42D
330
1B
100
AcDbEntity
  8
4
100
AcDbLine
 10
324.7930918555917
 20
109.608075026521
 30
0.0
 11
164.7932438555915
 21
109.608075026521
 31
0.0
  0
LINE
  5
42E
330
1B
100
AcDbEntity
  8
L-CENTER
100
AcDbLine
 10
160.4403220586988
 20
142.1079690265211
 30
0.0
 11
378.1739518555914
 21
142.1079690265211
 31
0.0
  0
LINE
  5
42F
330
1B
100
AcDbEntity
  8
4
100
AcDbLine
 10
167.7932438555915
 20
191.0078710265211
 30
0.0
 11
321.7930918555917
 21
191.0078710265211
 31
0.0
  0
LINE
  5
430
330
1B
100
AcDbEntity
  8
4
100
AcDbLine
 10
164.7932438555915
 20
176.1079690265211
 30
0.0
 11
324.7930918555917
 21
176.1079690265211
 31
0.0
  0
LINE
  5
431
330
1B
100
AcDbEntity
  8
4
100
AcDbLine
 10
322.7930918555917
 20
181.1079690265211
 30
0.0
 11
166.7932438555915
 21
181.1079690265211
 31
0.0
  0
CIRCLE
  5
78F
330
1B
100
AcDbEntity
  8
4
100
AcDbCircle
 10
194.7932438555915
 20
464.7104946019948
 30
0.0
 40
12.5
  0
LINE
  5
790
330
1B
100
AcDbEntity
  8
4
100
AcDbLine
 10
199.9893962735366
 20
475.7104946019948
 30
0.0
 11
189.5970914328849
 21
475.7104946019948
 31
0.0
  0
LINE
  5
791
330
1B
100
AcDbEntity
  8
4
100
AcDbLine
 10
199.9893962830597
 20
453.7104946019948
 30
0.0
 11
189.5970914328849
 21
453.7104946019948
 31
0.0
  0
LINE
  5
792
330
1B
100
AcDbEntity
  8
4
100
AcDbLine
 10
187.8650406253161
 20
454.7104946019948
 30
0.0
 11
182.6688882026094
 21
463.7104946019948
 31
0.0
  0
ARC
  5
793
330
1B
100
AcDbEntity
  8
4
100
AcDbCircle
 10
189.5970914328849
 20
473.7104946019948
 30
0.0
 40
2.0
100
AcDbArc
 50
90.0
 51
149.9999999999999
  0
LINE
  5
794
330
1B
100
AcDbEntity
  8
4
100
AcDbLine
 10
187.8650406253161
 20
474.7104946019948
 30
0.0
 11
182.6688882026094
 21
465.7104946019948
 31
0.0
  0
ARC
  5
795
330
1B
100
AcDbEntity
  8
4
100
AcDbCircle
 10
184.4009390101783
 20
464.7104946019948
 30
0.0
 40
2.0
100
AcDbArc
 50
149.9999999999999
 51
210.0000000000001
  0
CIRCLE
  5
796
330
1B
100
AcDbEntity
  8
4
100
AcDbCircle
 10
194.7932438555915
 20
464.7104946019948
 30
0.0
 40
1.5
  0
ARC
  5
797
330
1B
100
AcDbEntity
  8
4
100
AcDbCircle
 10
189.5970914328849
 20
455.7104946019948
 30
0.0
 40
2.0
100
AcDbArc
 50
210.0000000000001
 51
270.0
  0
LINE
  5
798
330
1B
100
AcDbEntity
  8
4
100
AcDbLine
 10
206.9175995085737
 20
463.7104945915288
 30
0.0
 11
201.7214470905218
 21
454.71049460181
 31
0.0
  0
LINE
  5
799
330
1B
100
AcDbEntity
  8
4
100
AcDbLine
 10
206.9175995085737
 20
465.7104945915288
 30
0.0
 11
201.7214470812122
 21
474.71049460181
 31
0.0
  0
ARC
  5
79A
330
1B
100
AcDbEntity
  8
4
100
AcDbCircle
 10
199.9893962735366
 20
473.7104946019948
 30
0.0
 40
2.0
100
AcDbArc
 50
29.99999999388521
 51
90.0
  0
ARC
  5
79B
330
1B
100
AcDbEntity
  8
4
100
AcDbCircle
 10
205.1855487010048
 20
464.7104945915288
 30
0.0
 40
2.0
100
AcDbArc
 50
329.9999999999999
 51
30.00000000000014
  0
ARC
  5
79C
330
1B
100
AcDbEntity
  8
4
100
AcDbCircle
 10
199.9893962830597
 20
455.7104946019948
 30
0.0
 40
2.0
100
AcDbArc
 50
270.0
 51
329.9999999938849
  0
LINE
  5
79D
330
1B
100
AcDbEntity
  8
4
100
AcDbLine
 10
204.0433358555915
 20
192.5078710265211
 30
0.0
 11
182.2932438555915
 21
192.5078710265211
 31
0.0
  0
LINE
  5
79E
330
1B
100
AcDbEntity
  8
4
100
AcDbLine
 10
204.0433358555915
 20
194.5078710265211
 30
0.0
 11
182.2932438555915
 21
194.5078710265211
 31
0.0
  0
LINE
  5
79F
330
1B
100
AcDbEntity
  8
4
100
AcDbLine
 10
206.7932438555915
 20
198.5078710265211
 30
0.0
 11
182.7932438555915
 21
198.5078710265211
 31
0.0
  0
LINE
  5
7A1
330
1B
100
AcDbEntity
  8
4
100
AcDbLine
 10
182.2932438555915
 20
198.0078710265211
 30
0.0
 11
182.2932438555915
 21
192.5078710265211
 31
0.0
  0
ARC
  5
7A2
330
1B
100
AcDbEntity
  8
4
100
AcDbCircle
 10
182.7932438555915
 20
198.0078710265211
 30
0.0
 40
0.5
100
AcDbArc
 50
90.0
 51
180.0
  0
LINE
  5
7A3
330
1B
100
AcDbEntity
  8
4
100
AcDbLine
 10
182.7932438555915
 20
192.5078710265211
 30
0.0
 11
182.7932438555915
 21
191.0078710265211
 31
0.0
  0
LINE
  5
7A4
330
1B
100
AcDbEntity
  8
4
100
AcDbLine
 10
206.7932438555915
 20
191.0078710265211
 30
0.0
 11
182.7932438555915
 21
191.0078710265211
 31
0.0
  0
LINE
  5
7A5
330
1B
100
AcDbEntity
  8
4
100
AcDbLine
 10
201.1440968212966
 20
198.5078710265211
 30
0.0
 11
201.1440968212967
 21
194.5078710265211
 31
0.0
  0
LINE
  5
7A6
330
1B
100
AcDbEntity
  8
4
100
AcDbLine
 10
207.2932438555915
 20
198.0078710265211
 30
0.0
 11
207.2932438555915
 21
197.3078710265211
 31
0.0
  0
ARC
  5
7A7
330
1B
100
AcDbEntity
  8
4
100
AcDbCircle
 10
206.7932438555915
 20
198.0078710265211
 30
0.0
 40
0.5
100
AcDbArc
 50
0.0
 51
90.0
  0
LINE
  5
7A9
330
1B
100
AcDbEntity
  8
4
100
AcDbLine
 10
188.4423908898865
 20
198.5078710265211
 30
0.0
 11
188.4423908898864
 21
194.5078710265211
 31
0.0
  0
LINE
  5
863
330
1B
100
AcDbEntity
  8
4
100
AcDbLine
 10
605.6550962891479
 20
87.10809102652098
 30
0.0
 11
605.6550962891479
 21
86.10809102652098
 31
0.0
  0
LINE
  5
864
330
1B
100
AcDbEntity
  8
4
100
AcDbLine
 10
593.1550962891479
 20
32.10796902652106
 30
0.0
 11
594.1550962891479
 21
33.10796902652106
 31
0.0
  0
LINE
  5
865
330
1B
100
AcDbEntity
  8
4
100
AcDbLine
 10
571.1550962891479
 20
32.10796902652106
 30
0.0
 11
570.1550962891479
 21
33.10796902652106
 31
0.0
  0
LINE
  5
866
330
1B
100
AcDbEntity
  8
4
100
AcDbLine
 10
570.1550962891479
 20
33.10796902652106
 30
0.0
 11
582.1550962891479
 21
33.10796902652106
 31
0.0
  0
LINE
  5
867
330
1B
100
AcDbEntity
  8
4
100
AcDbLine
 10
593.1550962891479
 20
32.10796902652106
 30
0.0
 11
567.1550962891479
 21
32.10796902652106
 31
0.0
  0
LINE
  5
868
330
1B
100
AcDbEntity
  8
4
100
AcDbLine
 10
594.1550962891479
 20
33.10796902652106
 30
0.0
 11
582.1550962891479
 21
33.10796902652106
 31
0.0
  0
LINE
  5
869
330
1B
100
AcDbEntity
  8
4
100
AcDbLine
 10
570.1550962891479
 20
69.10796902652106
 30
0.0
 11
567.1550962891479
 21
69.10796902652106
 31
0.0
  0
LINE
  5
86A
330
1B
100
AcDbEntity
  8
4
100
AcDbLine
 10
594.6550962891479
 20
86.10809102652098
 30
0.0
 11
594.6550962891479
 21
72.10796902652106
 31
0.0
  0
LINE
  5
86B
330
1B
100
AcDbEntity
  8
4
100
AcDbLine
 10
569.6550962891479
 20
86.10809102652098
 30
0.0
 11
569.6550962891479
 21
72.10796902652106
 31
0.0
  0
LINE
  5
86C
330
1B
100
AcDbEntity
  8
4
100
AcDbLine
 10
594.6550962891479
 20
72.10796902652106
 30
0.0
 11
569.6550962891479
 21
72.10796902652106
 31
0.0
  0
LINE
  5
86D
330
1B
100
AcDbEntity
  8
4
100
AcDbLine
 10
558.6550962891479
 20
87.10809102652098
 30
0.0
 11
558.6550962891479
 21
86.10809102652098
 31
0.0
  0
LINE
  5
86E
330
1B
100
AcDbEntity
  8
4
100
AcDbLine
 10
594.1550962891479
 20
72.10796902652106
 30
0.0
 11
594.1550962891479
 21
33.10796902652106
 31
0.0
  0
LINE
  5
86F
330
1B
100
AcDbEntity
  8
4
100
AcDbLine
 10
570.1550962891479
 20
72.10796902652106
 30
0.0
 11
570.1550962891479
 21
33.10796902652106
 31
0.0
  0
LINE
  5
870
330
1B
100
AcDbEntity
  8
4
100
AcDbLine
 10
567.1550962891479
 20
69.10796902652106
 30
0.0
 11
567.1550962891479
 21
32.10796902652106
 31
0.0
  0
LINE
  5
871
330
1B
100
AcDbEntity
  8
4
100
AcDbLine
 10
605.6550962891479
 20
86.10809102652098
 30
0.0
 11
558.6550962891479
 21
86.10809102652098
 31
0.0
  0
LINE
  5
872
330
1B
100
AcDbEntity
  8
4
100
AcDbLine
 10
255.7932438555915
 20
32.10796902652106
 30
0.0
 11
256.7932438555915
 21
33.10796902652106
 31
0.0
  0
LINE
  5
873
330
1B
100
AcDbEntity
  8
4
100
AcDbLine
 10
233.7932438555915
 20
32.10796902652106
 30
0.0
 11
232.7932438555915
 21
33.10796902652106
 31
0.0
  0
LINE
  5
874
330
1B
100
AcDbEntity
  8
4
100
AcDbLine
 10
232.7932438555915
 20
33.10796902652106
 30
0.0
 11
241.2932438555915
 21
33.10796902652106
 31
0.0
  0
LINE
  5
875
330
1B
100
AcDbEntity
  8
4
100
AcDbLine
 10
256.7932438555915
 20
33.10796902652106
 30
0.0
 11
248.2932438555915
 21
33.10796902652106
 31
0.0
  0
LINE
  5
876
330
1B
100
AcDbEntity
  8
4
100
AcDbLine
 10
255.7932438555915
 20
32.10796902652106
 30
0.0
 11
233.7932438555915
 21
32.10796902652106
 31
0.0
  0
LINE
  5
877
330
1B
100
AcDbEntity
  8
4
100
AcDbLine
 10
268.2932438555915
 20
87.10809102652098
 30
0.0
 11
268.2932438555915
 21
86.10809102652098
 31
0.0
  0
LINE
  5
878
330
1B
100
AcDbEntity
  8
4
100
AcDbLine
 10
257.2932438555915
 20
86.10809102652098
 30
0.0
 11
257.2932438555915
 21
72.10796902652106
 31
0.0
  0
ARC
  5
879
330
1B
100
AcDbEntity
  8
4
100
AcDbCircle
 10
244.7932438555915
 20
65.60796902652106
 30
0.0
 40
3.5
100
AcDbArc
 50
0.0
 51
180.0
  0
LINE
  5
87A
330
1B
100
AcDbEntity
  8
4
100
AcDbLine
 10
221.2932438555915
 20
87.10809102652098
 30
0.0
 11
221.2932438555915
 21
86.10809102652098
 31
0.0
  0
LINE
  5
87B
330
1B
100
AcDbEntity
  8
4
100
AcDbLine
 10
232.2932438555915
 20
86.10809102652098
 30
0.0
 11
232.2932438555915
 21
72.10796902652106
 31
0.0
  0
LINE
  5
87C
330
1B
100
AcDbEntity
  8
4
100
AcDbLine
 10
268.2932438555915
 20
86.10809102652098
 30
0.0
 11
221.2932438555915
 21
86.10809102652098
 31
0.0
  0
LINE
  5
87D
330
1B
100
AcDbEntity
  8
4
100
AcDbLine
 10
257.2932438555915
 20
72.10796902652106
 30
0.0
 11
232.2932438555915
 21
72.10796902652106
 31
0.0
  0
LINE
  5
87E
330
1B
100
AcDbEntity
  8
4
100
AcDbLine
 10
241.2932438555915
 20
65.60796902652106
 30
0.0
 11
241.2932438555915
 21
32.10796902652106
 31
0.0
  0
LINE
  5
87F
330
1B
100
AcDbEntity
  8
4
100
AcDbLine
 10
232.7932438555915
 20
72.10796902652106
 30
0.0
 11
232.7932438555915
 21
33.10796902652106
 31
0.0
  0
LINE
  5
880
330
1B
100
AcDbEntity
  8
4
100
AcDbLine
 10
248.2932438555915
 20
65.60796902652106
 30
0.0
 11
248.2932438555915
 21
32.10796902652106
 31
0.0
  0
LINE
  5
881
330
1B
100
AcDbEntity
  8
4
100
AcDbLine
 10
256.7932438555915
 20
72.10796902652106
 30
0.0
 11
256.7932438555915
 21
33.10796902652106
 31
0.0
  0
ARC
  5
8A1
330
1B
100
AcDbEntity
  8
4
 62
     3
100
AcDbCircle
 10
140.2932438555915
 20
392.7104946019948
 30
0.0
 40
3.0
100
AcDbArc
 50
180.0
 51
270.0
  0
LINE
  5
8A2
330
1B
100
AcDbEntity
  8
4
 62
     3
100
AcDbLine
 10
163.7932438555915
 20
389.7104946019948
 30
0.0
 11
140.2932438555915
 21
389.7104946019948
 31
0.0
  0
ENDSEC
  0
SECTION
  2
OBJECTS
  0
DICTIONARY
  5
9
330
0
100
AcDbDictionary
281
     1
  3
ACAD_COLOR
350
30
  3
ACAD_GROUP
350
2E
  3
ACAD_LAYOUT
350
24
  3
ACAD_MATERIAL
350
B
  3
ACAD_MLEADERSTYLE
350
43C
  3
ACAD_MLINESTYLE
350
19
  3
ACAD_PLOTSETTINGS
350
2F
  3
ACAD_PLOTSTYLENAME
350
8
  3
ACAD_SCALELIST
350
35
  3
ACAD_TABLESTYLE
350
43B
  3
ACAD_VISUALSTYLE
350
31
  3
ACDBHEADERROUNDTRIPXREC
350
8B2
  3
AcDbVariableDictionary
350
439
  3
DWGPROPS
350
8B5
  0
DICTIONARY
  5
8B6
330
2D
100
AcDbDictionary
280
     1
281
     1
  3
ACAD_XREC_ROUNDTRIP
360
8B7
  0
DICTIONARY
  5
3
330
2
100
AcDbDictionary
280
     1
281
     1
  3
ACAD_LAYERSTATES
360
4
  0
DICTIONARY
  5
20
330
1F
100
AcDbDictionary
280
     1
281
     1
  3
ADSK_XREC_LAYER_RECONCILED
360
21
  0
DICTIONARY
  5
F4
330
F3
100
AcDbDictionary
280
     1
281
     1
  3
ADSK_XREC_LAYER_RECONCILED
360
F5
  0
DICTIONARY
  5
5
330
1
100
AcDbDictionary
280
     1
281
     1
  3
ADSK_XREC_LAYER_RECONCILED
360
6
  0
DICTIONARY
  5
5B
330
5A
100
AcDbDictionary
280
     1
281
     1
  3
ADSK_XREC_LAYER_RECONCILED
360
5C
  0
DICTIONARY
  5
BA
330
B9
100
AcDbDictionary
280
     1
281
     1
  3
ADSK_XREC_LAYER_RECONCILED
360
BB
  0
DICTIONARY
  5
EA
330
E9
100
AcDbDictionary
280
     1
281
     1
  3
ADSK_XREC_LAYER_RECONCILED
360
EB
  0
DICTIONARY
  5
80
330
7F
100
AcDbDictionary
280
     1
281
     1
  3
ADSK_XREC_LAYER_RECONCILED
360
81
  0
DICTIONARY
  5
1C
330
1B
100
AcDbDictionary
280
     1
281
     1
  3
ACAD_SORTENTS
360
1D
  0
DICTIONARY
  5
49F
330
458
100
AcDbDictionary
280
     1
281
     1
  3
ACAD_SORTENTS
360
4A0
  0
DICTIONARY
  5
30
102
{ACAD_REACTORS
330
9
102
}
330
9
100
AcDbDictionary
281
     1
  0
DICTIONARY
  5
2E
102
{ACAD_REACTORS
330
9
102
}
330
9
100
AcDbDictionary
281
     1
  0
DICTIONARY
  5
24
102
{ACAD_REACTORS
330
9
102
}
330
9
100
AcDbDictionary
281
     1
  3
Model
350
23
  3
ﾚｲｱｳﾄ1
350
2A
  0
DICTIONARY
  5
B
102
{ACAD_REACTORS
330
9
102
}
330
9
100
AcDbDictionary
281
     1
  3
ByBlock
350
58
  3
ByLayer
350
14
  3
Global
350
A
  0
DICTIONARY
  5
43C
102
{ACAD_REACTORS
330
9
102
}
330
9
100
AcDbDictionary
281
     1
  3
Standard
350
475
  0
DICTIONARY
  5
19
102
{ACAD_REACTORS
330
9
102
}
330
9
100
AcDbDictionary
281
     1
  3
STANDARD
350
18
  0
DICTIONARY
  5
2F
102
{ACAD_REACTORS
330
9
102
}
330
9
100
AcDbDictionary
281
     1
  0
ACDBDICTIONARYWDFLT
  5
8
102
{ACAD_REACTORS
330
9
102
}
330
9
100
AcDbDictionary
281
     1
  3
Normal
350
7
100
AcDbDictionaryWithDefault
340
7
  0
DICTIONARY
  5
35
102
{ACAD_REACTORS
330
9
102
}
330
9
100
AcDbDictionary
281
     1
  3
*A1
350
57
  3
*A10
350
47F
  3
*A11
350
480
  3
*A12
350
481
  3
*A13
350
482
  3
*A14
350
483
  3
*A15
350
484
  3
*A16
350
485
  3
*A17
350
486
  3
*A2
350
477
  3
*A3
350
478
  3
*A4
350
479
  3
*A5
350
47A
  3
*A6
350
47B
  3
*A7
350
47C
  3
*A8
350
47D
  3
*A9
350
47E
  0
DICTIONARY
  5
43B
102
{ACAD_REACTORS
330
9
102
}
330
9
100
AcDbDictionary
281
     1
  3
Standard
350
474
  0
DICTIONARY
  5
31
102
{ACAD_REACTORS
330
9
102
}
330
9
100
AcDbDictionary
281
     1
  3
2dWireframe
350
444
  3
Basic
350
447
  3
Brighten
350
44B
  3
ColorChange
350
44F
  3
Conceptual
350
449
  3
Dim
350
44A
  3
EdgeColorOff
350
452
  3
Facepattern
350
44E
  3
Flat
350
440
  3
FlatWithEdges
350
441
  3
Gouraud
350
442
  3
GouraudWithEdges
350
443
  3
Hidden
350
446
  3
JitterOff
350
450
  3
Linepattern
350
44D
  3
OverhangOff
350
451
  3
Realistic
350
448
  3
Shaded
350
457
  3
Shaded with edges
350
456
  3
Shades of Gray
350
453
  3
Sketchy
350
454
  3
Thicken
350
44C
  3
Wireframe
350
445
  3
X-Ray
350
455
  0
DICTIONARY
  5
8B2
102
{ACAD_REACTORS
330
9
102
}
330
9
100
AcDbDictionary
281
     1
  3
COLORDICT
350
8B3
  3
MATERIALDICT
350
8B4
  0
DICTIONARY
  5
439
102
{ACAD_REACTORS
330
9
102
}
330
9
100
AcDbDictionary
281
     1
  3
CANNOSCALE
350
43A
  3
CTABLESTYLE
350
8AF
  3
DIMASSOC
350
8B0
  3
HIDETEXT
350
8B1
  3
MSLTSCALE
350
8B8
  3
XCLIPFRAME
350
43D
  0
XRECORD
  5
8B5
102
{ACAD_REACTORS
330
9
102
}
330
9
100
AcDbXrecord
280
     1
  1
DWGPROPS COOKIE
  2

  3

  4

  6

  7

  8
sg-d04
  9

300
=
301
=
302
=
303
=
304
=
305
=
306
=
307
=
308
=
309
=
 40
0.0
 41
2457534.32476647
 42
2457870.217925197
  1

 90
        0
  0
XRECORD
  5
8B7
102
{ACAD_REACTORS
330
8B6
102
}
330
8B6
100
AcDbXrecord
280
     1
102
VTR_0.000_0.000_1.000_1.000_VISUALSTYLE
340
444
102
VTR_0.000_0.000_1.000_1.000_GRIDDISPLAY
 70
     3
102
VTR_0.000_0.000_1.000_1.000_GRIDMAJOR
 70
     5
102
VTR_0.000_0.000_1.000_1.000_DEFAULTLIGHTING
280
     1
102
VTR_0.000_0.000_1.000_1.000_DEFAULTLIGHTINGTYPE
 70
     1
102
VTR_0.000_0.000_1.000_1.000_BRIGHTNESS
141
0.0
102
VTR_0.000_0.000_1.000_1.000_CONTRAST
142
0.0
  0
DICTIONARY
  5
4
102
{ACAD_REACTORS
330
3
102
}
330
3
100
AcDbDictionary
281
     1
  0
XRECORD
  5
21
102
{ACAD_REACTORS
330
20
102
}
330
20
100
AcDbXrecord
280
     1
290
     1
  0
XRECORD
  5
F5
102
{ACAD_REACTORS
330
F4
102
}
330
F4
100
AcDbXrecord
280
     1
290
     1
  0
XRECORD
  5
6
102
{ACAD_REACTORS
330
5
102
}
330
5
100
AcDbXrecord
280
     1
290
     1
  0
XRECORD
  5
5C
102
{ACAD_REACTORS
330
5B
102
}
330
5B
100
AcDbXrecord
280
     1
290
     1
  0
XRECORD
  5
BB
102
{ACAD_REACTORS
330
BA
102
}
330
BA
100
AcDbXrecord
280
     1
290
     1
  0
XRECORD
  5
EB
102
{ACAD_REACTORS
330
EA
102
}
330
EA
100
AcDbXrecord
280
     1
290
     1
  0
XRECORD
  5
81
102
{ACAD_REACTORS
330
80
102
}
330
80
100
AcDbXrecord
280
     1
290
     1
  0
SORTENTSTABLE
  5
1D
102
{ACAD_REACTORS
330
1C
102
}
330
1C
100
AcDbSortentsTable
330
1B
331
0
  5
3DD
331
3DD
  5
3DE
331
3DE
  5
3E0
331
3DF
  5
3E1
331
3E0
  5
3E2
331
3E1
  5
3E3
331
3E2
  5
3E4
331
3E3
  5
3E5
331
3E4
  5
3E7
331
3E5
  5
3E8
331
3E7
  5
3E9
331
3E8
  5
3EA
331
3E9
  5
3EB
331
3EA
  5
3EC
331
3EB
  5
3ED
331
42B
  5
42D
331
42C
  5
42E
331
42D
  5
42F
331
42E
  5
430
331
42F
  5
431
331
430
  5
432
331
431
  5
433
331
78F
  5
791
331
790
  5
792
331
791
  5
793
331
792
  5
794
331
793
  5
795
331
794
  5
796
331
795
  5
797
331
796
  5
798
331
797
  5
799
331
798
  5
79A
331
799
  5
79B
331
79A
  5
79C
331
79B
  5
79D
331
79C
  5
79E
331
79D
  5
79F
331
79E
  5
7A1
331
79F
  5
7A2
331
7A1
  5
7A3
331
7A2
  5
7A4
331
7A3
  5
7A5
331
7A4
  5
7A6
331
7A5
  5
7A7
331
7A6
  5
7A9
331
7A7
  5
828
331
7A9
  5
829
  0
SORTENTSTABLE
  5
4A0
102
{ACAD_REACTORS
330
49F
102
}
330
49F
100
AcDbSortentsTable
330
458
  0
LAYOUT
  5
23
102
{ACAD_REACTORS
330
24
102
}
102
{ACAD_XDICTIONARY
360
25
102
}
330
24
100
AcDbPlotSettings
  1

  2
Bullzip PDF Printer.pc3
  4
A3
  6

 40
0.2
 41
0.0
 42
0.0
 43
0.0
 44
420.2
 45
297.1
 46
25.0
 47
12.0
 48
45.99999982066663
 49
10.0
140
809.9999980706668
141
554.9999987283333
142
1.0
143
2.0
 70
 11936
 72
     1
 73
     0
 74
     4
  7
monochrome.ctb
 75
    17
147
0.5
148
-45.99999982066663
149
-10.0
100
AcDbLayout
  1
Model
 70
     1
 71
     0
 10
0.0
 20
0.0
 11
12.0
 21
9.0
 12
0.0
 22
0.0
 32
0.0
 14
136.228038363087
 24
27.09771502652097
 34
0.0
 15
678.077878433096
 25
560.1943425227473
 35
0.0
146
0.0
 13
0.0
 23
0.0
 33
0.0
 16
1.0
 26
0.0
 36
0.0
 17
0.0
 27
1.0
 37
0.0
 76
     0
330
1B
331
32
1001
ACAD_PSEXT
1000
Bullzip PDF Printer.pc3
1000
Bullzip PDF Printer
1000
BULLZIP
1000
Bullzip PDF Printer 10.1.0.1871
1070
     0
  0
LAYOUT
  5
2A
102
{ACAD_REACTORS
330
24
102
}
330
24
100
AcDbPlotSettings
  1

  2
C:\Program Files\ACAD LT 2000\plotters\Draftpro-DXL (7575A).pc3
  4

  6

 40
0.0
 41
0.0
 42
0.0
 43
0.0
 44
0.0
 45
0.0
 46
0.0
 47
0.0
 48
0.0
 49
0.0
140
0.0
141
0.0
142
1.0
143
1.0
 70
   688
 72
     0
 73
     0
 74
     5
  7
monochrome.ctb
 75
    16
147
1.0
148
0.0
149
0.0
100
AcDbLayout
  1
ﾚｲｱｳﾄ1
 70
     1
 71
     1
 10
0.0
 20
0.0
 11
12.0
 21
9.0
 12
0.0
 22
0.0
 32
0.0
 14
1.000000000000000E+20
 24
1.000000000000000E+20
 34
1.000000000000000E+20
 15
-1.000000000000000E+20
 25
-1.000000000000000E+20
 35
-1.000000000000000E+20
146
0.0
 13
0.0
 23
0.0
 33
0.0
 16
1.0
 26
0.0
 36
0.0
 17
0.0
 27
1.0
 37
0.0
 76
     0
330
27
  0
MATERIAL
  5
58
102
{ACAD_REACTORS
330
B
102
}
102
{ACAD_XDICTIONARY
360
8BD
102
}
330
B
100
AcDbMaterial
  1
ByBlock
 72
     0
 73
     2
 43
0.0208333333333333
 43
0.0
 43
0.0
 43
0.0
 43
0.0
 43
0.0208333333333333
 43
0.0
 43
0.0
 43
0.0
 43
0.0
 43
1.0
 43
0.0
 43
0.0
 43
0.0
 43
0.0
 43
1.0
 77
     0
 78
     2
 47
0.0208333333333333
 47
0.0
 47
0.0
 47
0.0
 47
0.0
 47
0.0208333333333333
 47
0.0
 47
0.0
 47
0.0
 47
0.0
 47
1.0
 47
0.0
 47
0.0
 47
0.0
 47
0.0
 47
1.0
171
     0
172
     2
 49
0.0208333333333333
 49
0.0
 49
0.0
 49
0.0
 49
0.0
 49
0.0208333333333333
 49
0.0
 49
0.0
 49
0.0
 49
0.0
 49
1.0
 49
0.0
 49
0.0
 49
0.0
 49
0.0
 49
1.0
175
     0
176
     2
142
0.0208333333333333
142
0.0
142
0.0
142
0.0
142
0.0
142
0.0208333333333333
142
0.0
142
0.0
142
0.0
142
0.0
142
1.0
142
0.0
142
0.0
142
0.0
142
0.0
142
1.0
179
     0
270
     2
144
0.0208333333333333
144
0.0
144
0.0
144
0.0
144
0.0
144
0.0208333333333333
144
0.0
144
0.0
144
0.0
144
0.0
144
1.0
144
0.0
144
0.0
144
0.0
144
0.0
144
1.0
274
     2
147
0.0208333333333333
147
0.0
147
0.0
147
0.0
147
0.0
147
0.0208333333333333
147
0.0
147
0.0
147
0.0
147
0.0
147
1.0
147
0.0
147
0.0
147
0.0
147
0.0
147
1.0
  0
MATERIAL
  5
14
102
{ACAD_REACTORS
330
B
102
}
102
{ACAD_XDICTIONARY
360
8B9
102
}
330
B
100
AcDbMaterial
  1
ByLayer
 72
     0
 73
     2
 43
0.0208333333333333
 43
0.0
 43
0.0
 43
0.0
 43
0.0
 43
0.0208333333333333
 43
0.0
 43
0.0
 43
0.0
 43
0.0
 43
1.0
 43
0.0
 43
0.0
 43
0.0
 43
0.0
 43
1.0
 77
     0
 78
     2
 47
0.0208333333333333
 47
0.0
 47
0.0
 47
0.0
 47
0.0
 47
0.0208333333333333
 47
0.0
 47
0.0
 47
0.0
 47
0.0
 47
1.0
 47
0.0
 47
0.0
 47
0.0
 47
0.0
 47
1.0
171
     0
172
     2
 49
0.0208333333333333
 49
0.0
 49
0.0
 49
0.0
 49
0.0
 49
0.0208333333333333
 49
0.0
 49
0.0
 49
0.0
 49
0.0
 49
1.0
 49
0.0
 49
0.0
 49
0.0
 49
0.0
 49
1.0
175
     0
176
     2
142
0.0208333333333333
142
0.0
142
0.0
142
0.0
142
0.0
142
0.0208333333333333
142
0.0
142
0.0
142
0.0
142
0.0
142
1.0
142
0.0
142
0.0
142
0.0
142
0.0
142
1.0
179
     0
270
     2
144
0.0208333333333333
144
0.0
144
0.0
144
0.0
144
0.0
144
0.0208333333333333
144
0.0
144
0.0
144
0.0
144
0.0
144
1.0
144
0.0
144
0.0
144
0.0
144
0.0
144
1.0
274
     2
147
0.0208333333333333
147
0.0
147
0.0
147
0.0
147
0.0
147
0.0208333333333333
147
0.0
147
0.0
147
0.0
147
0.0
147
1.0
147
0.0
147
0.0
147
0.0
147
0.0
147
1.0
  0
MATERIAL
  5
A
102
{ACAD_REACTORS
330
B
102
}
102
{ACAD_XDICTIONARY
360
8BB
102
}
330
B
100
AcDbMaterial
  1
Global
 72
     0
 73
     2
 43
0.0208333333333333
 43
0.0
 43
0.0
 43
0.0
 43
0.0
 43
0.0208333333333333
 43
0.0
 43
0.0
 43
0.0
 43
0.0
 43
1.0
 43
0.0
 43
0.0
 43
0.0
 43
0.0
 43
1.0
 77
     0
 78
     2
 47
0.0208333333333333
 47
0.0
 47
0.0
 47
0.0
 47
0.0
 47
0.0208333333333333
 47
0.0
 47
0.0
 47
0.0
 47
0.0
 47
1.0
 47
0.0
 47
0.0
 47
0.0
 47
0.0
 47
1.0
171
     0
172
     2
 49
0.0208333333333333
 49
0.0
 49
0.0
 49
0.0
 49
0.0
 49
0.0208333333333333
 49
0.0
 49
0.0
 49
0.0
 49
0.0
 49
1.0
 49
0.0
 49
0.0
 49
0.0
 49
0.0
 49
1.0
175
     0
176
     2
142
0.0208333333333333
142
0.0
142
0.0
142
0.0
142
0.0
142
0.0208333333333333
142
0.0
142
0.0
142
0.0
142
0.0
142
1.0
142
0.0
142
0.0
142
0.0
142
0.0
142
1.0
179
     0
270
     2
144
0.0208333333333333
144
0.0
144
0.0
144
0.0
144
0.0
144
0.0208333333333333
144
0.0
144
0.0
144
0.0
144
0.0
144
1.0
144
0.0
144
0.0
144
0.0
144
0.0
144
1.0
274
     2
147
0.0208333333333333
147
0.0
147
0.0
147
0.0
147
0.0
147
0.0208333333333333
147
0.0
147
0.0
147
0.0
147
0.0
147
1.0
147
0.0
147
0.0
147
0.0
147
0.0
147
1.0
1001
ACAD
1070
    -1
1070
     3
1070
     0
1000

1071
        0
  0
MLEADERSTYLE
  5
475
102
{ACAD_REACTORS
330
43C
102
}
102
{ACAD_XDICTIONARY
360
8EF
102
}
330
43C
100
AcDbMLeaderStyle
170
     2
171
     1
172
     0
 90
        2
 40
0.0
 41
0.0
173
     1
 91
-1056964608
340
10
 92
       -2
290
     1
 42
0.09
291
     1
 43
0.36
  3
Standard
341
0
 44
0.18
300

342
17
174
     1
178
     6
175
     1
176
     0
 93
-1056964608
 45
0.18
292
     0
297
     0
 46
0.18
343
0
 94
-1056964608
 47
1.0
 49
1.0
140
1.0
293
     1
141
0.0
294
     1
177
     0
142
1.0
295
     0
296
     0
143
0.125
1001
ACAD_MLEADERVER
1070
     2
  0
MLINESTYLE
  5
18
102
{ACAD_REACTORS
330
19
102
}
330
19
100
AcDbMlineStyle
  2
STANDARD
 70
     0
  3

 62
     0
 51
90.0
 52
90.0
 71
     2
 49
0.5
 62
   256
  6
BYLAYER
 49
-0.5
 62
   256
  6
BYLAYER
  0
ACDBPLACEHOLDER
  5
7
102
{ACAD_REACTORS
330
8
102
}
330
8
  0
SCALE
  5
57
102
{ACAD_REACTORS
330
35
102
}
330
35
100
AcDbScale
 70
     0
300
1:1
140
1.0
141
1.0
290
     1
  0
SCALE
  5
47F
102
{ACAD_REACTORS
330
35
102
}
330
35
100
AcDbScale
 70
     0
300
3/8" = 1'-0"
140
0.375
141
12.0
290
     0
  0
SCALE
  5
480
102
{ACAD_REACTORS
330
35
102
}
330
35
100
AcDbScale
 70
     0
300
1/2" = 1'-0"
140
0.5
141
12.0
290
     0
  0
SCALE
  5
481
102
{ACAD_REACTORS
330
35
102
}
330
35
100
AcDbScale
 70
     0
300
3/4" = 1'-0"
140
0.75
141
12.0
290
     0
  0
SCALE
  5
482
102
{ACAD_REACTORS
330
35
102
}
330
35
100
AcDbScale
 70
     0
300
1" = 1'-0"
140
1.0
141
12.0
290
     0
  0
SCALE
  5
483
102
{ACAD_REACTORS
330
35
102
}
330
35
100
AcDbScale
 70
     0
300
1-1/2" = 1'-0"
140
1.5
141
12.0
290
     0
  0
SCALE
  5
484
102
{ACAD_REACTORS
330
35
102
}
330
35
100
AcDbScale
 70
     0
300
3" = 1'-0"
140
3.0
141
12.0
290
     0
  0
SCALE
  5
485
102
{ACAD_REACTORS
330
35
102
}
330
35
100
AcDbScale
 70
     0
300
6" = 1'-0"
140
6.0
141
12.0
290
     0
  0
SCALE
  5
486
102
{ACAD_REACTORS
330
35
102
}
330
35
100
AcDbScale
 70
     0
300
1'-0" = 1'-0"
140
12.0
141
12.0
290
     0
  0
SCALE
  5
477
102
{ACAD_REACTORS
330
35
102
}
330
35
100
AcDbScale
 70
     0
300
1/128" = 1'-0"
140
0.0078125
141
12.0
290
     0
  0
SCALE
  5
478
102
{ACAD_REACTORS
330
35
102
}
330
35
100
AcDbScale
 70
     0
300
1/64" = 1'-0"
140
0.015625
141
12.0
290
     0
  0
SCALE
  5
479
102
{ACAD_REACTORS
330
35
102
}
330
35
100
AcDbScale
 70
     0
300
1/32" = 1'-0"
140
0.03125
141
12.0
290
     0
  0
SCALE
  5
47A
102
{ACAD_REACTORS
330
35
102
}
330
35
100
AcDbScale
 70
     0
300
1/16" = 1'-0"
140
0.0625
141
12.0
290
     0
  0
SCALE
  5
47B
102
{ACAD_REACTORS
330
35
102
}
330
35
100
AcDbScale
 70
     0
300
3/32" = 1'-0"
140
0.09375
141
12.0
290
     0
  0
SCALE
  5
47C
102
{ACAD_REACTORS
330
35
102
}
330
35
100
AcDbScale
 70
     0
300
1/8" = 1'-0"
140
0.125
141
12.0
290
     0
  0
SCALE
  5
47D
102
{ACAD_REACTORS
330
35
102
}
330
35
100
AcDbScale
 70
     0
300
3/16" = 1'-0"
140
0.1875
141
12.0
290
     0
  0
SCALE
  5
47E
102
{ACAD_REACTORS
330
35
102
}
330
35
100
AcDbScale
 70
     0
300
1/4" = 1'-0"
140
0.25
141
12.0
290
     0
  0
TABLESTYLE
  5
474
102
{ACAD_REACTORS
330
43B
102
}
330
43B
100
AcDbTableStyle
  3
Standard
 70
     0
 71
     0
 40
0.06
 41
0.06
280
     0
281
     0
  7
STANDARD
140
0.18
170
     2
 62
     0
 63
   257
283
     0
274
    -2
284
     1
 64
     0
275
    -2
285
     1
 65
     0
276
    -2
286
     1
 66
     0
277
    -2
287
     1
 67
     0
278
    -2
288
     1
 68
     0
279
    -2
289
     1
 69
     0
  7
STANDARD
140
0.25
170
     5
 62
     0
 63
   257
283
     0
274
    -2
284
     1
 64
     0
275
    -2
285
     1
 65
     0
276
    -2
286
     1
 66
     0
277
    -2
287
     1
 67
     0
278
    -2
288
     1
 68
     0
279
    -2
289
     1
 69
     0
  7
STANDARD
140
0.18
170
     5
 62
     0
 63
   257
283
     0
274
    -2
284
     1
 64
     0
275
    -2
285
     1
 65
     0
276
    -2
286
     1
 66
     0
277
    -2
287
     1
 67
     0
278
    -2
288
     1
 68
     0
279
    -2
289
     1
 69
     0
  0
VISUALSTYLE
  5
444
102
{ACAD_REACTORS
330
31
102
}
102
{ACAD_XDICTIONARY
360
8C7
102
}
330
31
100
AcDbVisualStyle
  2
2dWireframe
 70
     4
 71
     0
 72
     2
 73
     0
 90
        0
 40
0.6
 41
30.0
 62
     5
 63
     7
 74
     1
 91
        4
 64
     7
 65
   257
 75
     1
175
     1
 42
1.0
 92
        0
 66
   257
 43
1.0
 76
     1
 77
     6
 78
     2
 67
     7
 79
     5
170
     0
171
     0
290
     0
174
     0
 93
        1
 44
0.0
173
     0
291
     0
 45
0.0
1001
ACAD
1000
AcDbSavedByObjectVersion
1070
     0
  0
VISUALSTYLE
  5
447
102
{ACAD_REACTORS
330
31
102
}
102
{ACAD_XDICTIONARY
360
8CD
102
}
330
31
100
AcDbVisualStyle
  2
Basic
 70
     7
 71
     1
 72
     0
 73
     1
 90
        0
 40
0.6
 41
30.0
 62
     5
 63
     7
 74
     0
 91
        4
 64
     7
 65
   257
 75
     1
175
     1
 42
1.0
 92
        8
 66
     7
 43
1.0
 76
     1
 77
     6
 78
     2
 67
     7
 79
     5
170
     0
171
     0
290
     0
174
     0
 93
        1
 44
0.0
173
     0
291
     1
 45
0.0
1001
ACAD
1000
AcDbSavedByObjectVersion
1070
     0
  0
VISUALSTYLE
  5
44B
102
{ACAD_REACTORS
330
31
102
}
102
{ACAD_XDICTIONARY
360
8D5
102
}
330
31
100
AcDbVisualStyle
  2
Brighten
 70
    12
 71
     2
 72
     2
 73
     0
 90
        0
 40
0.6
 41
30.0
 62
     5
 63
     7
 74
     1
 91
        4
 64
     7
 65
   257
 75
     1
175
     1
 42
1.0
 92
        8
 66
     7
 43
1.0
 76
     1
 77
     6
 78
     2
 67
     7
 79
     5
170
     0
171
     0
290
     0
174
     0
 93
        1
 44
50.0
173
     0
291
     1
 45
0.0
1001
ACAD
1000
AcDbSavedByObjectVersion
1070
     0
  0
VISUALSTYLE
  5
44F
102
{ACAD_REACTORS
330
31
102
}
102
{ACAD_XDICTIONARY
360
8DD
102
}
330
31
100
AcDbVisualStyle
  2
ColorChange
 70
    16
 71
     2
 72
     2
 73
     3
 90
        0
 40
0.6
 41
30.0
 62
     5
 63
     8
 74
     1
 91
        4
 64
     7
 65
   257
 75
     1
175
     1
 42
1.0
 92
        8
 66
     8
 43
1.0
 76
     1
 77
     6
 78
     2
 67
     7
 79
     5
170
     0
171
     0
290
     0
174
     0
 93
        1
 44
0.0
173
     0
291
     1
 45
0.0
1001
ACAD
1000
AcDbSavedByObjectVersion
1070
     0
  0
VISUALSTYLE
  5
449
102
{ACAD_REACTORS
330
31
102
}
102
{ACAD_XDICTIONARY
360
8D1
102
}
330
31
100
AcDbVisualStyle
  2
Conceptual
 70
     9
 71
     3
 72
     2
 73
     0
 90
        0
 40
0.6
 41
30.0
 62
     5
 63
     7
 74
     2
 91
        2
 64
     7
 65
   257
 75
     1
175
     1
 42
40.0
 92
        8
 66
     7
 43
1.0
 76
     1
 77
     6
 78
     2
 67
     7
 79
     3
170
     0
171
     0
290
     0
174
     0
 93
        1
 44
0.0
173
     0
291
     0
 45
0.0
1001
ACAD
1000
AcDbSavedByObjectVersion
1070
     0
  0
VISUALSTYLE
  5
44A
102
{ACAD_REACTORS
330
31
102
}
102
{ACAD_XDICTIONARY
360
8D3
102
}
330
31
100
AcDbVisualStyle
  2
Dim
 70
    11
 71
     2
 72
     2
 73
     0
 90
        0
 40
0.6
 41
30.0
 62
     5
 63
     7
 74
     1
 91
        4
 64
     7
 65
   257
 75
     1
175
     1
 42
1.0
 92
        8
 66
     7
 43
1.0
 76
     1
 77
     6
 78
     2
 67
     7
 79
     5
170
     0
171
     0
290
     0
174
     0
 93
        1
 44
-50.0
173
     0
291
     1
 45
0.0
1001
ACAD
1000
AcDbSavedByObjectVersion
1070
     0
  0
VISUALSTYLE
  5
452
102
{ACAD_REACTORS
330
31
102
}
102
{ACAD_XDICTIONARY
360
8E3
102
}
330
31
100
AcDbVisualStyle
  2
EdgeColorOff
 70
    22
 71
     2
 72
     2
 73
     0
 90
        0
 40
0.6
 41
30.0
 62
     5
 63
     7
 74
     1
 91
        4
 64
     7
 65
   257
 75
     1
175
     1
 42
1.0
 92
        8
 66
     7
 43
1.0
 76
     1
 77
     6
 78
     2
 67
     7
 79
     5
170
     0
171
     0
290
     0
174
     0
 93
        1
 44
0.0
173
     0
291
     1
 45
0.0
1001
ACAD
1000
AcDbSavedByObjectVersion
1070
     0
  0
VISUALSTYLE
  5
44E
102
{ACAD_REACTORS
330
31
102
}
102
{ACAD_XDICTIONARY
360
8DB
102
}
330
31
100
AcDbVisualStyle
  2
Facepattern
 70
    15
 71
     2
 72
     2
 73
     0
 90
        0
 40
0.6
 41
30.0
 62
     5
 63
     7
 74
     1
 91
        4
 64
     7
 65
   257
 75
     1
175
     1
 42
1.0
 92
        8
 66
     7
 43
1.0
 76
     1
 77
     6
 78
     2
 67
     7
 79
     5
170
     0
171
     0
290
     0
174
     0
 93
        1
 44
0.0
173
     0
291
     1
 45
0.0
1001
ACAD
1000
AcDbSavedByObjectVersion
1070
     0
  0
VISUALSTYLE
  5
440
102
{ACAD_REACTORS
330
31
102
}
102
{ACAD_XDICTIONARY
360
8BF
102
}
330
31
100
AcDbVisualStyle
  2
Flat
 70
     0
 71
     2
 72
     1
 73
     1
 90
        2
 40
0.6
 41
30.0
 62
     5
 63
     7
 74
     0
 91
        4
 64
     7
 65
   257
 75
     1
175
     1
 42
1.0
 92
        8
 66
     7
 43
1.0
 76
     1
 77
     6
 78
     2
 67
     7
 79
     5
170
     0
171
     0
290
     0
174
     0
 93
       13
 44
0.0
173
     0
291
     1
 45
0.0
1001
ACAD
1000
AcDbSavedByObjectVersion
1070
     0
  0
VISUALSTYLE
  5
441
102
{ACAD_REACTORS
330
31
102
}
102
{ACAD_XDICTIONARY
360
8C1
102
}
330
31
100
AcDbVisualStyle
  2
FlatWithEdges
 70
     1
 71
     2
 72
     1
 73
     1
 90
        2
 40
0.6
 41
30.0
 62
     5
 63
     7
 74
     1
 91
        4
 64
     7
 65
   257
 75
     1
175
     1
 42
1.0
 92
        0
 66
   257
 43
1.0
 76
     1
 77
     6
 78
     2
 67
     7
 79
     5
170
     0
171
     0
290
     0
174
     0
 93
       13
 44
0.0
173
     0
291
     1
 45
0.0
1001
ACAD
1000
AcDbSavedByObjectVersion
1070
     0
  0
VISUALSTYLE
  5
442
102
{ACAD_REACTORS
330
31
102
}
102
{ACAD_XDICTIONARY
360
8C3
102
}
330
31
100
AcDbVisualStyle
  2
Gouraud
 70
     2
 71
     2
 72
     2
 73
     1
 90
        2
 40
0.6
 41
30.0
 62
     5
 63
     7
 74
     0
 91
        4
 64
     7
 65
   257
 75
     1
175
     1
 42
1.0
 92
        0
 66
     7
 43
1.0
 76
     1
 77
     6
 78
     2
 67
     7
 79
     5
170
     0
171
     0
290
     0
174
     0
 93
       13
 44
0.0
173
     0
291
     1
 45
0.0
1001
ACAD
1000
AcDbSavedByObjectVersion
1070
     0
  0
VISUALSTYLE
  5
443
102
{ACAD_REACTORS
330
31
102
}
102
{ACAD_XDICTIONARY
360
8C5
102
}
330
31
100
AcDbVisualStyle
  2
GouraudWithEdges
 70
     3
 71
     2
 72
     2
 73
     1
 90
        2
 40
0.6
 41
30.0
 62
     5
 63
     7
 74
     1
 91
        4
 64
     7
 65
   257
 75
     1
175
     1
 42
1.0
 92
        0
 66
   257
 43
1.0
 76
     1
 77
     6
 78
     2
 67
     7
 79
     5
170
     0
171
     0
290
     0
174
     0
 93
       13
 44
0.0
173
     0
291
     1
 45
0.0
1001
ACAD
1000
AcDbSavedByObjectVersion
1070
     0
  0
VISUALSTYLE
  5
446
102
{ACAD_REACTORS
330
31
102
}
102
{ACAD_XDICTIONARY
360
8CB
102
}
330
31
100
AcDbVisualStyle
  2
Hidden
 70
     6
 71
     1
 72
     2
 73
     2
 90
        0
 40
0.6
 41
30.0
 62
     5
 63
     7
 74
     2
 91
        2
 64
     7
 65
   257
 75
     2
175
     1
 42
40.0
 92
        0
 66
   257
 43
1.0
 76
     1
 77
     6
 78
     2
 67
     7
 79
     3
170
     0
171
     0
290
     0
174
     0
 93
        1
 44
0.0
173
     0
291
     0
 45
0.0
1001
ACAD
1000
AcDbSavedByObjectVersion
1070
     0
  0
VISUALSTYLE
  5
450
102
{ACAD_REACTORS
330
31
102
}
102
{ACAD_XDICTIONARY
360
8DF
102
}
330
31
100
AcDbVisualStyle
  2
JitterOff
 70
    20
 71
     2
 72
     2
 73
     0
 90
        0
 40
0.6
 41
30.0
 62
     5
 63
     7
 74
     1
 91
        4
 64
     7
 65
   257
 75
     1
175
     1
 42
1.0
 92
       10
 66
     7
 43
1.0
 76
     1
 77
     6
 78
     2
 67
     7
 79
     5
170
     0
171
     0
290
     0
174
     0
 93
        1
 44
0.0
173
     0
291
     1
 45
0.0
1001
ACAD
1000
AcDbSavedByObjectVersion
1070
     0
  0
VISUALSTYLE
  5
44D
102
{ACAD_REACTORS
330
31
102
}
102
{ACAD_XDICTIONARY
360
8D9
102
}
330
31
100
AcDbVisualStyle
  2
Linepattern
 70
    14
 71
     2
 72
     2
 73
     0
 90
        0
 40
0.6
 41
30.0
 62
     5
 63
     7
 74
     1
 91
        4
 64
     7
 65
   257
 75
     7
175
     7
 42
1.0
 92
        8
 66
     7
 43
1.0
 76
     1
 77
     6
 78
     2
 67
     7
 79
     5
170
     0
171
     0
290
     0
174
     0
 93
        1
 44
0.0
173
     0
291
     1
 45
0.0
1001
ACAD
1000
AcDbSavedByObjectVersion
1070
     0
  0
VISUALSTYLE
  5
451
102
{ACAD_REACTORS
330
31
102
}
102
{ACAD_XDICTIONARY
360
8E1
102
}
330
31
100
AcDbVisualStyle
  2
OverhangOff
 70
    21
 71
     2
 72
     2
 73
     0
 90
        0
 40
0.6
 41
30.0
 62
     5
 63
     7
 74
     1
 91
        4
 64
     7
 65
   257
 75
     1
175
     1
 42
1.0
 92
        9
 66
     7
 43
1.0
 76
     1
 77
     6
 78
     2
 67
     7
 79
     5
170
     0
171
     0
290
     0
174
     0
 93
        1
 44
0.0
173
     0
291
     1
 45
0.0
1001
ACAD
1000
AcDbSavedByObjectVersion
1070
     0
  0
VISUALSTYLE
  5
448
102
{ACAD_REACTORS
330
31
102
}
102
{ACAD_XDICTIONARY
360
8CF
102
}
330
31
100
AcDbVisualStyle
  2
Realistic
 70
     8
 71
     2
 72
     3
 73
     0
 90
        2
 40
0.6
 41
30.0
 62
     5
 63
     7
 74
     0
 91
        0
 64
     7
 65
   257
 75
     1
175
     1
 42
1.0
 92
        8
 66
   257
 43
1.0
 76
     1
 77
     6
 78
     2
 67
     7
 79
     3
170
     0
171
     0
290
     0
174
     0
 93
       13
 44
0.0
173
     0
291
     0
 45
0.0
1001
ACAD
1000
AcDbSavedByObjectVersion
1070
     0
  0
VISUALSTYLE
  5
457
102
{ACAD_REACTORS
330
31
102
}
102
{ACAD_XDICTIONARY
360
8ED
102
}
330
31
100
AcDbVisualStyle
  2
Shaded
 70
    27
 71
     2
 72
     2
 73
     1
 90
        2
 40
0.6
 41
30.0
 62
     5
 63
     7
 74
     0
 91
        4
 64
     7
 65
   257
 75
     1
175
     1
 42
1.0
 92
        8
 66
   257
 43
1.0
 76
     1
 77
     6
 78
     2
 67
   251
 79
     3
170
     0
171
     0
290
     0
174
     0
 93
        5
 44
0.0
173
     0
291
     0
 45
0.0
1001
ACAD
1000
AcDbSavedByObjectVersion
1070
     0
  0
VISUALSTYLE
  5
456
102
{ACAD_REACTORS
330
31
102
}
102
{ACAD_XDICTIONARY
360
8EB
102
}
330
31
100
AcDbVisualStyle
  2
Shaded with edges
 70
    26
 71
     2
 72
     2
 73
     1
 90
        2
 40
0.6
 41
30.0
 62
     5
 63
     7
 74
     1
 91
       10
 64
     7
 65
   257
 75
     2
175
     1
 42
1.0
 92
        8
 66
   257
 43
1.0
 76
     1
 77
     6
 78
     2
 67
     7
 79
     3
170
     0
171
     0
290
     0
174
     0
 93
        5
 44
0.0
173
     0
291
     0
 45
0.0
1001
ACAD
1000
AcDbSavedByObjectVersion
1070
     0
  0
VISUALSTYLE
  5
453
102
{ACAD_REACTORS
330
31
102
}
102
{ACAD_XDICTIONARY
360
8E5
102
}
330
31
100
AcDbVisualStyle
  2
Shades of Gray
 70
    23
 71
     2
 72
     2
 73
     3
 90
        0
 40
0.6
 41
30.0
 62
     5
 63
     7
 74
     2
 91
        2
 64
     7
 65
     7
 75
     1
175
     1
 42
40.0
 92
        8
 66
     7
 43
1.0
 76
     1
 77
     6
 78
     2
 67
     7
 79
     3
170
     0
171
     0
290
     0
174
     0
 93
        1
 44
0.0
173
     0
291
     0
 45
0.0
1001
ACAD
1000
AcDbSavedByObjectVersion
1070
     0
  0
VISUALSTYLE
  5
454
102
{ACAD_REACTORS
330
31
102
}
102
{ACAD_XDICTIONARY
360
8E7
102
}
330
31
100
AcDbVisualStyle
  2
Sketchy
 70
    24
 71
     1
 72
     2
 73
     2
 90
        0
 40
0.6
 41
30.0
 62
     5
 63
     7
 74
     2
 91
        2
 64
     7
 65
     7
 75
     1
175
     1
 42
40.0
 92
       11
 66
     7
 43
1.0
 76
     1
 77
     6
 78
     2
 67
     7
 79
     6
170
     0
171
     0
290
     0
174
     0
 93
        1
 44
0.0
173
     0
291
     0
 45
0.0
1001
ACAD
1000
AcDbSavedByObjectVersion
1070
     0
  0
VISUALSTYLE
  5
44C
102
{ACAD_REACTORS
330
31
102
}
102
{ACAD_XDICTIONARY
360
8D7
102
}
330
31
100
AcDbVisualStyle
  2
Thicken
 70
    13
 71
     2
 72
     2
 73
     0
 90
        0
 40
0.6
 41
30.0
 62
     5
 63
     7
 74
     1
 91
        4
 64
     7
 65
   257
 75
     1
175
     1
 42
1.0
 92
       12
 66
     7
 43
1.0
 76
     1
 77
     6
 78
     2
 67
     7
 79
     5
170
     0
171
     0
290
     0
174
     0
 93
        1
 44
0.0
173
     0
291
     1
 45
0.0
1001
ACAD
1000
AcDbSavedByObjectVersion
1070
     0
  0
VISUALSTYLE
  5
445
102
{ACAD_REACTORS
330
31
102
}
102
{ACAD_XDICTIONARY
360
8C9
102
}
330
31
100
AcDbVisualStyle
  2
Wireframe
 70
     5
 71
     0
 72
     2
 73
     0
 90
        0
 40
0.6
 41
30.0
 62
     5
 63
     7
 74
     1
 91
        4
 64
     7
 65
   257
 75
     1
175
     1
 42
1.0
 92
        0
 66
   257
 43
1.0
 76
     1
 77
     6
 78
     2
 67
     7
 79
     5
170
     0
171
     0
290
     0
174
     0
 93
        1
 44
0.0
173
     0
291
     0
 45
0.0
1001
ACAD
1000
AcDbSavedByObjectVersion
1070
     0
  0
VISUALSTYLE
  5
455
102
{ACAD_REACTORS
330
31
102
}
102
{ACAD_XDICTIONARY
360
8E9
102
}
330
31
100
AcDbVisualStyle
  2
X-Ray
 70
    25
 71
     2
 72
     2
 73
     1
 90
        1
 40
0.5
 41
30.0
 62
     5
 63
     7
 74
     1
 91
        0
 64
     7
 65
   257
 75
     1
175
     1
 42
1.0
 92
        8
 66
     7
 43
1.0
 76
     1
 77
     6
 78
     2
 67
     7
 79
     3
170
     0
171
     0
290
     0
174
     0
 93
       13
 44
0.0
173
     0
291
     0
 45
0.0
1001
ACAD
1000
AcDbSavedByObjectVersion
1070
     0
  0
XRECORD
  5
8B3
102
{ACAD_REACTORS
330
8B2
102
}
330
8B2
100
AcDbXrecord
280
     1
340
30
  0
XRECORD
  5
8B4
102
{ACAD_REACTORS
330
8B2
102
}
330
8B2
100
AcDbXrecord
280
     1
340
B
  0
DICTIONARYVAR
  5
43A
102
{ACAD_REACTORS
330
439
102
}
330
439
100
DictionaryVariables
280
     0
  1
1:1
  0
DICTIONARYVAR
  5
8AF
102
{ACAD_REACTORS
330
439
102
}
330
439
100
DictionaryVariables
280
     0
  1
Standard
  0
DICTIONARYVAR
  5
8B0
102
{ACAD_REACTORS
330
439
102
}
330
439
100
DictionaryVariables
280
     0
  1
0
  0
DICTIONARYVAR
  5
8B1
102
{ACAD_REACTORS
330
439
102
}
330
439
100
DictionaryVariables
280
     0
  1
0
  0
DICTIONARYVAR
  5
8B8
102
{ACAD_REACTORS
330
439
102
}
330
439
100
DictionaryVariables
280
     0
  1
1
  0
DICTIONARYVAR
  5
43D
102
{ACAD_REACTORS
330
439
102
}
330
439
100
DictionaryVariables
280
     0
  1
0
  0
DICTIONARY
  5
25
330
23
100
AcDbDictionary
280
     1
281
     1
  0
DICTIONARY
  5
8BD
330
58
100
AcDbDictionary
280
     1
281
     1
  3
ACAD_XREC_ROUNDTRIP
360
8BE
  0
DICTIONARY
  5
8B9
330
14
100
AcDbDictionary
280
     1
281
     1
  3
ACAD_XREC_ROUNDTRIP
360
8BA
  0
DICTIONARY
  5
8BB
330
A
100
AcDbDictionary
280
     1
281
     1
  3
ACAD_XREC_ROUNDTRIP
360
8BC
  0
DICTIONARY
  5
8EF
330
475
100
AcDbDictionary
280
     1
281
     1
  3
ACAD_XREC_ROUNDTRIP
360
8F0
  0
DICTIONARY
  5
8C7
330
444
100
AcDbDictionary
280
     1
281
     1
  3
ACAD_XREC_ROUNDTRIP
360
8C8
  0
DICTIONARY
  5
8CD
330
447
100
AcDbDictionary
280
     1
281
     1
  3
ACAD_XREC_ROUNDTRIP
360
8CE
  0
DICTIONARY
  5
8D5
330
44B
100
AcDbDictionary
280
     1
281
     1
  3
ACAD_XREC_ROUNDTRIP
360
8D6
  0
DICTIONARY
  5
8DD
330
44F
100
AcDbDictionary
280
     1
281
     1
  3
ACAD_XREC_ROUNDTRIP
360
8DE
  0
DICTIONARY
  5
8D1
330
449
100
AcDbDictionary
280
     1
281
     1
  3
ACAD_XREC_ROUNDTRIP
360
8D2
  0
DICTIONARY
  5
8D3
330
44A
100
AcDbDictionary
280
     1
281
     1
  3
ACAD_XREC_ROUNDTRIP
360
8D4
  0
DICTIONARY
  5
8E3
330
452
100
AcDbDictionary
280
     1
281
     1
  3
ACAD_XREC_ROUNDTRIP
360
8E4
  0
DICTIONARY
  5
8DB
330
44E
100
AcDbDictionary
280
     1
281
     1
  3
ACAD_XREC_ROUNDTRIP
360
8DC
  0
DICTIONARY
  5
8BF
330
440
100
AcDbDictionary
280
     1
281
     1
  3
ACAD_XREC_ROUNDTRIP
360
8C0
  0
DICTIONARY
  5
8C1
330
441
100
AcDbDictionary
280
     1
281
     1
  3
ACAD_XREC_ROUNDTRIP
360
8C2
  0
DICTIONARY
  5
8C3
330
442
100
AcDbDictionary
280
     1
281
     1
  3
ACAD_XREC_ROUNDTRIP
360
8C4
  0
DICTIONARY
  5
8C5
330
443
100
AcDbDictionary
280
     1
281
     1
  3
ACAD_XREC_ROUNDTRIP
360
8C6
  0
DICTIONARY
  5
8CB
330
446
100
AcDbDictionary
280
     1
281
     1
  3
ACAD_XREC_ROUNDTRIP
360
8CC
  0
DICTIONARY
  5
8DF
330
450
100
AcDbDictionary
280
     1
281
     1
  3
ACAD_XREC_ROUNDTRIP
360
8E0
  0
DICTIONARY
  5
8D9
330
44D
100
AcDbDictionary
280
     1
281
     1
  3
ACAD_XREC_ROUNDTRIP
360
8DA
  0
DICTIONARY
  5
8E1
330
451
100
AcDbDictionary
280
     1
281
     1
  3
ACAD_XREC_ROUNDTRIP
360
8E2
  0
DICTIONARY
  5
8CF
330
448
100
AcDbDictionary
280
     1
281
     1
  3
ACAD_XREC_ROUNDTRIP
360
8D0
  0
DICTIONARY
  5
8ED
330
457
100
AcDbDictionary
280
     1
281
     1
  3
ACAD_XREC_ROUNDTRIP
360
8EE
  0
DICTIONARY
  5
8EB
330
456
100
AcDbDictionary
280
     1
281
     1
  3
ACAD_XREC_ROUNDTRIP
360
8EC
  0
DICTIONARY
  5
8E5
330
453
100
AcDbDictionary
280
     1
281
     1
  3
ACAD_XREC_ROUNDTRIP
360
8E6
  0
DICTIONARY
  5
8E7
330
454
100
AcDbDictionary
280
     1
281
     1
  3
ACAD_XREC_ROUNDTRIP
360
8E8
  0
DICTIONARY
  5
8D7
330
44C
100
AcDbDictionary
280
     1
281
     1
  3
ACAD_XREC_ROUNDTRIP
360
8D8
  0
DICTIONARY
  5
8C9
330
445
100
AcDbDictionary
280
     1
281
     1
  3
ACAD_XREC_ROUNDTRIP
360
8CA
  0
DICTIONARY
  5
8E9
330
455
100
AcDbDictionary
280
     1
281
     1
  3
ACAD_XREC_ROUNDTRIP
360
8EA
  0
XRECORD
  5
8BE
102
{ACAD_REACTORS
330
8BD
102
}
330
8BD
100
AcDbXrecord
280
     1
102
MATERIAL
148
0.0
149
0.0
149
0.0
 93
        0
 94
      127
282
     0
 72
     0
 77
     0
171
     0
175
     0
179
     0
273
     0
  0
XRECORD
  5
8BA
102
{ACAD_REACTORS
330
8B9
102
}
330
8B9
100
AcDbXrecord
280
     1
102
MATERIAL
148
0.0
149
0.0
149
0.0
 93
        0
 94
      127
282
     0
 72
     0
 77
     0
171
     0
175
     0
179
     0
273
     0
  0
XRECORD
  5
8BC
102
{ACAD_REACTORS
330
8BB
102
}
330
8BB
100
AcDbXrecord
280
     1
102
MATERIAL
148
0.0
149
0.0
149
0.0
 93
        0
 94
      127
282
     0
 72
     0
 77
     0
171
     0
175
     0
179
     0
273
     0
  0
XRECORD
  5
8F0
102
{ACAD_REACTORS
330
8EF
102
}
330
8EF
100
AcDbXrecord
280
     1
102
ACAD_ROUNDTRIP_2012_MLEADER_STYLE
298
     1
  0
XRECORD
  5
8C8
102
{ACAD_REACTORS
330
8C7
102
}
330
8C7
100
AcDbXrecord
280
     1
102
RTVSPropertyOp0
 70
     1
102
RTVSPropertyOp1
 70
     1
102
RTVSPropertyOp2
 70
     1
102
RTVSPropertyOp3
 70
     1
102
RTVSPropertyOp4
 70
     1
102
RTVSPropertyOp5
 70
     1
102
RTVSPropertyOp6
 70
     1
102
RTVSPropertyOp7
 70
     1
102
RTVSPropertyOp8
 70
     1
102
RTVSPropertyOp9
 70
     1
102
RTVSPropertyOp10
 70
     1
102
RTVSPropertyOp11
 70
     1
102
RTVSPropertyOp12
 70
     1
102
RTVSPropertyOp13
 70
     1
102
RTVSPropertyOp14
 70
     1
102
RTVSPropertyOp15
 70
     1
102
RTVSPropertyOp16
 70
     1
102
RTVSPropertyOp17
 70
     1
102
RTVSPropertyOp18
 70
     1
102
RTVSPropertyOp19
 70
     1
102
RTVSPropertyOp20
 70
     1
102
RTVSPropertyOp21
 70
     1
102
RTVSPropertyOp22
 70
     1
102
RTVSPropertyOp23
 70
     1
102
RTVSPropertyOp24
 70
     1
102
RTVSPropertyOp25
 70
     1
102
RTVSPropertyOp26
 70
     1
102
RTVSPropertyOp27
 70
     1
102
RTVSPropertyOp28
 70
     1
102
RTVSPropertyOp29
 70
     1
102
RTVSPropertyOp30
 70
     1
102
RTVSPropertyOp31
 70
     1
102
RTVSPropertyOp32
 70
     1
102
RTVSPropertyOp33
 70
     1
102
RTVSPropertyOp34
 70
     1
102
RTVSPropertyOp35
 70
     1
102
RTVSPropertyOp36
 70
     1
102
RTVSPropertyOp37
 70
     1
102
RTVSPropertyOp38
 70
     1
102
RTVSPropertyOp39
 70
     1
102
RTVSPropertyOp40
 70
     1
102
RTVSPropertyOp41
 70
     1
102
RTVSPropertyOp42
 70
     1
102
RTVSPropertyOp43
 70
     1
102
RTVSPropertyOp44
 70
     1
102
RTVSPropertyOp45
 70
     1
102
RTVSPropertyOp46
 70
     1
102
RTVSPropertyOp47
 70
     1
102
RTVSPropertyOp48
 70
     1
102
RTVSPropertyOp49
 70
     1
102
RTVSPropertyOp50
 70
     1
102
RTVSPropertyOp51
 70
     0
102
RTVSPropertyOp52
 70
     0
102
RTVSPropertyOp53
 70
     1
102
RTVSPropertyOp54
 70
     1
102
RTVSPropertyOp55
 70
     1
102
RTVSPropertyOp56
 70
     1
102
RTVSPropertyOp57
 70
     1
102
RTVSPost2010Prop28
280
     1
102
RTVSPost2010PropOp28
 70
     1
102
RTVSPost2010Prop29
280
     1
102
RTVSPost2010PropOp29
 70
     1
102
RTVSPost2010Prop30
280
     0
102
RTVSPost2010PropOp30
 70
     1
102
RTVSPost2010Prop31
280
     0
102
RTVSPost2010PropOp31
 70
     1
102
RTVSPost2010Prop32
280
     0
102
RTVSPost2010PropOp32
 70
     1
102
RTVSPost2010Prop33
280
     0
102
RTVSPost2010PropOp33
 70
     1
102
RTVSPost2010Prop34
280
     0
102
RTVSPost2010PropOp34
 70
     1
102
RTVSPost2010Prop35
280
     0
102
RTVSPost2010PropOp35
 70
     1
102
RTVSPost2010Prop36
280
     0
102
RTVSPost2010PropOp36
 70
     1
102
RTVSPost2010Prop37
 90
       50
102
RTVSPost2010PropOp37
 70
     1
102
RTVSPost2010Prop38
140
0.0
102
RTVSPost2010PropOp38
 70
     1
102
RTVSPost2010Prop39
140
1.0
102
RTVSPost2010PropOp39
 70
     1
102
RTVSPost2010Prop40
 90
        0
102
RTVSPost2010PropOp40
 70
     1
102
RTVSPost2010Prop41ColorIndex
 90
       18
102
RTVSPost2010Prop41ColorRGB
 90
        0
102
RTVSPost2010PropOp41
 70
     1
102
RTVSPost2010Prop42
 90
       50
102
RTVSPost2010PropOp42
 70
     1
102
RTVSPost2010Prop43
 90
        3
102
RTVSPost2010PropOp43
 70
     1
102
RTVSPost2010Prop44ColorIndex
 90
        5
102
RTVSPost2010Prop44ColorRGB
 90
      255
102
RTVSPost2010PropOp44
 70
     1
102
RTVSPost2010Prop45
280
     0
102
RTVSPost2010PropOp45
 70
     1
102
RTVSPost2010Prop46
 90
       50
102
RTVSPost2010PropOp46
 70
     1
102
RTVSPost2010Prop47
 90
       50
102
RTVSPost2010PropOp47
 70
     1
102
RTVSPost2010Prop48
 90
       50
102
RTVSPost2010PropOp48
 70
     1
102
RTVSPost2010Prop49
280
     0
102
RTVSPost2010PropOp49
 70
     1
102
RTVSPost2010Prop50
 90
       50
102
RTVSPost2010PropOp50
 70
     1
102
RTVSPost2010Prop51ColorIndex
 90
      256
102
RTVSPost2010Prop51ColorRGB
 90
-16777216
102
RTVSPost2010PropOp51
 70
     0
102
RTVSPost2010Prop52
140
1.0
102
RTVSPost2010PropOp52
 70
     0
102
RTVSPost2010Prop53
 90
        2
102
RTVSPost2010PropOp53
 70
     1
102
RTVSPost2010Prop54
  1
strokes_ogs.tif
102
RTVSPost2010PropOp54
 70
     1
102
RTVSPost2010Prop55
280
     0
102
RTVSPost2010PropOp55
 70
     1
102
RTVSPost2010Prop56
140
1.0
102
RTVSPost2010PropOp56
 70
     1
102
RTVSPost2010Prop57
140
1.0
102
RTVSPost2010PropOp57
 70
     1
  0
XRECORD
  5
8CE
102
{ACAD_REACTORS
330
8CD
102
}
330
8CD
100
AcDbXrecord
280
     1
102
RTVSPropertyOp0
 70
     1
102
RTVSPropertyOp1
 70
     1
102
RTVSPropertyOp2
 70
     1
102
RTVSPropertyOp3
 70
     1
102
RTVSPropertyOp4
 70
     1
102
RTVSPropertyOp5
 70
     1
102
RTVSPropertyOp6
 70
     1
102
RTVSPropertyOp7
 70
     1
102
RTVSPropertyOp8
 70
     1
102
RTVSPropertyOp9
 70
     1
102
RTVSPropertyOp10
 70
     1
102
RTVSPropertyOp11
 70
     1
102
RTVSPropertyOp12
 70
     1
102
RTVSPropertyOp13
 70
     1
102
RTVSPropertyOp14
 70
     1
102
RTVSPropertyOp15
 70
     1
102
RTVSPropertyOp16
 70
     1
102
RTVSPropertyOp17
 70
     1
102
RTVSPropertyOp18
 70
     1
102
RTVSPropertyOp19
 70
     1
102
RTVSPropertyOp20
 70
     1
102
RTVSPropertyOp21
 70
     1
102
RTVSPropertyOp22
 70
     1
102
RTVSPropertyOp23
 70
     1
102
RTVSPropertyOp24
 70
     1
102
RTVSPropertyOp25
 70
     1
102
RTVSPropertyOp26
 70
     1
102
RTVSPropertyOp27
 70
     1
102
RTVSPropertyOp28
 70
     1
102
RTVSPropertyOp29
 70
     1
102
RTVSPropertyOp30
 70
     1
102
RTVSPropertyOp31
 70
     1
102
RTVSPropertyOp32
 70
     1
102
RTVSPropertyOp33
 70
     1
102
RTVSPropertyOp34
 70
     1
102
RTVSPropertyOp35
 70
     1
102
RTVSPropertyOp36
 70
     1
102
RTVSPropertyOp37
 70
     1
102
RTVSPropertyOp38
 70
     1
102
RTVSPropertyOp39
 70
     1
102
RTVSPropertyOp40
 70
     1
102
RTVSPropertyOp41
 70
     1
102
RTVSPropertyOp42
 70
     1
102
RTVSPropertyOp43
 70
     1
102
RTVSPropertyOp44
 70
     1
102
RTVSPropertyOp45
 70
     1
102
RTVSPropertyOp46
 70
     1
102
RTVSPropertyOp47
 70
     1
102
RTVSPropertyOp48
 70
     1
102
RTVSPropertyOp49
 70
     1
102
RTVSPropertyOp50
 70
     1
102
RTVSPropertyOp51
 70
     0
102
RTVSPropertyOp52
 70
     0
102
RTVSPropertyOp53
 70
     1
102
RTVSPropertyOp54
 70
     1
102
RTVSPropertyOp55
 70
     1
102
RTVSPropertyOp56
 70
     1
102
RTVSPropertyOp57
 70
     1
102
RTVSPost2010Prop28
280
     0
102
RTVSPost2010PropOp28
 70
     1
102
RTVSPost2010Prop29
280
     1
102
RTVSPost2010PropOp29
 70
     1
102
RTVSPost2010Prop30
280
     1
102
RTVSPost2010PropOp30
 70
     1
102
RTVSPost2010Prop31
280
     0
102
RTVSPost2010PropOp31
 70
     1
102
RTVSPost2010Prop32
280
     0
102
RTVSPost2010PropOp32
 70
     1
102
RTVSPost2010Prop33
280
     0
102
RTVSPost2010PropOp33
 70
     1
102
RTVSPost2010Prop34
280
     0
102
RTVSPost2010PropOp34
 70
     1
102
RTVSPost2010Prop35
280
     0
102
RTVSPost2010PropOp35
 70
     1
102
RTVSPost2010Prop36
280
     0
102
RTVSPost2010PropOp36
 70
     1
102
RTVSPost2010Prop37
 90
       50
102
RTVSPost2010PropOp37
 70
     1
102
RTVSPost2010Prop38
140
0.0
102
RTVSPost2010PropOp38
 70
     1
102
RTVSPost2010Prop39
140
1.0
102
RTVSPost2010PropOp39
 70
     1
102
RTVSPost2010Prop40
 90
        0
102
RTVSPost2010PropOp40
 70
     1
102
RTVSPost2010Prop41ColorIndex
 90
       18
102
RTVSPost2010Prop41ColorRGB
 90
        0
102
RTVSPost2010PropOp41
 70
     1
102
RTVSPost2010Prop42
 90
       50
102
RTVSPost2010PropOp42
 70
     1
102
RTVSPost2010Prop43
 90
        3
102
RTVSPost2010PropOp43
 70
     1
102
RTVSPost2010Prop44ColorIndex
 90
        5
102
RTVSPost2010Prop44ColorRGB
 90
      255
102
RTVSPost2010PropOp44
 70
     1
102
RTVSPost2010Prop45
280
     0
102
RTVSPost2010PropOp45
 70
     1
102
RTVSPost2010Prop46
 90
       50
102
RTVSPost2010PropOp46
 70
     1
102
RTVSPost2010Prop47
 90
       50
102
RTVSPost2010PropOp47
 70
     1
102
RTVSPost2010Prop48
 90
       50
102
RTVSPost2010PropOp48
 70
     1
102
RTVSPost2010Prop49
280
     0
102
RTVSPost2010PropOp49
 70
     1
102
RTVSPost2010Prop50
 90
       50
102
RTVSPost2010PropOp50
 70
     1
102
RTVSPost2010Prop51ColorIndex
 90
      256
102
RTVSPost2010Prop51ColorRGB
 90
-16777216
102
RTVSPost2010PropOp51
 70
     0
102
RTVSPost2010Prop52
140
1.0
102
RTVSPost2010PropOp52
 70
     0
102
RTVSPost2010Prop53
 90
        2
102
RTVSPost2010PropOp53
 70
     1
102
RTVSPost2010Prop54
  1
strokes_ogs.tif
102
RTVSPost2010PropOp54
 70
     1
102
RTVSPost2010Prop55
280
     0
102
RTVSPost2010PropOp55
 70
     1
102
RTVSPost2010Prop56
140
1.0
102
RTVSPost2010PropOp56
 70
     1
102
RTVSPost2010Prop57
140
1.0
102
RTVSPost2010PropOp57
 70
     1
  0
XRECORD
  5
8D6
102
{ACAD_REACTORS
330
8D5
102
}
330
8D5
100
AcDbXrecord
280
     1
102
RTVSPropertyOp0
 70
     1
102
RTVSPropertyOp1
 70
     1
102
RTVSPropertyOp2
 70
     1
102
RTVSPropertyOp3
 70
     1
102
RTVSPropertyOp4
 70
     1
102
RTVSPropertyOp5
 70
     1
102
RTVSPropertyOp6
 70
     1
102
RTVSPropertyOp7
 70
     1
102
RTVSPropertyOp8
 70
     1
102
RTVSPropertyOp9
 70
     1
102
RTVSPropertyOp10
 70
     1
102
RTVSPropertyOp11
 70
     1
102
RTVSPropertyOp12
 70
     1
102
RTVSPropertyOp13
 70
     1
102
RTVSPropertyOp14
 70
     1
102
RTVSPropertyOp15
 70
     1
102
RTVSPropertyOp16
 70
     1
102
RTVSPropertyOp17
 70
     1
102
RTVSPropertyOp18
 70
     1
102
RTVSPropertyOp19
 70
     1
102
RTVSPropertyOp20
 70
     1
102
RTVSPropertyOp21
 70
     1
102
RTVSPropertyOp22
 70
     1
102
RTVSPropertyOp23
 70
     1
102
RTVSPropertyOp24
 70
     1
102
RTVSPropertyOp25
 70
     1
102
RTVSPropertyOp26
 70
     1
102
RTVSPropertyOp27
 70
     1
102
RTVSPropertyOp28
 70
     1
102
RTVSPropertyOp29
 70
     1
102
RTVSPropertyOp30
 70
     1
102
RTVSPropertyOp31
 70
     1
102
RTVSPropertyOp32
 70
     1
102
RTVSPropertyOp33
 70
     1
102
RTVSPropertyOp34
 70
     1
102
RTVSPropertyOp35
 70
     1
102
RTVSPropertyOp36
 70
     1
102
RTVSPropertyOp37
 70
     1
102
RTVSPropertyOp38
 70
     1
102
RTVSPropertyOp39
 70
     1
102
RTVSPropertyOp40
 70
     1
102
RTVSPropertyOp41
 70
     1
102
RTVSPropertyOp42
 70
     1
102
RTVSPropertyOp43
 70
     1
102
RTVSPropertyOp44
 70
     1
102
RTVSPropertyOp45
 70
     1
102
RTVSPropertyOp46
 70
     1
102
RTVSPropertyOp47
 70
     1
102
RTVSPropertyOp48
 70
     1
102
RTVSPropertyOp49
 70
     1
102
RTVSPropertyOp50
 70
     1
102
RTVSPropertyOp51
 70
     0
102
RTVSPropertyOp52
 70
     0
102
RTVSPropertyOp53
 70
     1
102
RTVSPropertyOp54
 70
     1
102
RTVSPropertyOp55
 70
     1
102
RTVSPropertyOp56
 70
     1
102
RTVSPropertyOp57
 70
     1
102
RTVSPost2010Prop28
280
     0
102
RTVSPost2010PropOp28
 70
     1
102
RTVSPost2010Prop29
280
     1
102
RTVSPost2010PropOp29
 70
     1
102
RTVSPost2010Prop30
280
     1
102
RTVSPost2010PropOp30
 70
     1
102
RTVSPost2010Prop31
280
     0
102
RTVSPost2010PropOp31
 70
     1
102
RTVSPost2010Prop32
280
     0
102
RTVSPost2010PropOp32
 70
     1
102
RTVSPost2010Prop33
280
     0
102
RTVSPost2010PropOp33
 70
     1
102
RTVSPost2010Prop34
280
     0
102
RTVSPost2010PropOp34
 70
     1
102
RTVSPost2010Prop35
280
     0
102
RTVSPost2010PropOp35
 70
     1
102
RTVSPost2010Prop36
280
     0
102
RTVSPost2010PropOp36
 70
     1
102
RTVSPost2010Prop37
 90
       50
102
RTVSPost2010PropOp37
 70
     1
102
RTVSPost2010Prop38
140
0.0
102
RTVSPost2010PropOp38
 70
     1
102
RTVSPost2010Prop39
140
1.0
102
RTVSPost2010PropOp39
 70
     1
102
RTVSPost2010Prop40
 90
        0
102
RTVSPost2010PropOp40
 70
     1
102
RTVSPost2010Prop41ColorIndex
 90
       18
102
RTVSPost2010Prop41ColorRGB
 90
        0
102
RTVSPost2010PropOp41
 70
     1
102
RTVSPost2010Prop42
 90
       50
102
RTVSPost2010PropOp42
 70
     1
102
RTVSPost2010Prop43
 90
        3
102
RTVSPost2010PropOp43
 70
     1
102
RTVSPost2010Prop44ColorIndex
 90
        5
102
RTVSPost2010Prop44ColorRGB
 90
      255
102
RTVSPost2010PropOp44
 70
     1
102
RTVSPost2010Prop45
280
     0
102
RTVSPost2010PropOp45
 70
     1
102
RTVSPost2010Prop46
 90
       50
102
RTVSPost2010PropOp46
 70
     1
102
RTVSPost2010Prop47
 90
       50
102
RTVSPost2010PropOp47
 70
     1
102
RTVSPost2010Prop48
 90
       50
102
RTVSPost2010PropOp48
 70
     1
102
RTVSPost2010Prop49
280
     0
102
RTVSPost2010PropOp49
 70
     1
102
RTVSPost2010Prop50
 90
       50
102
RTVSPost2010PropOp50
 70
     1
102
RTVSPost2010Prop51ColorIndex
 90
      256
102
RTVSPost2010Prop51ColorRGB
 90
-16777216
102
RTVSPost2010PropOp51
 70
     0
102
RTVSPost2010Prop52
140
1.0
102
RTVSPost2010PropOp52
 70
     0
102
RTVSPost2010Prop53
 90
        2
102
RTVSPost2010PropOp53
 70
     1
102
RTVSPost2010Prop54
  1
strokes_ogs.tif
102
RTVSPost2010PropOp54
 70
     1
102
RTVSPost2010Prop55
280
     0
102
RTVSPost2010PropOp55
 70
     1
102
RTVSPost2010Prop56
140
1.0
102
RTVSPost2010PropOp56
 70
     1
102
RTVSPost2010Prop57
140
1.0
102
RTVSPost2010PropOp57
 70
     1
  0
XRECORD
  5
8DE
102
{ACAD_REACTORS
330
8DD
102
}
330
8DD
100
AcDbXrecord
280
     1
102
RTVSPropertyOp0
 70
     1
102
RTVSPropertyOp1
 70
     1
102
RTVSPropertyOp2
 70
     1
102
RTVSPropertyOp3
 70
     1
102
RTVSPropertyOp4
 70
     1
102
RTVSPropertyOp5
 70
     1
102
RTVSPropertyOp6
 70
     1
102
RTVSPropertyOp7
 70
     1
102
RTVSPropertyOp8
 70
     1
102
RTVSPropertyOp9
 70
     1
102
RTVSPropertyOp10
 70
     1
102
RTVSPropertyOp11
 70
     1
102
RTVSPropertyOp12
 70
     1
102
RTVSPropertyOp13
 70
     1
102
RTVSPropertyOp14
 70
     1
102
RTVSPropertyOp15
 70
     1
102
RTVSPropertyOp16
 70
     1
102
RTVSPropertyOp17
 70
     1
102
RTVSPropertyOp18
 70
     1
102
RTVSPropertyOp19
 70
     1
102
RTVSPropertyOp20
 70
     1
102
RTVSPropertyOp21
 70
     1
102
RTVSPropertyOp22
 70
     1
102
RTVSPropertyOp23
 70
     1
102
RTVSPropertyOp24
 70
     1
102
RTVSPropertyOp25
 70
     1
102
RTVSPropertyOp26
 70
     1
102
RTVSPropertyOp27
 70
     1
102
RTVSPropertyOp28
 70
     1
102
RTVSPropertyOp29
 70
     1
102
RTVSPropertyOp30
 70
     1
102
RTVSPropertyOp31
 70
     1
102
RTVSPropertyOp32
 70
     1
102
RTVSPropertyOp33
 70
     1
102
RTVSPropertyOp34
 70
     1
102
RTVSPropertyOp35
 70
     1
102
RTVSPropertyOp36
 70
     1
102
RTVSPropertyOp37
 70
     1
102
RTVSPropertyOp38
 70
     1
102
RTVSPropertyOp39
 70
     1
102
RTVSPropertyOp40
 70
     1
102
RTVSPropertyOp41
 70
     1
102
RTVSPropertyOp42
 70
     1
102
RTVSPropertyOp43
 70
     1
102
RTVSPropertyOp44
 70
     1
102
RTVSPropertyOp45
 70
     1
102
RTVSPropertyOp46
 70
     1
102
RTVSPropertyOp47
 70
     1
102
RTVSPropertyOp48
 70
     1
102
RTVSPropertyOp49
 70
     1
102
RTVSPropertyOp50
 70
     1
102
RTVSPropertyOp51
 70
     0
102
RTVSPropertyOp52
 70
     0
102
RTVSPropertyOp53
 70
     1
102
RTVSPropertyOp54
 70
     1
102
RTVSPropertyOp55
 70
     1
102
RTVSPropertyOp56
 70
     1
102
RTVSPropertyOp57
 70
     1
102
RTVSPost2010Prop28
280
     0
102
RTVSPost2010PropOp28
 70
     1
102
RTVSPost2010Prop29
280
     1
102
RTVSPost2010PropOp29
 70
     1
102
RTVSPost2010Prop30
280
     1
102
RTVSPost2010PropOp30
 70
     1
102
RTVSPost2010Prop31
280
     0
102
RTVSPost2010PropOp31
 70
     1
102
RTVSPost2010Prop32
280
     0
102
RTVSPost2010PropOp32
 70
     1
102
RTVSPost2010Prop33
280
     0
102
RTVSPost2010PropOp33
 70
     1
102
RTVSPost2010Prop34
280
     0
102
RTVSPost2010PropOp34
 70
     1
102
RTVSPost2010Prop35
280
     0
102
RTVSPost2010PropOp35
 70
     1
102
RTVSPost2010Prop36
280
     0
102
RTVSPost2010PropOp36
 70
     1
102
RTVSPost2010Prop37
 90
       50
102
RTVSPost2010PropOp37
 70
     1
102
RTVSPost2010Prop38
140
0.0
102
RTVSPost2010PropOp38
 70
     1
102
RTVSPost2010Prop39
140
1.0
102
RTVSPost2010PropOp39
 70
     1
102
RTVSPost2010Prop40
 90
        0
102
RTVSPost2010PropOp40
 70
     1
102
RTVSPost2010Prop41ColorIndex
 90
       18
102
RTVSPost2010Prop41ColorRGB
 90
        0
102
RTVSPost2010PropOp41
 70
     1
102
RTVSPost2010Prop42
 90
       50
102
RTVSPost2010PropOp42
 70
     1
102
RTVSPost2010Prop43
 90
        3
102
RTVSPost2010PropOp43
 70
     1
102
RTVSPost2010Prop44ColorIndex
 90
        5
102
RTVSPost2010Prop44ColorRGB
 90
      255
102
RTVSPost2010PropOp44
 70
     1
102
RTVSPost2010Prop45
280
     0
102
RTVSPost2010PropOp45
 70
     1
102
RTVSPost2010Prop46
 90
       50
102
RTVSPost2010PropOp46
 70
     1
102
RTVSPost2010Prop47
 90
       50
102
RTVSPost2010PropOp47
 70
     1
102
RTVSPost2010Prop48
 90
       50
102
RTVSPost2010PropOp48
 70
     1
102
RTVSPost2010Prop49
280
     0
102
RTVSPost2010PropOp49
 70
     1
102
RTVSPost2010Prop50
 90
       50
102
RTVSPost2010PropOp50
 70
     1
102
RTVSPost2010Prop51ColorIndex
 90
      256
102
RTVSPost2010Prop51ColorRGB
 90
-16777216
102
RTVSPost2010PropOp51
 70
     0
102
RTVSPost2010Prop52
140
1.0
102
RTVSPost2010PropOp52
 70
     0
102
RTVSPost2010Prop53
 90
        2
102
RTVSPost2010PropOp53
 70
     1
102
RTVSPost2010Prop54
  1
strokes_ogs.tif
102
RTVSPost2010PropOp54
 70
     1
102
RTVSPost2010Prop55
280
     0
102
RTVSPost2010PropOp55
 70
     1
102
RTVSPost2010Prop56
140
1.0
102
RTVSPost2010PropOp56
 70
     1
102
RTVSPost2010Prop57
140
1.0
102
RTVSPost2010PropOp57
 70
     1
  0
XRECORD
  5
8D2
102
{ACAD_REACTORS
330
8D1
102
}
330
8D1
100
AcDbXrecord
280
     1
102
RTVSPropertyOp0
 70
     1
102
RTVSPropertyOp1
 70
     1
102
RTVSPropertyOp2
 70
     1
102
RTVSPropertyOp3
 70
     1
102
RTVSPropertyOp4
 70
     1
102
RTVSPropertyOp5
 70
     1
102
RTVSPropertyOp6
 70
     1
102
RTVSPropertyOp7
 70
     1
102
RTVSPropertyOp8
 70
     1
102
RTVSPropertyOp9
 70
     1
102
RTVSPropertyOp10
 70
     1
102
RTVSPropertyOp11
 70
     1
102
RTVSPropertyOp12
 70
     1
102
RTVSPropertyOp13
 70
     1
102
RTVSPropertyOp14
 70
     1
102
RTVSPropertyOp15
 70
     1
102
RTVSPropertyOp16
 70
     1
102
RTVSPropertyOp17
 70
     1
102
RTVSPropertyOp18
 70
     1
102
RTVSPropertyOp19
 70
     1
102
RTVSPropertyOp20
 70
     1
102
RTVSPropertyOp21
 70
     1
102
RTVSPropertyOp22
 70
     1
102
RTVSPropertyOp23
 70
     1
102
RTVSPropertyOp24
 70
     1
102
RTVSPropertyOp25
 70
     1
102
RTVSPropertyOp26
 70
     1
102
RTVSPropertyOp27
 70
     1
102
RTVSPropertyOp28
 70
     1
102
RTVSPropertyOp29
 70
     1
102
RTVSPropertyOp30
 70
     1
102
RTVSPropertyOp31
 70
     1
102
RTVSPropertyOp32
 70
     1
102
RTVSPropertyOp33
 70
     1
102
RTVSPropertyOp34
 70
     1
102
RTVSPropertyOp35
 70
     1
102
RTVSPropertyOp36
 70
     1
102
RTVSPropertyOp37
 70
     1
102
RTVSPropertyOp38
 70
     1
102
RTVSPropertyOp39
 70
     1
102
RTVSPropertyOp40
 70
     1
102
RTVSPropertyOp41
 70
     1
102
RTVSPropertyOp42
 70
     1
102
RTVSPropertyOp43
 70
     1
102
RTVSPropertyOp44
 70
     1
102
RTVSPropertyOp45
 70
     1
102
RTVSPropertyOp46
 70
     1
102
RTVSPropertyOp47
 70
     1
102
RTVSPropertyOp48
 70
     1
102
RTVSPropertyOp49
 70
     1
102
RTVSPropertyOp50
 70
     1
102
RTVSPropertyOp51
 70
     0
102
RTVSPropertyOp52
 70
     0
102
RTVSPropertyOp53
 70
     1
102
RTVSPropertyOp54
 70
     1
102
RTVSPropertyOp55
 70
     1
102
RTVSPropertyOp56
 70
     1
102
RTVSPropertyOp57
 70
     1
102
RTVSPost2010Prop28
280
     0
102
RTVSPost2010PropOp28
 70
     1
102
RTVSPost2010Prop29
280
     1
102
RTVSPost2010PropOp29
 70
     1
102
RTVSPost2010Prop30
280
     1
102
RTVSPost2010PropOp30
 70
     1
102
RTVSPost2010Prop31
280
     0
102
RTVSPost2010PropOp31
 70
     1
102
RTVSPost2010Prop32
280
     0
102
RTVSPost2010PropOp32
 70
     1
102
RTVSPost2010Prop33
280
     0
102
RTVSPost2010PropOp33
 70
     1
102
RTVSPost2010Prop34
280
     0
102
RTVSPost2010PropOp34
 70
     1
102
RTVSPost2010Prop35
280
     0
102
RTVSPost2010PropOp35
 70
     1
102
RTVSPost2010Prop36
280
     0
102
RTVSPost2010PropOp36
 70
     1
102
RTVSPost2010Prop37
 90
       50
102
RTVSPost2010PropOp37
 70
     1
102
RTVSPost2010Prop38
140
0.0
102
RTVSPost2010PropOp38
 70
     1
102
RTVSPost2010Prop39
140
1.0
102
RTVSPost2010PropOp39
 70
     1
102
RTVSPost2010Prop40
 90
        0
102
RTVSPost2010PropOp40
 70
     1
102
RTVSPost2010Prop41ColorIndex
 90
       18
102
RTVSPost2010Prop41ColorRGB
 90
        0
102
RTVSPost2010PropOp41
 70
     1
102
RTVSPost2010Prop42
 90
       50
102
RTVSPost2010PropOp42
 70
     1
102
RTVSPost2010Prop43
 90
        3
102
RTVSPost2010PropOp43
 70
     1
102
RTVSPost2010Prop44ColorIndex
 90
        5
102
RTVSPost2010Prop44ColorRGB
 90
      255
102
RTVSPost2010PropOp44
 70
     1
102
RTVSPost2010Prop45
280
     0
102
RTVSPost2010PropOp45
 70
     1
102
RTVSPost2010Prop46
 90
       50
102
RTVSPost2010PropOp46
 70
     1
102
RTVSPost2010Prop47
 90
       50
102
RTVSPost2010PropOp47
 70
     1
102
RTVSPost2010Prop48
 90
       50
102
RTVSPost2010PropOp48
 70
     1
102
RTVSPost2010Prop49
280
     0
102
RTVSPost2010PropOp49
 70
     1
102
RTVSPost2010Prop50
 90
       50
102
RTVSPost2010PropOp50
 70
     1
102
RTVSPost2010Prop51ColorIndex
 90
      256
102
RTVSPost2010Prop51ColorRGB
 90
-16777216
102
RTVSPost2010PropOp51
 70
     0
102
RTVSPost2010Prop52
140
1.0
102
RTVSPost2010PropOp52
 70
     0
102
RTVSPost2010Prop53
 90
        2
102
RTVSPost2010PropOp53
 70
     1
102
RTVSPost2010Prop54
  1
strokes_ogs.tif
102
RTVSPost2010PropOp54
 70
     1
102
RTVSPost2010Prop55
280
     0
102
RTVSPost2010PropOp55
 70
     1
102
RTVSPost2010Prop56
140
1.0
102
RTVSPost2010PropOp56
 70
     1
102
RTVSPost2010Prop57
140
1.0
102
RTVSPost2010PropOp57
 70
     1
  0
XRECORD
  5
8D4
102
{ACAD_REACTORS
330
8D3
102
}
330
8D3
100
AcDbXrecord
280
     1
102
RTVSPropertyOp0
 70
     1
102
RTVSPropertyOp1
 70
     1
102
RTVSPropertyOp2
 70
     1
102
RTVSPropertyOp3
 70
     1
102
RTVSPropertyOp4
 70
     1
102
RTVSPropertyOp5
 70
     1
102
RTVSPropertyOp6
 70
     1
102
RTVSPropertyOp7
 70
     1
102
RTVSPropertyOp8
 70
     1
102
RTVSPropertyOp9
 70
     1
102
RTVSPropertyOp10
 70
     1
102
RTVSPropertyOp11
 70
     1
102
RTVSPropertyOp12
 70
     1
102
RTVSPropertyOp13
 70
     1
102
RTVSPropertyOp14
 70
     1
102
RTVSPropertyOp15
 70
     1
102
RTVSPropertyOp16
 70
     1
102
RTVSPropertyOp17
 70
     1
102
RTVSPropertyOp18
 70
     1
102
RTVSPropertyOp19
 70
     1
102
RTVSPropertyOp20
 70
     1
102
RTVSPropertyOp21
 70
     1
102
RTVSPropertyOp22
 70
     1
102
RTVSPropertyOp23
 70
     1
102
RTVSPropertyOp24
 70
     1
102
RTVSPropertyOp25
 70
     1
102
RTVSPropertyOp26
 70
     1
102
RTVSPropertyOp27
 70
     1
102
RTVSPropertyOp28
 70
     1
102
RTVSPropertyOp29
 70
     1
102
RTVSPropertyOp30
 70
     1
102
RTVSPropertyOp31
 70
     1
102
RTVSPropertyOp32
 70
     1
102
RTVSPropertyOp33
 70
     1
102
RTVSPropertyOp34
 70
     1
102
RTVSPropertyOp35
 70
     1
102
RTVSPropertyOp36
 70
     1
102
RTVSPropertyOp37
 70
     1
102
RTVSPropertyOp38
 70
     1
102
RTVSPropertyOp39
 70
     1
102
RTVSPropertyOp40
 70
     1
102
RTVSPropertyOp41
 70
     1
102
RTVSPropertyOp42
 70
     1
102
RTVSPropertyOp43
 70
     1
102
RTVSPropertyOp44
 70
     1
102
RTVSPropertyOp45
 70
     1
102
RTVSPropertyOp46
 70
     1
102
RTVSPropertyOp47
 70
     1
102
RTVSPropertyOp48
 70
     1
102
RTVSPropertyOp49
 70
     1
102
RTVSPropertyOp50
 70
     1
102
RTVSPropertyOp51
 70
     0
102
RTVSPropertyOp52
 70
     0
102
RTVSPropertyOp53
 70
     1
102
RTVSPropertyOp54
 70
     1
102
RTVSPropertyOp55
 70
     1
102
RTVSPropertyOp56
 70
     1
102
RTVSPropertyOp57
 70
     1
102
RTVSPost2010Prop28
280
     0
102
RTVSPost2010PropOp28
 70
     1
102
RTVSPost2010Prop29
280
     1
102
RTVSPost2010PropOp29
 70
     1
102
RTVSPost2010Prop30
280
     1
102
RTVSPost2010PropOp30
 70
     1
102
RTVSPost2010Prop31
280
     0
102
RTVSPost2010PropOp31
 70
     1
102
RTVSPost2010Prop32
280
     0
102
RTVSPost2010PropOp32
 70
     1
102
RTVSPost2010Prop33
280
     0
102
RTVSPost2010PropOp33
 70
     1
102
RTVSPost2010Prop34
280
     0
102
RTVSPost2010PropOp34
 70
     1
102
RTVSPost2010Prop35
280
     0
102
RTVSPost2010PropOp35
 70
     1
102
RTVSPost2010Prop36
280
     0
102
RTVSPost2010PropOp36
 70
     1
102
RTVSPost2010Prop37
 90
       50
102
RTVSPost2010PropOp37
 70
     1
102
RTVSPost2010Prop38
140
0.0
102
RTVSPost2010PropOp38
 70
     1
102
RTVSPost2010Prop39
140
1.0
102
RTVSPost2010PropOp39
 70
     1
102
RTVSPost2010Prop40
 90
        0
102
RTVSPost2010PropOp40
 70
     1
102
RTVSPost2010Prop41ColorIndex
 90
       18
102
RTVSPost2010Prop41ColorRGB
 90
        0
102
RTVSPost2010PropOp41
 70
     1
102
RTVSPost2010Prop42
 90
       50
102
RTVSPost2010PropOp42
 70
     1
102
RTVSPost2010Prop43
 90
        3
102
RTVSPost2010PropOp43
 70
     1
102
RTVSPost2010Prop44ColorIndex
 90
        5
102
RTVSPost2010Prop44ColorRGB
 90
      255
102
RTVSPost2010PropOp44
 70
     1
102
RTVSPost2010Prop45
280
     0
102
RTVSPost2010PropOp45
 70
     1
102
RTVSPost2010Prop46
 90
       50
102
RTVSPost2010PropOp46
 70
     1
102
RTVSPost2010Prop47
 90
       50
102
RTVSPost2010PropOp47
 70
     1
102
RTVSPost2010Prop48
 90
       50
102
RTVSPost2010PropOp48
 70
     1
102
RTVSPost2010Prop49
280
     0
102
RTVSPost2010PropOp49
 70
     1
102
RTVSPost2010Prop50
 90
       50
102
RTVSPost2010PropOp50
 70
     1
102
RTVSPost2010Prop51ColorIndex
 90
      256
102
RTVSPost2010Prop51ColorRGB
 90
-16777216
102
RTVSPost2010PropOp51
 70
     0
102
RTVSPost2010Prop52
140
1.0
102
RTVSPost2010PropOp52
 70
     0
102
RTVSPost2010Prop53
 90
        2
102
RTVSPost2010PropOp53
 70
     1
102
RTVSPost2010Prop54
  1
strokes_ogs.tif
102
RTVSPost2010PropOp54
 70
     1
102
RTVSPost2010Prop55
280
     0
102
RTVSPost2010PropOp55
 70
     1
102
RTVSPost2010Prop56
140
1.0
102
RTVSPost2010PropOp56
 70
     1
102
RTVSPost2010Prop57
140
1.0
102
RTVSPost2010PropOp57
 70
     1
  0
XRECORD
  5
8E4
102
{ACAD_REACTORS
330
8E3
102
}
330
8E3
100
AcDbXrecord
280
     1
102
RTVSPropertyOp0
 70
     0
102
RTVSPropertyOp1
 70
     0
102
RTVSPropertyOp2
 70
     0
102
RTVSPropertyOp3
 70
     0
102
RTVSPropertyOp4
 70
     0
102
RTVSPropertyOp5
 70
     0
102
RTVSPropertyOp6
 70
     0
102
RTVSPropertyOp7
 70
     0
102
RTVSPropertyOp8
 70
     0
102
RTVSPropertyOp9
 70
     0
102
RTVSPropertyOp10
 70
     0
102
RTVSPropertyOp11
 70
     0
102
RTVSPropertyOp12
 70
     0
102
RTVSPropertyOp13
 70
     0
102
RTVSPropertyOp14
 70
     0
102
RTVSPropertyOp15
 70
     0
102
RTVSPropertyOp16
 70
     0
102
RTVSPropertyOp17
 70
     0
102
RTVSPropertyOp18
 70
     0
102
RTVSPropertyOp19
 70
     0
102
RTVSPropertyOp20
 70
     0
102
RTVSPropertyOp21
 70
     0
102
RTVSPropertyOp22
 70
     0
102
RTVSPropertyOp23
 70
     0
102
RTVSPropertyOp24
 70
     0
102
RTVSPropertyOp25
 70
     0
102
RTVSPropertyOp26
 70
     0
102
RTVSPropertyOp27
 70
     0
102
RTVSPropertyOp28
 70
     1
102
RTVSPropertyOp29
 70
     1
102
RTVSPropertyOp30
 70
     1
102
RTVSPropertyOp31
 70
     1
102
RTVSPropertyOp32
 70
     1
102
RTVSPropertyOp33
 70
     1
102
RTVSPropertyOp34
 70
     1
102
RTVSPropertyOp35
 70
     1
102
RTVSPropertyOp36
 70
     1
102
RTVSPropertyOp37
 70
     1
102
RTVSPropertyOp38
 70
     1
102
RTVSPropertyOp39
 70
     1
102
RTVSPropertyOp40
 70
     1
102
RTVSPropertyOp41
 70
     1
102
RTVSPropertyOp42
 70
     1
102
RTVSPropertyOp43
 70
     1
102
RTVSPropertyOp44
 70
     1
102
RTVSPropertyOp45
 70
     1
102
RTVSPropertyOp46
 70
     1
102
RTVSPropertyOp47
 70
     1
102
RTVSPropertyOp48
 70
     1
102
RTVSPropertyOp49
 70
     1
102
RTVSPropertyOp50
 70
     1
102
RTVSPropertyOp51
 70
     0
102
RTVSPropertyOp52
 70
     0
102
RTVSPropertyOp53
 70
     1
102
RTVSPropertyOp54
 70
     1
102
RTVSPropertyOp55
 70
     1
102
RTVSPropertyOp56
 70
     1
102
RTVSPropertyOp57
 70
     1
102
RTVSPost2010Prop28
280
     0
102
RTVSPost2010PropOp28
 70
     1
102
RTVSPost2010Prop29
280
     1
102
RTVSPost2010PropOp29
 70
     1
102
RTVSPost2010Prop30
280
     1
102
RTVSPost2010PropOp30
 70
     1
102
RTVSPost2010Prop31
280
     0
102
RTVSPost2010PropOp31
 70
     1
102
RTVSPost2010Prop32
280
     0
102
RTVSPost2010PropOp32
 70
     1
102
RTVSPost2010Prop33
280
     0
102
RTVSPost2010PropOp33
 70
     1
102
RTVSPost2010Prop34
280
     0
102
RTVSPost2010PropOp34
 70
     1
102
RTVSPost2010Prop35
280
     0
102
RTVSPost2010PropOp35
 70
     1
102
RTVSPost2010Prop36
280
     0
102
RTVSPost2010PropOp36
 70
     1
102
RTVSPost2010Prop37
 90
       50
102
RTVSPost2010PropOp37
 70
     1
102
RTVSPost2010Prop38
140
0.0
102
RTVSPost2010PropOp38
 70
     1
102
RTVSPost2010Prop39
140
1.0
102
RTVSPost2010PropOp39
 70
     1
102
RTVSPost2010Prop40
 90
        0
102
RTVSPost2010PropOp40
 70
     1
102
RTVSPost2010Prop41ColorIndex
 90
       18
102
RTVSPost2010Prop41ColorRGB
 90
        0
102
RTVSPost2010PropOp41
 70
     1
102
RTVSPost2010Prop42
 90
       50
102
RTVSPost2010PropOp42
 70
     1
102
RTVSPost2010Prop43
 90
        3
102
RTVSPost2010PropOp43
 70
     1
102
RTVSPost2010Prop44ColorIndex
 90
        5
102
RTVSPost2010Prop44ColorRGB
 90
      255
102
RTVSPost2010PropOp44
 70
     1
102
RTVSPost2010Prop45
280
     0
102
RTVSPost2010PropOp45
 70
     1
102
RTVSPost2010Prop46
 90
       50
102
RTVSPost2010PropOp46
 70
     1
102
RTVSPost2010Prop47
 90
       50
102
RTVSPost2010PropOp47
 70
     1
102
RTVSPost2010Prop48
 90
       50
102
RTVSPost2010PropOp48
 70
     1
102
RTVSPost2010Prop49
280
     0
102
RTVSPost2010PropOp49
 70
     1
102
RTVSPost2010Prop50
 90
       50
102
RTVSPost2010PropOp50
 70
     1
102
RTVSPost2010Prop51ColorIndex
 90
      256
102
RTVSPost2010Prop51ColorRGB
 90
-16777216
102
RTVSPost2010PropOp51
 70
     0
102
RTVSPost2010Prop52
140
1.0
102
RTVSPost2010PropOp52
 70
     0
102
RTVSPost2010Prop53
 90
        2
102
RTVSPost2010PropOp53
 70
     1
102
RTVSPost2010Prop54
  1
strokes_ogs.tif
102
RTVSPost2010PropOp54
 70
     1
102
RTVSPost2010Prop55
280
     0
102
RTVSPost2010PropOp55
 70
     1
102
RTVSPost2010Prop56
140
1.0
102
RTVSPost2010PropOp56
 70
     1
102
RTVSPost2010Prop57
140
1.0
102
RTVSPost2010PropOp57
 70
     1
  0
XRECORD
  5
8DC
102
{ACAD_REACTORS
330
8DB
102
}
330
8DB
100
AcDbXrecord
280
     1
102
RTVSPropertyOp0
 70
     1
102
RTVSPropertyOp1
 70
     1
102
RTVSPropertyOp2
 70
     1
102
RTVSPropertyOp3
 70
     1
102
RTVSPropertyOp4
 70
     1
102
RTVSPropertyOp5
 70
     1
102
RTVSPropertyOp6
 70
     1
102
RTVSPropertyOp7
 70
     1
102
RTVSPropertyOp8
 70
     1
102
RTVSPropertyOp9
 70
     1
102
RTVSPropertyOp10
 70
     1
102
RTVSPropertyOp11
 70
     1
102
RTVSPropertyOp12
 70
     1
102
RTVSPropertyOp13
 70
     1
102
RTVSPropertyOp14
 70
     1
102
RTVSPropertyOp15
 70
     1
102
RTVSPropertyOp16
 70
     1
102
RTVSPropertyOp17
 70
     1
102
RTVSPropertyOp18
 70
     1
102
RTVSPropertyOp19
 70
     1
102
RTVSPropertyOp20
 70
     1
102
RTVSPropertyOp21
 70
     1
102
RTVSPropertyOp22
 70
     1
102
RTVSPropertyOp23
 70
     1
102
RTVSPropertyOp24
 70
     1
102
RTVSPropertyOp25
 70
     1
102
RTVSPropertyOp26
 70
     1
102
RTVSPropertyOp27
 70
     1
102
RTVSPropertyOp28
 70
     1
102
RTVSPropertyOp29
 70
     1
102
RTVSPropertyOp30
 70
     1
102
RTVSPropertyOp31
 70
     1
102
RTVSPropertyOp32
 70
     1
102
RTVSPropertyOp33
 70
     1
102
RTVSPropertyOp34
 70
     1
102
RTVSPropertyOp35
 70
     1
102
RTVSPropertyOp36
 70
     1
102
RTVSPropertyOp37
 70
     1
102
RTVSPropertyOp38
 70
     1
102
RTVSPropertyOp39
 70
     1
102
RTVSPropertyOp40
 70
     1
102
RTVSPropertyOp41
 70
     1
102
RTVSPropertyOp42
 70
     1
102
RTVSPropertyOp43
 70
     1
102
RTVSPropertyOp44
 70
     1
102
RTVSPropertyOp45
 70
     1
102
RTVSPropertyOp46
 70
     1
102
RTVSPropertyOp47
 70
     1
102
RTVSPropertyOp48
 70
     1
102
RTVSPropertyOp49
 70
     1
102
RTVSPropertyOp50
 70
     1
102
RTVSPropertyOp51
 70
     0
102
RTVSPropertyOp52
 70
     0
102
RTVSPropertyOp53
 70
     1
102
RTVSPropertyOp54
 70
     1
102
RTVSPropertyOp55
 70
     1
102
RTVSPropertyOp56
 70
     1
102
RTVSPropertyOp57
 70
     1
102
RTVSPost2010Prop28
280
     0
102
RTVSPost2010PropOp28
 70
     1
102
RTVSPost2010Prop29
280
     1
102
RTVSPost2010PropOp29
 70
     1
102
RTVSPost2010Prop30
280
     1
102
RTVSPost2010PropOp30
 70
     1
102
RTVSPost2010Prop31
280
     0
102
RTVSPost2010PropOp31
 70
     1
102
RTVSPost2010Prop32
280
     0
102
RTVSPost2010PropOp32
 70
     1
102
RTVSPost2010Prop33
280
     0
102
RTVSPost2010PropOp33
 70
     1
102
RTVSPost2010Prop34
280
     0
102
RTVSPost2010PropOp34
 70
     1
102
RTVSPost2010Prop35
280
     0
102
RTVSPost2010PropOp35
 70
     1
102
RTVSPost2010Prop36
280
     0
102
RTVSPost2010PropOp36
 70
     1
102
RTVSPost2010Prop37
 90
       50
102
RTVSPost2010PropOp37
 70
     1
102
RTVSPost2010Prop38
140
0.0
102
RTVSPost2010PropOp38
 70
     1
102
RTVSPost2010Prop39
140
1.0
102
RTVSPost2010PropOp39
 70
     1
102
RTVSPost2010Prop40
 90
        0
102
RTVSPost2010PropOp40
 70
     1
102
RTVSPost2010Prop41ColorIndex
 90
       18
102
RTVSPost2010Prop41ColorRGB
 90
        0
102
RTVSPost2010PropOp41
 70
     1
102
RTVSPost2010Prop42
 90
       50
102
RTVSPost2010PropOp42
 70
     1
102
RTVSPost2010Prop43
 90
        3
102
RTVSPost2010PropOp43
 70
     1
102
RTVSPost2010Prop44ColorIndex
 90
        5
102
RTVSPost2010Prop44ColorRGB
 90
      255
102
RTVSPost2010PropOp44
 70
     1
102
RTVSPost2010Prop45
280
     0
102
RTVSPost2010PropOp45
 70
     1
102
RTVSPost2010Prop46
 90
       50
102
RTVSPost2010PropOp46
 70
     1
102
RTVSPost2010Prop47
 90
       50
102
RTVSPost2010PropOp47
 70
     1
102
RTVSPost2010Prop48
 90
       50
102
RTVSPost2010PropOp48
 70
     1
102
RTVSPost2010Prop49
280
     0
102
RTVSPost2010PropOp49
 70
     1
102
RTVSPost2010Prop50
 90
       50
102
RTVSPost2010PropOp50
 70
     1
102
RTVSPost2010Prop51ColorIndex
 90
      256
102
RTVSPost2010Prop51ColorRGB
 90
-16777216
102
RTVSPost2010PropOp51
 70
     0
102
RTVSPost2010Prop52
140
1.0
102
RTVSPost2010PropOp52
 70
     0
102
RTVSPost2010Prop53
 90
        2
102
RTVSPost2010PropOp53
 70
     1
102
RTVSPost2010Prop54
  1
strokes_ogs.tif
102
RTVSPost2010PropOp54
 70
     1
102
RTVSPost2010Prop55
280
     0
102
RTVSPost2010PropOp55
 70
     1
102
RTVSPost2010Prop56
140
1.0
102
RTVSPost2010PropOp56
 70
     1
102
RTVSPost2010Prop57
140
1.0
102
RTVSPost2010PropOp57
 70
     1
  0
XRECORD
  5
8C0
102
{ACAD_REACTORS
330
8BF
102
}
330
8BF
100
AcDbXrecord
280
     1
102
RTVSPropertyOp0
 70
     1
102
RTVSPropertyOp1
 70
     1
102
RTVSPropertyOp2
 70
     1
102
RTVSPropertyOp3
 70
     1
102
RTVSPropertyOp4
 70
     1
102
RTVSPropertyOp5
 70
     1
102
RTVSPropertyOp6
 70
     1
102
RTVSPropertyOp7
 70
     1
102
RTVSPropertyOp8
 70
     1
102
RTVSPropertyOp9
 70
     1
102
RTVSPropertyOp10
 70
     1
102
RTVSPropertyOp11
 70
     1
102
RTVSPropertyOp12
 70
     1
102
RTVSPropertyOp13
 70
     1
102
RTVSPropertyOp14
 70
     1
102
RTVSPropertyOp15
 70
     1
102
RTVSPropertyOp16
 70
     1
102
RTVSPropertyOp17
 70
     1
102
RTVSPropertyOp18
 70
     1
102
RTVSPropertyOp19
 70
     1
102
RTVSPropertyOp20
 70
     1
102
RTVSPropertyOp21
 70
     1
102
RTVSPropertyOp22
 70
     1
102
RTVSPropertyOp23
 70
     1
102
RTVSPropertyOp24
 70
     1
102
RTVSPropertyOp25
 70
     1
102
RTVSPropertyOp26
 70
     1
102
RTVSPropertyOp27
 70
     1
102
RTVSPropertyOp28
 70
     1
102
RTVSPropertyOp29
 70
     1
102
RTVSPropertyOp30
 70
     1
102
RTVSPropertyOp31
 70
     1
102
RTVSPropertyOp32
 70
     1
102
RTVSPropertyOp33
 70
     1
102
RTVSPropertyOp34
 70
     1
102
RTVSPropertyOp35
 70
     1
102
RTVSPropertyOp36
 70
     1
102
RTVSPropertyOp37
 70
     1
102
RTVSPropertyOp38
 70
     1
102
RTVSPropertyOp39
 70
     1
102
RTVSPropertyOp40
 70
     1
102
RTVSPropertyOp41
 70
     1
102
RTVSPropertyOp42
 70
     1
102
RTVSPropertyOp43
 70
     1
102
RTVSPropertyOp44
 70
     1
102
RTVSPropertyOp45
 70
     1
102
RTVSPropertyOp46
 70
     1
102
RTVSPropertyOp47
 70
     1
102
RTVSPropertyOp48
 70
     1
102
RTVSPropertyOp49
 70
     1
102
RTVSPropertyOp50
 70
     1
102
RTVSPropertyOp51
 70
     0
102
RTVSPropertyOp52
 70
     0
102
RTVSPropertyOp53
 70
     1
102
RTVSPropertyOp54
 70
     1
102
RTVSPropertyOp55
 70
     1
102
RTVSPropertyOp56
 70
     1
102
RTVSPropertyOp57
 70
     1
102
RTVSPost2010Prop28
280
     0
102
RTVSPost2010PropOp28
 70
     1
102
RTVSPost2010Prop29
280
     1
102
RTVSPost2010PropOp29
 70
     1
102
RTVSPost2010Prop30
280
     1
102
RTVSPost2010PropOp30
 70
     1
102
RTVSPost2010Prop31
280
     0
102
RTVSPost2010PropOp31
 70
     1
102
RTVSPost2010Prop32
280
     0
102
RTVSPost2010PropOp32
 70
     1
102
RTVSPost2010Prop33
280
     0
102
RTVSPost2010PropOp33
 70
     1
102
RTVSPost2010Prop34
280
     0
102
RTVSPost2010PropOp34
 70
     1
102
RTVSPost2010Prop35
280
     0
102
RTVSPost2010PropOp35
 70
     1
102
RTVSPost2010Prop36
280
     0
102
RTVSPost2010PropOp36
 70
     1
102
RTVSPost2010Prop37
 90
       50
102
RTVSPost2010PropOp37
 70
     1
102
RTVSPost2010Prop38
140
0.0
102
RTVSPost2010PropOp38
 70
     1
102
RTVSPost2010Prop39
140
1.0
102
RTVSPost2010PropOp39
 70
     1
102
RTVSPost2010Prop40
 90
        0
102
RTVSPost2010PropOp40
 70
     1
102
RTVSPost2010Prop41ColorIndex
 90
       18
102
RTVSPost2010Prop41ColorRGB
 90
        0
102
RTVSPost2010PropOp41
 70
     1
102
RTVSPost2010Prop42
 90
       50
102
RTVSPost2010PropOp42
 70
     1
102
RTVSPost2010Prop43
 90
        3
102
RTVSPost2010PropOp43
 70
     1
102
RTVSPost2010Prop44ColorIndex
 90
        5
102
RTVSPost2010Prop44ColorRGB
 90
      255
102
RTVSPost2010PropOp44
 70
     1
102
RTVSPost2010Prop45
280
     0
102
RTVSPost2010PropOp45
 70
     1
102
RTVSPost2010Prop46
 90
       50
102
RTVSPost2010PropOp46
 70
     1
102
RTVSPost2010Prop47
 90
       50
102
RTVSPost2010PropOp47
 70
     1
102
RTVSPost2010Prop48
 90
       50
102
RTVSPost2010PropOp48
 70
     1
102
RTVSPost2010Prop49
280
     0
102
RTVSPost2010PropOp49
 70
     1
102
RTVSPost2010Prop50
 90
       50
102
RTVSPost2010PropOp50
 70
     1
102
RTVSPost2010Prop51ColorIndex
 90
      256
102
RTVSPost2010Prop51ColorRGB
 90
-16777216
102
RTVSPost2010PropOp51
 70
     0
102
RTVSPost2010Prop52
140
1.0
102
RTVSPost2010PropOp52
 70
     0
102
RTVSPost2010Prop53
 90
        2
102
RTVSPost2010PropOp53
 70
     1
102
RTVSPost2010Prop54
  1
strokes_ogs.tif
102
RTVSPost2010PropOp54
 70
     1
102
RTVSPost2010Prop55
280
     0
102
RTVSPost2010PropOp55
 70
     1
102
RTVSPost2010Prop56
140
1.0
102
RTVSPost2010PropOp56
 70
     1
102
RTVSPost2010Prop57
140
1.0
102
RTVSPost2010PropOp57
 70
     1
  0
XRECORD
  5
8C2
102
{ACAD_REACTORS
330
8C1
102
}
330
8C1
100
AcDbXrecord
280
     1
102
RTVSPropertyOp0
 70
     1
102
RTVSPropertyOp1
 70
     1
102
RTVSPropertyOp2
 70
     1
102
RTVSPropertyOp3
 70
     1
102
RTVSPropertyOp4
 70
     1
102
RTVSPropertyOp5
 70
     1
102
RTVSPropertyOp6
 70
     1
102
RTVSPropertyOp7
 70
     1
102
RTVSPropertyOp8
 70
     1
102
RTVSPropertyOp9
 70
     1
102
RTVSPropertyOp10
 70
     1
102
RTVSPropertyOp11
 70
     1
102
RTVSPropertyOp12
 70
     1
102
RTVSPropertyOp13
 70
     1
102
RTVSPropertyOp14
 70
     1
102
RTVSPropertyOp15
 70
     1
102
RTVSPropertyOp16
 70
     1
102
RTVSPropertyOp17
 70
     1
102
RTVSPropertyOp18
 70
     1
102
RTVSPropertyOp19
 70
     1
102
RTVSPropertyOp20
 70
     1
102
RTVSPropertyOp21
 70
     1
102
RTVSPropertyOp22
 70
     1
102
RTVSPropertyOp23
 70
     1
102
RTVSPropertyOp24
 70
     1
102
RTVSPropertyOp25
 70
     1
102
RTVSPropertyOp26
 70
     1
102
RTVSPropertyOp27
 70
     1
102
RTVSPropertyOp28
 70
     1
102
RTVSPropertyOp29
 70
     1
102
RTVSPropertyOp30
 70
     1
102
RTVSPropertyOp31
 70
     1
102
RTVSPropertyOp32
 70
     1
102
RTVSPropertyOp33
 70
     1
102
RTVSPropertyOp34
 70
     1
102
RTVSPropertyOp35
 70
     1
102
RTVSPropertyOp36
 70
     1
102
RTVSPropertyOp37
 70
     1
102
RTVSPropertyOp38
 70
     1
102
RTVSPropertyOp39
 70
     1
102
RTVSPropertyOp40
 70
     1
102
RTVSPropertyOp41
 70
     1
102
RTVSPropertyOp42
 70
     1
102
RTVSPropertyOp43
 70
     1
102
RTVSPropertyOp44
 70
     1
102
RTVSPropertyOp45
 70
     1
102
RTVSPropertyOp46
 70
     1
102
RTVSPropertyOp47
 70
     1
102
RTVSPropertyOp48
 70
     1
102
RTVSPropertyOp49
 70
     1
102
RTVSPropertyOp50
 70
     1
102
RTVSPropertyOp51
 70
     0
102
RTVSPropertyOp52
 70
     0
102
RTVSPropertyOp53
 70
     1
102
RTVSPropertyOp54
 70
     1
102
RTVSPropertyOp55
 70
     1
102
RTVSPropertyOp56
 70
     1
102
RTVSPropertyOp57
 70
     1
102
RTVSPost2010Prop28
280
     0
102
RTVSPost2010PropOp28
 70
     1
102
RTVSPost2010Prop29
280
     1
102
RTVSPost2010PropOp29
 70
     1
102
RTVSPost2010Prop30
280
     1
102
RTVSPost2010PropOp30
 70
     1
102
RTVSPost2010Prop31
280
     0
102
RTVSPost2010PropOp31
 70
     1
102
RTVSPost2010Prop32
280
     0
102
RTVSPost2010PropOp32
 70
     1
102
RTVSPost2010Prop33
280
     0
102
RTVSPost2010PropOp33
 70
     1
102
RTVSPost2010Prop34
280
     0
102
RTVSPost2010PropOp34
 70
     1
102
RTVSPost2010Prop35
280
     0
102
RTVSPost2010PropOp35
 70
     1
102
RTVSPost2010Prop36
280
     0
102
RTVSPost2010PropOp36
 70
     1
102
RTVSPost2010Prop37
 90
       50
102
RTVSPost2010PropOp37
 70
     1
102
RTVSPost2010Prop38
140
0.0
102
RTVSPost2010PropOp38
 70
     1
102
RTVSPost2010Prop39
140
1.0
102
RTVSPost2010PropOp39
 70
     1
102
RTVSPost2010Prop40
 90
        0
102
RTVSPost2010PropOp40
 70
     1
102
RTVSPost2010Prop41ColorIndex
 90
       18
102
RTVSPost2010Prop41ColorRGB
 90
        0
102
RTVSPost2010PropOp41
 70
     1
102
RTVSPost2010Prop42
 90
       50
102
RTVSPost2010PropOp42
 70
     1
102
RTVSPost2010Prop43
 90
        3
102
RTVSPost2010PropOp43
 70
     1
102
RTVSPost2010Prop44ColorIndex
 90
        5
102
RTVSPost2010Prop44ColorRGB
 90
      255
102
RTVSPost2010PropOp44
 70
     1
102
RTVSPost2010Prop45
280
     0
102
RTVSPost2010PropOp45
 70
     1
102
RTVSPost2010Prop46
 90
       50
102
RTVSPost2010PropOp46
 70
     1
102
RTVSPost2010Prop47
 90
       50
102
RTVSPost2010PropOp47
 70
     1
102
RTVSPost2010Prop48
 90
       50
102
RTVSPost2010PropOp48
 70
     1
102
RTVSPost2010Prop49
280
     0
102
RTVSPost2010PropOp49
 70
     1
102
RTVSPost2010Prop50
 90
       50
102
RTVSPost2010PropOp50
 70
     1
102
RTVSPost2010Prop51ColorIndex
 90
      256
102
RTVSPost2010Prop51ColorRGB
 90
-16777216
102
RTVSPost2010PropOp51
 70
     0
102
RTVSPost2010Prop52
140
1.0
102
RTVSPost2010PropOp52
 70
     0
102
RTVSPost2010Prop53
 90
        2
102
RTVSPost2010PropOp53
 70
     1
102
RTVSPost2010Prop54
  1
strokes_ogs.tif
102
RTVSPost2010PropOp54
 70
     1
102
RTVSPost2010Prop55
280
     0
102
RTVSPost2010PropOp55
 70
     1
102
RTVSPost2010Prop56
140
1.0
102
RTVSPost2010PropOp56
 70
     1
102
RTVSPost2010Prop57
140
1.0
102
RTVSPost2010PropOp57
 70
     1
  0
XRECORD
  5
8C4
102
{ACAD_REACTORS
330
8C3
102
}
330
8C3
100
AcDbXrecord
280
     1
102
RTVSPropertyOp0
 70
     1
102
RTVSPropertyOp1
 70
     1
102
RTVSPropertyOp2
 70
     1
102
RTVSPropertyOp3
 70
     1
102
RTVSPropertyOp4
 70
     1
102
RTVSPropertyOp5
 70
     1
102
RTVSPropertyOp6
 70
     1
102
RTVSPropertyOp7
 70
     1
102
RTVSPropertyOp8
 70
     1
102
RTVSPropertyOp9
 70
     1
102
RTVSPropertyOp10
 70
     1
102
RTVSPropertyOp11
 70
     1
102
RTVSPropertyOp12
 70
     1
102
RTVSPropertyOp13
 70
     1
102
RTVSPropertyOp14
 70
     1
102
RTVSPropertyOp15
 70
     1
102
RTVSPropertyOp16
 70
     1
102
RTVSPropertyOp17
 70
     1
102
RTVSPropertyOp18
 70
     1
102
RTVSPropertyOp19
 70
     1
102
RTVSPropertyOp20
 70
     1
102
RTVSPropertyOp21
 70
     1
102
RTVSPropertyOp22
 70
     1
102
RTVSPropertyOp23
 70
     1
102
RTVSPropertyOp24
 70
     1
102
RTVSPropertyOp25
 70
     1
102
RTVSPropertyOp26
 70
     1
102
RTVSPropertyOp27
 70
     1
102
RTVSPropertyOp28
 70
     1
102
RTVSPropertyOp29
 70
     1
102
RTVSPropertyOp30
 70
     1
102
RTVSPropertyOp31
 70
     1
102
RTVSPropertyOp32
 70
     1
102
RTVSPropertyOp33
 70
     1
102
RTVSPropertyOp34
 70
     1
102
RTVSPropertyOp35
 70
     1
102
RTVSPropertyOp36
 70
     1
102
RTVSPropertyOp37
 70
     1
102
RTVSPropertyOp38
 70
     1
102
RTVSPropertyOp39
 70
     1
102
RTVSPropertyOp40
 70
     1
102
RTVSPropertyOp41
 70
     1
102
RTVSPropertyOp42
 70
     1
102
RTVSPropertyOp43
 70
     1
102
RTVSPropertyOp44
 70
     1
102
RTVSPropertyOp45
 70
     1
102
RTVSPropertyOp46
 70
     1
102
RTVSPropertyOp47
 70
     1
102
RTVSPropertyOp48
 70
     1
102
RTVSPropertyOp49
 70
     1
102
RTVSPropertyOp50
 70
     1
102
RTVSPropertyOp51
 70
     0
102
RTVSPropertyOp52
 70
     0
102
RTVSPropertyOp53
 70
     1
102
RTVSPropertyOp54
 70
     1
102
RTVSPropertyOp55
 70
     1
102
RTVSPropertyOp56
 70
     1
102
RTVSPropertyOp57
 70
     1
102
RTVSPost2010Prop28
280
     0
102
RTVSPost2010PropOp28
 70
     1
102
RTVSPost2010Prop29
280
     1
102
RTVSPost2010PropOp29
 70
     1
102
RTVSPost2010Prop30
280
     1
102
RTVSPost2010PropOp30
 70
     1
102
RTVSPost2010Prop31
280
     0
102
RTVSPost2010PropOp31
 70
     1
102
RTVSPost2010Prop32
280
     0
102
RTVSPost2010PropOp32
 70
     1
102
RTVSPost2010Prop33
280
     0
102
RTVSPost2010PropOp33
 70
     1
102
RTVSPost2010Prop34
280
     0
102
RTVSPost2010PropOp34
 70
     1
102
RTVSPost2010Prop35
280
     0
102
RTVSPost2010PropOp35
 70
     1
102
RTVSPost2010Prop36
280
     0
102
RTVSPost2010PropOp36
 70
     1
102
RTVSPost2010Prop37
 90
       50
102
RTVSPost2010PropOp37
 70
     1
102
RTVSPost2010Prop38
140
0.0
102
RTVSPost2010PropOp38
 70
     1
102
RTVSPost2010Prop39
140
1.0
102
RTVSPost2010PropOp39
 70
     1
102
RTVSPost2010Prop40
 90
        0
102
RTVSPost2010PropOp40
 70
     1
102
RTVSPost2010Prop41ColorIndex
 90
       18
102
RTVSPost2010Prop41ColorRGB
 90
        0
102
RTVSPost2010PropOp41
 70
     1
102
RTVSPost2010Prop42
 90
       50
102
RTVSPost2010PropOp42
 70
     1
102
RTVSPost2010Prop43
 90
        3
102
RTVSPost2010PropOp43
 70
     1
102
RTVSPost2010Prop44ColorIndex
 90
        5
102
RTVSPost2010Prop44ColorRGB
 90
      255
102
RTVSPost2010PropOp44
 70
     1
102
RTVSPost2010Prop45
280
     0
102
RTVSPost2010PropOp45
 70
     1
102
RTVSPost2010Prop46
 90
       50
102
RTVSPost2010PropOp46
 70
     1
102
RTVSPost2010Prop47
 90
       50
102
RTVSPost2010PropOp47
 70
     1
102
RTVSPost2010Prop48
 90
       50
102
RTVSPost2010PropOp48
 70
     1
102
RTVSPost2010Prop49
280
     0
102
RTVSPost2010PropOp49
 70
     1
102
RTVSPost2010Prop50
 90
       50
102
RTVSPost2010PropOp50
 70
     1
102
RTVSPost2010Prop51ColorIndex
 90
      256
102
RTVSPost2010Prop51ColorRGB
 90
-16777216
102
RTVSPost2010PropOp51
 70
     0
102
RTVSPost2010Prop52
140
1.0
102
RTVSPost2010PropOp52
 70
     0
102
RTVSPost2010Prop53
 90
        2
102
RTVSPost2010PropOp53
 70
     1
102
RTVSPost2010Prop54
  1
strokes_ogs.tif
102
RTVSPost2010PropOp54
 70
     1
102
RTVSPost2010Prop55
280
     0
102
RTVSPost2010PropOp55
 70
     1
102
RTVSPost2010Prop56
140
1.0
102
RTVSPost2010PropOp56
 70
     1
102
RTVSPost2010Prop57
140
1.0
102
RTVSPost2010PropOp57
 70
     1
  0
XRECORD
  5
8C6
102
{ACAD_REACTORS
330
8C5
102
}
330
8C5
100
AcDbXrecord
280
     1
102
RTVSPropertyOp0
 70
     1
102
RTVSPropertyOp1
 70
     1
102
RTVSPropertyOp2
 70
     1
102
RTVSPropertyOp3
 70
     1
102
RTVSPropertyOp4
 70
     1
102
RTVSPropertyOp5
 70
     1
102
RTVSPropertyOp6
 70
     1
102
RTVSPropertyOp7
 70
     1
102
RTVSPropertyOp8
 70
     1
102
RTVSPropertyOp9
 70
     1
102
RTVSPropertyOp10
 70
     1
102
RTVSPropertyOp11
 70
     1
102
RTVSPropertyOp12
 70
     1
102
RTVSPropertyOp13
 70
     1
102
RTVSPropertyOp14
 70
     1
102
RTVSPropertyOp15
 70
     1
102
RTVSPropertyOp16
 70
     1
102
RTVSPropertyOp17
 70
     1
102
RTVSPropertyOp18
 70
     1
102
RTVSPropertyOp19
 70
     1
102
RTVSPropertyOp20
 70
     1
102
RTVSPropertyOp21
 70
     1
102
RTVSPropertyOp22
 70
     1
102
RTVSPropertyOp23
 70
     1
102
RTVSPropertyOp24
 70
     1
102
RTVSPropertyOp25
 70
     1
102
RTVSPropertyOp26
 70
     1
102
RTVSPropertyOp27
 70
     1
102
RTVSPropertyOp28
 70
     1
102
RTVSPropertyOp29
 70
     1
102
RTVSPropertyOp30
 70
     1
102
RTVSPropertyOp31
 70
     1
102
RTVSPropertyOp32
 70
     1
102
RTVSPropertyOp33
 70
     1
102
RTVSPropertyOp34
 70
     1
102
RTVSPropertyOp35
 70
     1
102
RTVSPropertyOp36
 70
     1
102
RTVSPropertyOp37
 70
     1
102
RTVSPropertyOp38
 70
     1
102
RTVSPropertyOp39
 70
     1
102
RTVSPropertyOp40
 70
     1
102
RTVSPropertyOp41
 70
     1
102
RTVSPropertyOp42
 70
     1
102
RTVSPropertyOp43
 70
     1
102
RTVSPropertyOp44
 70
     1
102
RTVSPropertyOp45
 70
     1
102
RTVSPropertyOp46
 70
     1
102
RTVSPropertyOp47
 70
     1
102
RTVSPropertyOp48
 70
     1
102
RTVSPropertyOp49
 70
     1
102
RTVSPropertyOp50
 70
     1
102
RTVSPropertyOp51
 70
     0
102
RTVSPropertyOp52
 70
     0
102
RTVSPropertyOp53
 70
     1
102
RTVSPropertyOp54
 70
     1
102
RTVSPropertyOp55
 70
     1
102
RTVSPropertyOp56
 70
     1
102
RTVSPropertyOp57
 70
     1
102
RTVSPost2010Prop28
280
     0
102
RTVSPost2010PropOp28
 70
     1
102
RTVSPost2010Prop29
280
     1
102
RTVSPost2010PropOp29
 70
     1
102
RTVSPost2010Prop30
280
     1
102
RTVSPost2010PropOp30
 70
     1
102
RTVSPost2010Prop31
280
     0
102
RTVSPost2010PropOp31
 70
     1
102
RTVSPost2010Prop32
280
     0
102
RTVSPost2010PropOp32
 70
     1
102
RTVSPost2010Prop33
280
     0
102
RTVSPost2010PropOp33
 70
     1
102
RTVSPost2010Prop34
280
     0
102
RTVSPost2010PropOp34
 70
     1
102
RTVSPost2010Prop35
280
     0
102
RTVSPost2010PropOp35
 70
     1
102
RTVSPost2010Prop36
280
     0
102
RTVSPost2010PropOp36
 70
     1
102
RTVSPost2010Prop37
 90
       50
102
RTVSPost2010PropOp37
 70
     1
102
RTVSPost2010Prop38
140
0.0
102
RTVSPost2010PropOp38
 70
     1
102
RTVSPost2010Prop39
140
1.0
102
RTVSPost2010PropOp39
 70
     1
102
RTVSPost2010Prop40
 90
        0
102
RTVSPost2010PropOp40
 70
     1
102
RTVSPost2010Prop41ColorIndex
 90
       18
102
RTVSPost2010Prop41ColorRGB
 90
        0
102
RTVSPost2010PropOp41
 70
     1
102
RTVSPost2010Prop42
 90
       50
102
RTVSPost2010PropOp42
 70
     1
102
RTVSPost2010Prop43
 90
        3
102
RTVSPost2010PropOp43
 70
     1
102
RTVSPost2010Prop44ColorIndex
 90
        5
102
RTVSPost2010Prop44ColorRGB
 90
      255
102
RTVSPost2010PropOp44
 70
     1
102
RTVSPost2010Prop45
280
     0
102
RTVSPost2010PropOp45
 70
     1
102
RTVSPost2010Prop46
 90
       50
102
RTVSPost2010PropOp46
 70
     1
102
RTVSPost2010Prop47
 90
       50
102
RTVSPost2010PropOp47
 70
     1
102
RTVSPost2010Prop48
 90
       50
102
RTVSPost2010PropOp48
 70
     1
102
RTVSPost2010Prop49
280
     0
102
RTVSPost2010PropOp49
 70
     1
102
RTVSPost2010Prop50
 90
       50
102
RTVSPost2010PropOp50
 70
     1
102
RTVSPost2010Prop51ColorIndex
 90
      256
102
RTVSPost2010Prop51ColorRGB
 90
-16777216
102
RTVSPost2010PropOp51
 70
     0
102
RTVSPost2010Prop52
140
1.0
102
RTVSPost2010PropOp52
 70
     0
102
RTVSPost2010Prop53
 90
        2
102
RTVSPost2010PropOp53
 70
     1
102
RTVSPost2010Prop54
  1
strokes_ogs.tif
102
RTVSPost2010PropOp54
 70
     1
102
RTVSPost2010Prop55
280
     0
102
RTVSPost2010PropOp55
 70
     1
102
RTVSPost2010Prop56
140
1.0
102
RTVSPost2010PropOp56
 70
     1
102
RTVSPost2010Prop57
140
1.0
102
RTVSPost2010PropOp57
 70
     1
  0
XRECORD
  5
8CC
102
{ACAD_REACTORS
330
8CB
102
}
330
8CB
100
AcDbXrecord
280
     1
102
RTVSPropertyOp0
 70
     1
102
RTVSPropertyOp1
 70
     1
102
RTVSPropertyOp2
 70
     1
102
RTVSPropertyOp3
 70
     1
102
RTVSPropertyOp4
 70
     1
102
RTVSPropertyOp5
 70
     1
102
RTVSPropertyOp6
 70
     1
102
RTVSPropertyOp7
 70
     1
102
RTVSPropertyOp8
 70
     1
102
RTVSPropertyOp9
 70
     1
102
RTVSPropertyOp10
 70
     1
102
RTVSPropertyOp11
 70
     1
102
RTVSPropertyOp12
 70
     1
102
RTVSPropertyOp13
 70
     1
102
RTVSPropertyOp14
 70
     1
102
RTVSPropertyOp15
 70
     1
102
RTVSPropertyOp16
 70
     1
102
RTVSPropertyOp17
 70
     1
102
RTVSPropertyOp18
 70
     1
102
RTVSPropertyOp19
 70
     1
102
RTVSPropertyOp20
 70
     1
102
RTVSPropertyOp21
 70
     1
102
RTVSPropertyOp22
 70
     1
102
RTVSPropertyOp23
 70
     1
102
RTVSPropertyOp24
 70
     1
102
RTVSPropertyOp25
 70
     1
102
RTVSPropertyOp26
 70
     1
102
RTVSPropertyOp27
 70
     1
102
RTVSPropertyOp28
 70
     1
102
RTVSPropertyOp29
 70
     1
102
RTVSPropertyOp30
 70
     1
102
RTVSPropertyOp31
 70
     1
102
RTVSPropertyOp32
 70
     1
102
RTVSPropertyOp33
 70
     1
102
RTVSPropertyOp34
 70
     1
102
RTVSPropertyOp35
 70
     1
102
RTVSPropertyOp36
 70
     1
102
RTVSPropertyOp37
 70
     1
102
RTVSPropertyOp38
 70
     1
102
RTVSPropertyOp39
 70
     1
102
RTVSPropertyOp40
 70
     1
102
RTVSPropertyOp41
 70
     1
102
RTVSPropertyOp42
 70
     1
102
RTVSPropertyOp43
 70
     1
102
RTVSPropertyOp44
 70
     1
102
RTVSPropertyOp45
 70
     1
102
RTVSPropertyOp46
 70
     1
102
RTVSPropertyOp47
 70
     1
102
RTVSPropertyOp48
 70
     1
102
RTVSPropertyOp49
 70
     1
102
RTVSPropertyOp50
 70
     1
102
RTVSPropertyOp51
 70
     0
102
RTVSPropertyOp52
 70
     0
102
RTVSPropertyOp53
 70
     1
102
RTVSPropertyOp54
 70
     1
102
RTVSPropertyOp55
 70
     1
102
RTVSPropertyOp56
 70
     1
102
RTVSPropertyOp57
 70
     1
102
RTVSPost2010Prop28
280
     0
102
RTVSPost2010PropOp28
 70
     1
102
RTVSPost2010Prop29
280
     1
102
RTVSPost2010PropOp29
 70
     1
102
RTVSPost2010Prop30
280
     1
102
RTVSPost2010PropOp30
 70
     1
102
RTVSPost2010Prop31
280
     0
102
RTVSPost2010PropOp31
 70
     1
102
RTVSPost2010Prop32
280
     0
102
RTVSPost2010PropOp32
 70
     1
102
RTVSPost2010Prop33
280
     0
102
RTVSPost2010PropOp33
 70
     1
102
RTVSPost2010Prop34
280
     0
102
RTVSPost2010PropOp34
 70
     1
102
RTVSPost2010Prop35
280
     0
102
RTVSPost2010PropOp35
 70
     1
102
RTVSPost2010Prop36
280
     0
102
RTVSPost2010PropOp36
 70
     1
102
RTVSPost2010Prop37
 90
       50
102
RTVSPost2010PropOp37
 70
     1
102
RTVSPost2010Prop38
140
0.0
102
RTVSPost2010PropOp38
 70
     1
102
RTVSPost2010Prop39
140
1.0
102
RTVSPost2010PropOp39
 70
     1
102
RTVSPost2010Prop40
 90
        0
102
RTVSPost2010PropOp40
 70
     1
102
RTVSPost2010Prop41ColorIndex
 90
       18
102
RTVSPost2010Prop41ColorRGB
 90
        0
102
RTVSPost2010PropOp41
 70
     1
102
RTVSPost2010Prop42
 90
       50
102
RTVSPost2010PropOp42
 70
     1
102
RTVSPost2010Prop43
 90
        3
102
RTVSPost2010PropOp43
 70
     1
102
RTVSPost2010Prop44ColorIndex
 90
        5
102
RTVSPost2010Prop44ColorRGB
 90
      255
102
RTVSPost2010PropOp44
 70
     1
102
RTVSPost2010Prop45
280
     0
102
RTVSPost2010PropOp45
 70
     1
102
RTVSPost2010Prop46
 90
       50
102
RTVSPost2010PropOp46
 70
     1
102
RTVSPost2010Prop47
 90
       50
102
RTVSPost2010PropOp47
 70
     1
102
RTVSPost2010Prop48
 90
       50
102
RTVSPost2010PropOp48
 70
     1
102
RTVSPost2010Prop49
280
     0
102
RTVSPost2010PropOp49
 70
     1
102
RTVSPost2010Prop50
 90
       50
102
RTVSPost2010PropOp50
 70
     1
102
RTVSPost2010Prop51ColorIndex
 90
      256
102
RTVSPost2010Prop51ColorRGB
 90
-16777216
102
RTVSPost2010PropOp51
 70
     0
102
RTVSPost2010Prop52
140
1.0
102
RTVSPost2010PropOp52
 70
     0
102
RTVSPost2010Prop53
 90
        2
102
RTVSPost2010PropOp53
 70
     1
102
RTVSPost2010Prop54
  1
strokes_ogs.tif
102
RTVSPost2010PropOp54
 70
     1
102
RTVSPost2010Prop55
280
     0
102
RTVSPost2010PropOp55
 70
     1
102
RTVSPost2010Prop56
140
1.0
102
RTVSPost2010PropOp56
 70
     1
102
RTVSPost2010Prop57
140
1.0
102
RTVSPost2010PropOp57
 70
     1
  0
XRECORD
  5
8E0
102
{ACAD_REACTORS
330
8DF
102
}
330
8DF
100
AcDbXrecord
280
     1
102
RTVSPropertyOp0
 70
     0
102
RTVSPropertyOp1
 70
     0
102
RTVSPropertyOp2
 70
     0
102
RTVSPropertyOp3
 70
     0
102
RTVSPropertyOp4
 70
     0
102
RTVSPropertyOp5
 70
     0
102
RTVSPropertyOp6
 70
     0
102
RTVSPropertyOp7
 70
     0
102
RTVSPropertyOp8
 70
     0
102
RTVSPropertyOp9
 70
     0
102
RTVSPropertyOp10
 70
     0
102
RTVSPropertyOp11
 70
     0
102
RTVSPropertyOp12
 70
     0
102
RTVSPropertyOp13
 70
     0
102
RTVSPropertyOp14
 70
     0
102
RTVSPropertyOp15
 70
     0
102
RTVSPropertyOp16
 70
     0
102
RTVSPropertyOp17
 70
     0
102
RTVSPropertyOp18
 70
     0
102
RTVSPropertyOp19
 70
     0
102
RTVSPropertyOp20
 70
     0
102
RTVSPropertyOp21
 70
     0
102
RTVSPropertyOp22
 70
     0
102
RTVSPropertyOp23
 70
     0
102
RTVSPropertyOp24
 70
     0
102
RTVSPropertyOp25
 70
     0
102
RTVSPropertyOp26
 70
     0
102
RTVSPropertyOp27
 70
     0
102
RTVSPropertyOp28
 70
     1
102
RTVSPropertyOp29
 70
     1
102
RTVSPropertyOp30
 70
     1
102
RTVSPropertyOp31
 70
     1
102
RTVSPropertyOp32
 70
     1
102
RTVSPropertyOp33
 70
     1
102
RTVSPropertyOp34
 70
     1
102
RTVSPropertyOp35
 70
     1
102
RTVSPropertyOp36
 70
     1
102
RTVSPropertyOp37
 70
     1
102
RTVSPropertyOp38
 70
     1
102
RTVSPropertyOp39
 70
     1
102
RTVSPropertyOp40
 70
     1
102
RTVSPropertyOp41
 70
     1
102
RTVSPropertyOp42
 70
     1
102
RTVSPropertyOp43
 70
     1
102
RTVSPropertyOp44
 70
     1
102
RTVSPropertyOp45
 70
     1
102
RTVSPropertyOp46
 70
     1
102
RTVSPropertyOp47
 70
     1
102
RTVSPropertyOp48
 70
     1
102
RTVSPropertyOp49
 70
     1
102
RTVSPropertyOp50
 70
     1
102
RTVSPropertyOp51
 70
     0
102
RTVSPropertyOp52
 70
     0
102
RTVSPropertyOp53
 70
     1
102
RTVSPropertyOp54
 70
     1
102
RTVSPropertyOp55
 70
     1
102
RTVSPropertyOp56
 70
     1
102
RTVSPropertyOp57
 70
     1
102
RTVSPost2010Prop28
280
     0
102
RTVSPost2010PropOp28
 70
     1
102
RTVSPost2010Prop29
280
     1
102
RTVSPost2010PropOp29
 70
     1
102
RTVSPost2010Prop30
280
     1
102
RTVSPost2010PropOp30
 70
     1
102
RTVSPost2010Prop31
280
     0
102
RTVSPost2010PropOp31
 70
     1
102
RTVSPost2010Prop32
280
     0
102
RTVSPost2010PropOp32
 70
     1
102
RTVSPost2010Prop33
280
     0
102
RTVSPost2010PropOp33
 70
     1
102
RTVSPost2010Prop34
280
     0
102
RTVSPost2010PropOp34
 70
     1
102
RTVSPost2010Prop35
280
     0
102
RTVSPost2010PropOp35
 70
     1
102
RTVSPost2010Prop36
280
     0
102
RTVSPost2010PropOp36
 70
     1
102
RTVSPost2010Prop37
 90
       50
102
RTVSPost2010PropOp37
 70
     1
102
RTVSPost2010Prop38
140
0.0
102
RTVSPost2010PropOp38
 70
     1
102
RTVSPost2010Prop39
140
1.0
102
RTVSPost2010PropOp39
 70
     1
102
RTVSPost2010Prop40
 90
        0
102
RTVSPost2010PropOp40
 70
     1
102
RTVSPost2010Prop41ColorIndex
 90
       18
102
RTVSPost2010Prop41ColorRGB
 90
        0
102
RTVSPost2010PropOp41
 70
     1
102
RTVSPost2010Prop42
 90
       50
102
RTVSPost2010PropOp42
 70
     1
102
RTVSPost2010Prop43
 90
        3
102
RTVSPost2010PropOp43
 70
     1
102
RTVSPost2010Prop44ColorIndex
 90
        5
102
RTVSPost2010Prop44ColorRGB
 90
      255
102
RTVSPost2010PropOp44
 70
     1
102
RTVSPost2010Prop45
280
     0
102
RTVSPost2010PropOp45
 70
     1
102
RTVSPost2010Prop46
 90
       50
102
RTVSPost2010PropOp46
 70
     1
102
RTVSPost2010Prop47
 90
       50
102
RTVSPost2010PropOp47
 70
     1
102
RTVSPost2010Prop48
 90
       50
102
RTVSPost2010PropOp48
 70
     1
102
RTVSPost2010Prop49
280
     0
102
RTVSPost2010PropOp49
 70
     1
102
RTVSPost2010Prop50
 90
       50
102
RTVSPost2010PropOp50
 70
     1
102
RTVSPost2010Prop51ColorIndex
 90
      256
102
RTVSPost2010Prop51ColorRGB
 90
-16777216
102
RTVSPost2010PropOp51
 70
     0
102
RTVSPost2010Prop52
140
1.0
102
RTVSPost2010PropOp52
 70
     0
102
RTVSPost2010Prop53
 90
        2
102
RTVSPost2010PropOp53
 70
     1
102
RTVSPost2010Prop54
  1
strokes_ogs.tif
102
RTVSPost2010PropOp54
 70
     1
102
RTVSPost2010Prop55
280
     0
102
RTVSPost2010PropOp55
 70
     1
102
RTVSPost2010Prop56
140
1.0
102
RTVSPost2010PropOp56
 70
     1
102
RTVSPost2010Prop57
140
1.0
102
RTVSPost2010PropOp57
 70
     1
  0
XRECORD
  5
8DA
102
{ACAD_REACTORS
330
8D9
102
}
330
8D9
100
AcDbXrecord
280
     1
102
RTVSPropertyOp0
 70
     1
102
RTVSPropertyOp1
 70
     1
102
RTVSPropertyOp2
 70
     1
102
RTVSPropertyOp3
 70
     1
102
RTVSPropertyOp4
 70
     1
102
RTVSPropertyOp5
 70
     1
102
RTVSPropertyOp6
 70
     1
102
RTVSPropertyOp7
 70
     1
102
RTVSPropertyOp8
 70
     1
102
RTVSPropertyOp9
 70
     1
102
RTVSPropertyOp10
 70
     1
102
RTVSPropertyOp11
 70
     1
102
RTVSPropertyOp12
 70
     1
102
RTVSPropertyOp13
 70
     1
102
RTVSPropertyOp14
 70
     1
102
RTVSPropertyOp15
 70
     1
102
RTVSPropertyOp16
 70
     1
102
RTVSPropertyOp17
 70
     1
102
RTVSPropertyOp18
 70
     1
102
RTVSPropertyOp19
 70
     1
102
RTVSPropertyOp20
 70
     1
102
RTVSPropertyOp21
 70
     1
102
RTVSPropertyOp22
 70
     1
102
RTVSPropertyOp23
 70
     1
102
RTVSPropertyOp24
 70
     1
102
RTVSPropertyOp25
 70
     1
102
RTVSPropertyOp26
 70
     1
102
RTVSPropertyOp27
 70
     1
102
RTVSPropertyOp28
 70
     1
102
RTVSPropertyOp29
 70
     1
102
RTVSPropertyOp30
 70
     1
102
RTVSPropertyOp31
 70
     1
102
RTVSPropertyOp32
 70
     1
102
RTVSPropertyOp33
 70
     1
102
RTVSPropertyOp34
 70
     1
102
RTVSPropertyOp35
 70
     1
102
RTVSPropertyOp36
 70
     1
102
RTVSPropertyOp37
 70
     1
102
RTVSPropertyOp38
 70
     1
102
RTVSPropertyOp39
 70
     1
102
RTVSPropertyOp40
 70
     1
102
RTVSPropertyOp41
 70
     1
102
RTVSPropertyOp42
 70
     1
102
RTVSPropertyOp43
 70
     1
102
RTVSPropertyOp44
 70
     1
102
RTVSPropertyOp45
 70
     1
102
RTVSPropertyOp46
 70
     1
102
RTVSPropertyOp47
 70
     1
102
RTVSPropertyOp48
 70
     1
102
RTVSPropertyOp49
 70
     1
102
RTVSPropertyOp50
 70
     1
102
RTVSPropertyOp51
 70
     0
102
RTVSPropertyOp52
 70
     0
102
RTVSPropertyOp53
 70
     1
102
RTVSPropertyOp54
 70
     1
102
RTVSPropertyOp55
 70
     1
102
RTVSPropertyOp56
 70
     1
102
RTVSPropertyOp57
 70
     1
102
RTVSPost2010Prop28
280
     0
102
RTVSPost2010PropOp28
 70
     1
102
RTVSPost2010Prop29
280
     1
102
RTVSPost2010PropOp29
 70
     1
102
RTVSPost2010Prop30
280
     1
102
RTVSPost2010PropOp30
 70
     1
102
RTVSPost2010Prop31
280
     0
102
RTVSPost2010PropOp31
 70
     1
102
RTVSPost2010Prop32
280
     0
102
RTVSPost2010PropOp32
 70
     1
102
RTVSPost2010Prop33
280
     0
102
RTVSPost2010PropOp33
 70
     1
102
RTVSPost2010Prop34
280
     0
102
RTVSPost2010PropOp34
 70
     1
102
RTVSPost2010Prop35
280
     0
102
RTVSPost2010PropOp35
 70
     1
102
RTVSPost2010Prop36
280
     0
102
RTVSPost2010PropOp36
 70
     1
102
RTVSPost2010Prop37
 90
       50
102
RTVSPost2010PropOp37
 70
     1
102
RTVSPost2010Prop38
140
0.0
102
RTVSPost2010PropOp38
 70
     1
102
RTVSPost2010Prop39
140
1.0
102
RTVSPost2010PropOp39
 70
     1
102
RTVSPost2010Prop40
 90
        0
102
RTVSPost2010PropOp40
 70
     1
102
RTVSPost2010Prop41ColorIndex
 90
       18
102
RTVSPost2010Prop41ColorRGB
 90
        0
102
RTVSPost2010PropOp41
 70
     1
102
RTVSPost2010Prop42
 90
       50
102
RTVSPost2010PropOp42
 70
     1
102
RTVSPost2010Prop43
 90
        3
102
RTVSPost2010PropOp43
 70
     1
102
RTVSPost2010Prop44ColorIndex
 90
        5
102
RTVSPost2010Prop44ColorRGB
 90
      255
102
RTVSPost2010PropOp44
 70
     1
102
RTVSPost2010Prop45
280
     0
102
RTVSPost2010PropOp45
 70
     1
102
RTVSPost2010Prop46
 90
       50
102
RTVSPost2010PropOp46
 70
     1
102
RTVSPost2010Prop47
 90
       50
102
RTVSPost2010PropOp47
 70
     1
102
RTVSPost2010Prop48
 90
       50
102
RTVSPost2010PropOp48
 70
     1
102
RTVSPost2010Prop49
280
     0
102
RTVSPost2010PropOp49
 70
     1
102
RTVSPost2010Prop50
 90
       50
102
RTVSPost2010PropOp50
 70
     1
102
RTVSPost2010Prop51ColorIndex
 90
      256
102
RTVSPost2010Prop51ColorRGB
 90
-16777216
102
RTVSPost2010PropOp51
 70
     0
102
RTVSPost2010Prop52
140
1.0
102
RTVSPost2010PropOp52
 70
     0
102
RTVSPost2010Prop53
 90
        2
102
RTVSPost2010PropOp53
 70
     1
102
RTVSPost2010Prop54
  1
strokes_ogs.tif
102
RTVSPost2010PropOp54
 70
     1
102
RTVSPost2010Prop55
280
     0
102
RTVSPost2010PropOp55
 70
     1
102
RTVSPost2010Prop56
140
1.0
102
RTVSPost2010PropOp56
 70
     1
102
RTVSPost2010Prop57
140
1.0
102
RTVSPost2010PropOp57
 70
     1
  0
XRECORD
  5
8E2
102
{ACAD_REACTORS
330
8E1
102
}
330
8E1
100
AcDbXrecord
280
     1
102
RTVSPropertyOp0
 70
     0
102
RTVSPropertyOp1
 70
     0
102
RTVSPropertyOp2
 70
     0
102
RTVSPropertyOp3
 70
     0
102
RTVSPropertyOp4
 70
     0
102
RTVSPropertyOp5
 70
     0
102
RTVSPropertyOp6
 70
     0
102
RTVSPropertyOp7
 70
     0
102
RTVSPropertyOp8
 70
     0
102
RTVSPropertyOp9
 70
     0
102
RTVSPropertyOp10
 70
     0
102
RTVSPropertyOp11
 70
     0
102
RTVSPropertyOp12
 70
     0
102
RTVSPropertyOp13
 70
     0
102
RTVSPropertyOp14
 70
     0
102
RTVSPropertyOp15
 70
     0
102
RTVSPropertyOp16
 70
     0
102
RTVSPropertyOp17
 70
     0
102
RTVSPropertyOp18
 70
     0
102
RTVSPropertyOp19
 70
     0
102
RTVSPropertyOp20
 70
     0
102
RTVSPropertyOp21
 70
     0
102
RTVSPropertyOp22
 70
     0
102
RTVSPropertyOp23
 70
     0
102
RTVSPropertyOp24
 70
     0
102
RTVSPropertyOp25
 70
     0
102
RTVSPropertyOp26
 70
     0
102
RTVSPropertyOp27
 70
     0
102
RTVSPropertyOp28
 70
     1
102
RTVSPropertyOp29
 70
     1
102
RTVSPropertyOp30
 70
     1
102
RTVSPropertyOp31
 70
     1
102
RTVSPropertyOp32
 70
     1
102
RTVSPropertyOp33
 70
     1
102
RTVSPropertyOp34
 70
     1
102
RTVSPropertyOp35
 70
     1
102
RTVSPropertyOp36
 70
     1
102
RTVSPropertyOp37
 70
     1
102
RTVSPropertyOp38
 70
     1
102
RTVSPropertyOp39
 70
     1
102
RTVSPropertyOp40
 70
     1
102
RTVSPropertyOp41
 70
     1
102
RTVSPropertyOp42
 70
     1
102
RTVSPropertyOp43
 70
     1
102
RTVSPropertyOp44
 70
     1
102
RTVSPropertyOp45
 70
     1
102
RTVSPropertyOp46
 70
     1
102
RTVSPropertyOp47
 70
     1
102
RTVSPropertyOp48
 70
     1
102
RTVSPropertyOp49
 70
     1
102
RTVSPropertyOp50
 70
     1
102
RTVSPropertyOp51
 70
     0
102
RTVSPropertyOp52
 70
     0
102
RTVSPropertyOp53
 70
     1
102
RTVSPropertyOp54
 70
     1
102
RTVSPropertyOp55
 70
     1
102
RTVSPropertyOp56
 70
     1
102
RTVSPropertyOp57
 70
     1
102
RTVSPost2010Prop28
280
     0
102
RTVSPost2010PropOp28
 70
     1
102
RTVSPost2010Prop29
280
     1
102
RTVSPost2010PropOp29
 70
     1
102
RTVSPost2010Prop30
280
     1
102
RTVSPost2010PropOp30
 70
     1
102
RTVSPost2010Prop31
280
     0
102
RTVSPost2010PropOp31
 70
     1
102
RTVSPost2010Prop32
280
     0
102
RTVSPost2010PropOp32
 70
     1
102
RTVSPost2010Prop33
280
     0
102
RTVSPost2010PropOp33
 70
     1
102
RTVSPost2010Prop34
280
     0
102
RTVSPost2010PropOp34
 70
     1
102
RTVSPost2010Prop35
280
     0
102
RTVSPost2010PropOp35
 70
     1
102
RTVSPost2010Prop36
280
     0
102
RTVSPost2010PropOp36
 70
     1
102
RTVSPost2010Prop37
 90
       50
102
RTVSPost2010PropOp37
 70
     1
102
RTVSPost2010Prop38
140
0.0
102
RTVSPost2010PropOp38
 70
     1
102
RTVSPost2010Prop39
140
1.0
102
RTVSPost2010PropOp39
 70
     1
102
RTVSPost2010Prop40
 90
        0
102
RTVSPost2010PropOp40
 70
     1
102
RTVSPost2010Prop41ColorIndex
 90
       18
102
RTVSPost2010Prop41ColorRGB
 90
        0
102
RTVSPost2010PropOp41
 70
     1
102
RTVSPost2010Prop42
 90
       50
102
RTVSPost2010PropOp42
 70
     1
102
RTVSPost2010Prop43
 90
        3
102
RTVSPost2010PropOp43
 70
     1
102
RTVSPost2010Prop44ColorIndex
 90
        5
102
RTVSPost2010Prop44ColorRGB
 90
      255
102
RTVSPost2010PropOp44
 70
     1
102
RTVSPost2010Prop45
280
     0
102
RTVSPost2010PropOp45
 70
     1
102
RTVSPost2010Prop46
 90
       50
102
RTVSPost2010PropOp46
 70
     1
102
RTVSPost2010Prop47
 90
       50
102
RTVSPost2010PropOp47
 70
     1
102
RTVSPost2010Prop48
 90
       50
102
RTVSPost2010PropOp48
 70
     1
102
RTVSPost2010Prop49
280
     0
102
RTVSPost2010PropOp49
 70
     1
102
RTVSPost2010Prop50
 90
       50
102
RTVSPost2010PropOp50
 70
     1
102
RTVSPost2010Prop51ColorIndex
 90
      256
102
RTVSPost2010Prop51ColorRGB
 90
-16777216
102
RTVSPost2010PropOp51
 70
     0
102
RTVSPost2010Prop52
140
1.0
102
RTVSPost2010PropOp52
 70
     0
102
RTVSPost2010Prop53
 90
        2
102
RTVSPost2010PropOp53
 70
     1
102
RTVSPost2010Prop54
  1
strokes_ogs.tif
102
RTVSPost2010PropOp54
 70
     1
102
RTVSPost2010Prop55
280
     0
102
RTVSPost2010PropOp55
 70
     1
102
RTVSPost2010Prop56
140
1.0
102
RTVSPost2010PropOp56
 70
     1
102
RTVSPost2010Prop57
140
1.0
102
RTVSPost2010PropOp57
 70
     1
  0
XRECORD
  5
8D0
102
{ACAD_REACTORS
330
8CF
102
}
330
8CF
100
AcDbXrecord
280
     1
102
RTVSPropertyOp0
 70
     1
102
RTVSPropertyOp1
 70
     1
102
RTVSPropertyOp2
 70
     1
102
RTVSPropertyOp3
 70
     1
102
RTVSPropertyOp4
 70
     1
102
RTVSPropertyOp5
 70
     1
102
RTVSPropertyOp6
 70
     1
102
RTVSPropertyOp7
 70
     1
102
RTVSPropertyOp8
 70
     1
102
RTVSPropertyOp9
 70
     1
102
RTVSPropertyOp10
 70
     1
102
RTVSPropertyOp11
 70
     1
102
RTVSPropertyOp12
 70
     1
102
RTVSPropertyOp13
 70
     1
102
RTVSPropertyOp14
 70
     1
102
RTVSPropertyOp15
 70
     1
102
RTVSPropertyOp16
 70
     1
102
RTVSPropertyOp17
 70
     1
102
RTVSPropertyOp18
 70
     1
102
RTVSPropertyOp19
 70
     1
102
RTVSPropertyOp20
 70
     1
102
RTVSPropertyOp21
 70
     1
102
RTVSPropertyOp22
 70
     1
102
RTVSPropertyOp23
 70
     1
102
RTVSPropertyOp24
 70
     1
102
RTVSPropertyOp25
 70
     1
102
RTVSPropertyOp26
 70
     1
102
RTVSPropertyOp27
 70
     1
102
RTVSPropertyOp28
 70
     1
102
RTVSPropertyOp29
 70
     1
102
RTVSPropertyOp30
 70
     1
102
RTVSPropertyOp31
 70
     1
102
RTVSPropertyOp32
 70
     1
102
RTVSPropertyOp33
 70
     1
102
RTVSPropertyOp34
 70
     1
102
RTVSPropertyOp35
 70
     1
102
RTVSPropertyOp36
 70
     1
102
RTVSPropertyOp37
 70
     1
102
RTVSPropertyOp38
 70
     1
102
RTVSPropertyOp39
 70
     1
102
RTVSPropertyOp40
 70
     1
102
RTVSPropertyOp41
 70
     1
102
RTVSPropertyOp42
 70
     1
102
RTVSPropertyOp43
 70
     1
102
RTVSPropertyOp44
 70
     1
102
RTVSPropertyOp45
 70
     1
102
RTVSPropertyOp46
 70
     1
102
RTVSPropertyOp47
 70
     1
102
RTVSPropertyOp48
 70
     1
102
RTVSPropertyOp49
 70
     1
102
RTVSPropertyOp50
 70
     1
102
RTVSPropertyOp51
 70
     0
102
RTVSPropertyOp52
 70
     0
102
RTVSPropertyOp53
 70
     1
102
RTVSPropertyOp54
 70
     1
102
RTVSPropertyOp55
 70
     1
102
RTVSPropertyOp56
 70
     1
102
RTVSPropertyOp57
 70
     1
102
RTVSPost2010Prop28
280
     0
102
RTVSPost2010PropOp28
 70
     1
102
RTVSPost2010Prop29
280
     1
102
RTVSPost2010PropOp29
 70
     1
102
RTVSPost2010Prop30
280
     1
102
RTVSPost2010PropOp30
 70
     1
102
RTVSPost2010Prop31
280
     0
102
RTVSPost2010PropOp31
 70
     1
102
RTVSPost2010Prop32
280
     0
102
RTVSPost2010PropOp32
 70
     1
102
RTVSPost2010Prop33
280
     0
102
RTVSPost2010PropOp33
 70
     1
102
RTVSPost2010Prop34
280
     0
102
RTVSPost2010PropOp34
 70
     1
102
RTVSPost2010Prop35
280
     0
102
RTVSPost2010PropOp35
 70
     1
102
RTVSPost2010Prop36
280
     0
102
RTVSPost2010PropOp36
 70
     1
102
RTVSPost2010Prop37
 90
       50
102
RTVSPost2010PropOp37
 70
     1
102
RTVSPost2010Prop38
140
0.0
102
RTVSPost2010PropOp38
 70
     1
102
RTVSPost2010Prop39
140
1.0
102
RTVSPost2010PropOp39
 70
     1
102
RTVSPost2010Prop40
 90
        0
102
RTVSPost2010PropOp40
 70
     1
102
RTVSPost2010Prop41ColorIndex
 90
       18
102
RTVSPost2010Prop41ColorRGB
 90
        0
102
RTVSPost2010PropOp41
 70
     1
102
RTVSPost2010Prop42
 90
       50
102
RTVSPost2010PropOp42
 70
     1
102
RTVSPost2010Prop43
 90
        3
102
RTVSPost2010PropOp43
 70
     1
102
RTVSPost2010Prop44ColorIndex
 90
        5
102
RTVSPost2010Prop44ColorRGB
 90
      255
102
RTVSPost2010PropOp44
 70
     1
102
RTVSPost2010Prop45
280
     0
102
RTVSPost2010PropOp45
 70
     1
102
RTVSPost2010Prop46
 90
       50
102
RTVSPost2010PropOp46
 70
     1
102
RTVSPost2010Prop47
 90
       50
102
RTVSPost2010PropOp47
 70
     1
102
RTVSPost2010Prop48
 90
       50
102
RTVSPost2010PropOp48
 70
     1
102
RTVSPost2010Prop49
280
     0
102
RTVSPost2010PropOp49
 70
     1
102
RTVSPost2010Prop50
 90
       50
102
RTVSPost2010PropOp50
 70
     1
102
RTVSPost2010Prop51ColorIndex
 90
      256
102
RTVSPost2010Prop51ColorRGB
 90
-16777216
102
RTVSPost2010PropOp51
 70
     0
102
RTVSPost2010Prop52
140
1.0
102
RTVSPost2010PropOp52
 70
     0
102
RTVSPost2010Prop53
 90
        2
102
RTVSPost2010PropOp53
 70
     1
102
RTVSPost2010Prop54
  1
strokes_ogs.tif
102
RTVSPost2010PropOp54
 70
     1
102
RTVSPost2010Prop55
280
     0
102
RTVSPost2010PropOp55
 70
     1
102
RTVSPost2010Prop56
140
1.0
102
RTVSPost2010PropOp56
 70
     1
102
RTVSPost2010Prop57
140
1.0
102
RTVSPost2010PropOp57
 70
     1
  0
XRECORD
  5
8EE
102
{ACAD_REACTORS
330
8ED
102
}
330
8ED
100
AcDbXrecord
280
     1
102
RTVSPropertyOp0
 70
     1
102
RTVSPropertyOp1
 70
     1
102
RTVSPropertyOp2
 70
     1
102
RTVSPropertyOp3
 70
     1
102
RTVSPropertyOp4
 70
     1
102
RTVSPropertyOp5
 70
     1
102
RTVSPropertyOp6
 70
     1
102
RTVSPropertyOp7
 70
     1
102
RTVSPropertyOp8
 70
     1
102
RTVSPropertyOp9
 70
     1
102
RTVSPropertyOp10
 70
     1
102
RTVSPropertyOp11
 70
     1
102
RTVSPropertyOp12
 70
     1
102
RTVSPropertyOp13
 70
     1
102
RTVSPropertyOp14
 70
     1
102
RTVSPropertyOp15
 70
     1
102
RTVSPropertyOp16
 70
     1
102
RTVSPropertyOp17
 70
     1
102
RTVSPropertyOp18
 70
     1
102
RTVSPropertyOp19
 70
     1
102
RTVSPropertyOp20
 70
     1
102
RTVSPropertyOp21
 70
     1
102
RTVSPropertyOp22
 70
     1
102
RTVSPropertyOp23
 70
     1
102
RTVSPropertyOp24
 70
     1
102
RTVSPropertyOp25
 70
     1
102
RTVSPropertyOp26
 70
     1
102
RTVSPropertyOp27
 70
     1
102
RTVSPropertyOp28
 70
     1
102
RTVSPropertyOp29
 70
     1
102
RTVSPropertyOp30
 70
     1
102
RTVSPropertyOp31
 70
     1
102
RTVSPropertyOp32
 70
     1
102
RTVSPropertyOp33
 70
     1
102
RTVSPropertyOp34
 70
     1
102
RTVSPropertyOp35
 70
     1
102
RTVSPropertyOp36
 70
     1
102
RTVSPropertyOp37
 70
     1
102
RTVSPropertyOp38
 70
     1
102
RTVSPropertyOp39
 70
     1
102
RTVSPropertyOp40
 70
     1
102
RTVSPropertyOp41
 70
     1
102
RTVSPropertyOp42
 70
     1
102
RTVSPropertyOp43
 70
     1
102
RTVSPropertyOp44
 70
     1
102
RTVSPropertyOp45
 70
     1
102
RTVSPropertyOp46
 70
     1
102
RTVSPropertyOp47
 70
     1
102
RTVSPropertyOp48
 70
     1
102
RTVSPropertyOp49
 70
     1
102
RTVSPropertyOp50
 70
     1
102
RTVSPropertyOp51
 70
     0
102
RTVSPropertyOp52
 70
     0
102
RTVSPropertyOp53
 70
     1
102
RTVSPropertyOp54
 70
     1
102
RTVSPropertyOp55
 70
     1
102
RTVSPropertyOp56
 70
     1
102
RTVSPropertyOp57
 70
     1
102
RTVSPost2010Prop28
280
     0
102
RTVSPost2010PropOp28
 70
     1
102
RTVSPost2010Prop29
280
     1
102
RTVSPost2010PropOp29
 70
     1
102
RTVSPost2010Prop30
280
     1
102
RTVSPost2010PropOp30
 70
     1
102
RTVSPost2010Prop31
280
     0
102
RTVSPost2010PropOp31
 70
     1
102
RTVSPost2010Prop32
280
     0
102
RTVSPost2010PropOp32
 70
     1
102
RTVSPost2010Prop33
280
     0
102
RTVSPost2010PropOp33
 70
     1
102
RTVSPost2010Prop34
280
     0
102
RTVSPost2010PropOp34
 70
     1
102
RTVSPost2010Prop35
280
     0
102
RTVSPost2010PropOp35
 70
     1
102
RTVSPost2010Prop36
280
     0
102
RTVSPost2010PropOp36
 70
     1
102
RTVSPost2010Prop37
 90
       50
102
RTVSPost2010PropOp37
 70
     1
102
RTVSPost2010Prop38
140
0.0
102
RTVSPost2010PropOp38
 70
     1
102
RTVSPost2010Prop39
140
1.0
102
RTVSPost2010PropOp39
 70
     1
102
RTVSPost2010Prop40
 90
        0
102
RTVSPost2010PropOp40
 70
     1
102
RTVSPost2010Prop41ColorIndex
 90
       18
102
RTVSPost2010Prop41ColorRGB
 90
        0
102
RTVSPost2010PropOp41
 70
     1
102
RTVSPost2010Prop42
 90
       50
102
RTVSPost2010PropOp42
 70
     1
102
RTVSPost2010Prop43
 90
        3
102
RTVSPost2010PropOp43
 70
     1
102
RTVSPost2010Prop44ColorIndex
 90
        5
102
RTVSPost2010Prop44ColorRGB
 90
      255
102
RTVSPost2010PropOp44
 70
     1
102
RTVSPost2010Prop45
280
     0
102
RTVSPost2010PropOp45
 70
     1
102
RTVSPost2010Prop46
 90
       50
102
RTVSPost2010PropOp46
 70
     1
102
RTVSPost2010Prop47
 90
       50
102
RTVSPost2010PropOp47
 70
     1
102
RTVSPost2010Prop48
 90
       50
102
RTVSPost2010PropOp48
 70
     1
102
RTVSPost2010Prop49
280
     0
102
RTVSPost2010PropOp49
 70
     1
102
RTVSPost2010Prop50
 90
       50
102
RTVSPost2010PropOp50
 70
     1
102
RTVSPost2010Prop51ColorIndex
 90
      256
102
RTVSPost2010Prop51ColorRGB
 90
-16777216
102
RTVSPost2010PropOp51
 70
     0
102
RTVSPost2010Prop52
140
1.0
102
RTVSPost2010PropOp52
 70
     0
102
RTVSPost2010Prop53
 90
        2
102
RTVSPost2010PropOp53
 70
     1
102
RTVSPost2010Prop54
  1
strokes_ogs.tif
102
RTVSPost2010PropOp54
 70
     1
102
RTVSPost2010Prop55
280
     0
102
RTVSPost2010PropOp55
 70
     1
102
RTVSPost2010Prop56
140
1.0
102
RTVSPost2010PropOp56
 70
     1
102
RTVSPost2010Prop57
140
1.0
102
RTVSPost2010PropOp57
 70
     1
  0
XRECORD
  5
8EC
102
{ACAD_REACTORS
330
8EB
102
}
330
8EB
100
AcDbXrecord
280
     1
102
RTVSPropertyOp0
 70
     1
102
RTVSPropertyOp1
 70
     1
102
RTVSPropertyOp2
 70
     1
102
RTVSPropertyOp3
 70
     1
102
RTVSPropertyOp4
 70
     1
102
RTVSPropertyOp5
 70
     1
102
RTVSPropertyOp6
 70
     1
102
RTVSPropertyOp7
 70
     1
102
RTVSPropertyOp8
 70
     1
102
RTVSPropertyOp9
 70
     1
102
RTVSPropertyOp10
 70
     1
102
RTVSPropertyOp11
 70
     1
102
RTVSPropertyOp12
 70
     1
102
RTVSPropertyOp13
 70
     1
102
RTVSPropertyOp14
 70
     1
102
RTVSPropertyOp15
 70
     1
102
RTVSPropertyOp16
 70
     1
102
RTVSPropertyOp17
 70
     1
102
RTVSPropertyOp18
 70
     1
102
RTVSPropertyOp19
 70
     1
102
RTVSPropertyOp20
 70
     1
102
RTVSPropertyOp21
 70
     1
102
RTVSPropertyOp22
 70
     1
102
RTVSPropertyOp23
 70
     1
102
RTVSPropertyOp24
 70
     1
102
RTVSPropertyOp25
 70
     1
102
RTVSPropertyOp26
 70
     1
102
RTVSPropertyOp27
 70
     1
102
RTVSPropertyOp28
 70
     1
102
RTVSPropertyOp29
 70
     1
102
RTVSPropertyOp30
 70
     1
102
RTVSPropertyOp31
 70
     1
102
RTVSPropertyOp32
 70
     1
102
RTVSPropertyOp33
 70
     1
102
RTVSPropertyOp34
 70
     1
102
RTVSPropertyOp35
 70
     1
102
RTVSPropertyOp36
 70
     1
102
RTVSPropertyOp37
 70
     1
102
RTVSPropertyOp38
 70
     1
102
RTVSPropertyOp39
 70
     1
102
RTVSPropertyOp40
 70
     1
102
RTVSPropertyOp41
 70
     1
102
RTVSPropertyOp42
 70
     1
102
RTVSPropertyOp43
 70
     1
102
RTVSPropertyOp44
 70
     1
102
RTVSPropertyOp45
 70
     1
102
RTVSPropertyOp46
 70
     1
102
RTVSPropertyOp47
 70
     1
102
RTVSPropertyOp48
 70
     1
102
RTVSPropertyOp49
 70
     1
102
RTVSPropertyOp50
 70
     1
102
RTVSPropertyOp51
 70
     0
102
RTVSPropertyOp52
 70
     0
102
RTVSPropertyOp53
 70
     1
102
RTVSPropertyOp54
 70
     1
102
RTVSPropertyOp55
 70
     1
102
RTVSPropertyOp56
 70
     1
102
RTVSPropertyOp57
 70
     1
102
RTVSPost2010Prop28
280
     0
102
RTVSPost2010PropOp28
 70
     1
102
RTVSPost2010Prop29
280
     1
102
RTVSPost2010PropOp29
 70
     1
102
RTVSPost2010Prop30
280
     1
102
RTVSPost2010PropOp30
 70
     1
102
RTVSPost2010Prop31
280
     0
102
RTVSPost2010PropOp31
 70
     1
102
RTVSPost2010Prop32
280
     0
102
RTVSPost2010PropOp32
 70
     1
102
RTVSPost2010Prop33
280
     0
102
RTVSPost2010PropOp33
 70
     1
102
RTVSPost2010Prop34
280
     0
102
RTVSPost2010PropOp34
 70
     1
102
RTVSPost2010Prop35
280
     0
102
RTVSPost2010PropOp35
 70
     1
102
RTVSPost2010Prop36
280
     0
102
RTVSPost2010PropOp36
 70
     1
102
RTVSPost2010Prop37
 90
       50
102
RTVSPost2010PropOp37
 70
     1
102
RTVSPost2010Prop38
140
0.0
102
RTVSPost2010PropOp38
 70
     1
102
RTVSPost2010Prop39
140
1.0
102
RTVSPost2010PropOp39
 70
     1
102
RTVSPost2010Prop40
 90
        0
102
RTVSPost2010PropOp40
 70
     1
102
RTVSPost2010Prop41ColorIndex
 90
       18
102
RTVSPost2010Prop41ColorRGB
 90
        0
102
RTVSPost2010PropOp41
 70
     1
102
RTVSPost2010Prop42
 90
       50
102
RTVSPost2010PropOp42
 70
     1
102
RTVSPost2010Prop43
 90
        3
102
RTVSPost2010PropOp43
 70
     1
102
RTVSPost2010Prop44ColorIndex
 90
        5
102
RTVSPost2010Prop44ColorRGB
 90
      255
102
RTVSPost2010PropOp44
 70
     1
102
RTVSPost2010Prop45
280
     0
102
RTVSPost2010PropOp45
 70
     1
102
RTVSPost2010Prop46
 90
       50
102
RTVSPost2010PropOp46
 70
     1
102
RTVSPost2010Prop47
 90
       50
102
RTVSPost2010PropOp47
 70
     1
102
RTVSPost2010Prop48
 90
       50
102
RTVSPost2010PropOp48
 70
     1
102
RTVSPost2010Prop49
280
     0
102
RTVSPost2010PropOp49
 70
     1
102
RTVSPost2010Prop50
 90
       50
102
RTVSPost2010PropOp50
 70
     1
102
RTVSPost2010Prop51ColorIndex
 90
      256
102
RTVSPost2010Prop51ColorRGB
 90
-16777216
102
RTVSPost2010PropOp51
 70
     0
102
RTVSPost2010Prop52
140
1.0
102
RTVSPost2010PropOp52
 70
     0
102
RTVSPost2010Prop53
 90
        2
102
RTVSPost2010PropOp53
 70
     1
102
RTVSPost2010Prop54
  1
strokes_ogs.tif
102
RTVSPost2010PropOp54
 70
     1
102
RTVSPost2010Prop55
280
     0
102
RTVSPost2010PropOp55
 70
     1
102
RTVSPost2010Prop56
140
1.0
102
RTVSPost2010PropOp56
 70
     1
102
RTVSPost2010Prop57
140
1.0
102
RTVSPost2010PropOp57
 70
     1
  0
XRECORD
  5
8E6
102
{ACAD_REACTORS
330
8E5
102
}
330
8E5
100
AcDbXrecord
280
     1
102
RTVSPropertyOp0
 70
     1
102
RTVSPropertyOp1
 70
     1
102
RTVSPropertyOp2
 70
     1
102
RTVSPropertyOp3
 70
     1
102
RTVSPropertyOp4
 70
     1
102
RTVSPropertyOp5
 70
     1
102
RTVSPropertyOp6
 70
     1
102
RTVSPropertyOp7
 70
     1
102
RTVSPropertyOp8
 70
     1
102
RTVSPropertyOp9
 70
     1
102
RTVSPropertyOp10
 70
     1
102
RTVSPropertyOp11
 70
     1
102
RTVSPropertyOp12
 70
     1
102
RTVSPropertyOp13
 70
     1
102
RTVSPropertyOp14
 70
     1
102
RTVSPropertyOp15
 70
     1
102
RTVSPropertyOp16
 70
     1
102
RTVSPropertyOp17
 70
     1
102
RTVSPropertyOp18
 70
     1
102
RTVSPropertyOp19
 70
     1
102
RTVSPropertyOp20
 70
     1
102
RTVSPropertyOp21
 70
     1
102
RTVSPropertyOp22
 70
     1
102
RTVSPropertyOp23
 70
     1
102
RTVSPropertyOp24
 70
     1
102
RTVSPropertyOp25
 70
     1
102
RTVSPropertyOp26
 70
     1
102
RTVSPropertyOp27
 70
     1
102
RTVSPropertyOp28
 70
     1
102
RTVSPropertyOp29
 70
     1
102
RTVSPropertyOp30
 70
     1
102
RTVSPropertyOp31
 70
     1
102
RTVSPropertyOp32
 70
     1
102
RTVSPropertyOp33
 70
     1
102
RTVSPropertyOp34
 70
     1
102
RTVSPropertyOp35
 70
     1
102
RTVSPropertyOp36
 70
     1
102
RTVSPropertyOp37
 70
     1
102
RTVSPropertyOp38
 70
     1
102
RTVSPropertyOp39
 70
     1
102
RTVSPropertyOp40
 70
     1
102
RTVSPropertyOp41
 70
     1
102
RTVSPropertyOp42
 70
     1
102
RTVSPropertyOp43
 70
     1
102
RTVSPropertyOp44
 70
     1
102
RTVSPropertyOp45
 70
     1
102
RTVSPropertyOp46
 70
     1
102
RTVSPropertyOp47
 70
     1
102
RTVSPropertyOp48
 70
     1
102
RTVSPropertyOp49
 70
     1
102
RTVSPropertyOp50
 70
     1
102
RTVSPropertyOp51
 70
     0
102
RTVSPropertyOp52
 70
     0
102
RTVSPropertyOp53
 70
     1
102
RTVSPropertyOp54
 70
     1
102
RTVSPropertyOp55
 70
     1
102
RTVSPropertyOp56
 70
     1
102
RTVSPropertyOp57
 70
     1
102
RTVSPost2010Prop28
280
     0
102
RTVSPost2010PropOp28
 70
     1
102
RTVSPost2010Prop29
280
     1
102
RTVSPost2010PropOp29
 70
     1
102
RTVSPost2010Prop30
280
     1
102
RTVSPost2010PropOp30
 70
     1
102
RTVSPost2010Prop31
280
     0
102
RTVSPost2010PropOp31
 70
     1
102
RTVSPost2010Prop32
280
     0
102
RTVSPost2010PropOp32
 70
     1
102
RTVSPost2010Prop33
280
     0
102
RTVSPost2010PropOp33
 70
     1
102
RTVSPost2010Prop34
280
     0
102
RTVSPost2010PropOp34
 70
     1
102
RTVSPost2010Prop35
280
     0
102
RTVSPost2010PropOp35
 70
     1
102
RTVSPost2010Prop36
280
     0
102
RTVSPost2010PropOp36
 70
     1
102
RTVSPost2010Prop37
 90
       50
102
RTVSPost2010PropOp37
 70
     1
102
RTVSPost2010Prop38
140
0.0
102
RTVSPost2010PropOp38
 70
     1
102
RTVSPost2010Prop39
140
1.0
102
RTVSPost2010PropOp39
 70
     1
102
RTVSPost2010Prop40
 90
        0
102
RTVSPost2010PropOp40
 70
     1
102
RTVSPost2010Prop41ColorIndex
 90
       18
102
RTVSPost2010Prop41ColorRGB
 90
        0
102
RTVSPost2010PropOp41
 70
     1
102
RTVSPost2010Prop42
 90
       50
102
RTVSPost2010PropOp42
 70
     1
102
RTVSPost2010Prop43
 90
        3
102
RTVSPost2010PropOp43
 70
     1
102
RTVSPost2010Prop44ColorIndex
 90
        5
102
RTVSPost2010Prop44ColorRGB
 90
      255
102
RTVSPost2010PropOp44
 70
     1
102
RTVSPost2010Prop45
280
     0
102
RTVSPost2010PropOp45
 70
     1
102
RTVSPost2010Prop46
 90
       50
102
RTVSPost2010PropOp46
 70
     1
102
RTVSPost2010Prop47
 90
       50
102
RTVSPost2010PropOp47
 70
     1
102
RTVSPost2010Prop48
 90
       50
102
RTVSPost2010PropOp48
 70
     1
102
RTVSPost2010Prop49
280
     0
102
RTVSPost2010PropOp49
 70
     1
102
RTVSPost2010Prop50
 90
       50
102
RTVSPost2010PropOp50
 70
     1
102
RTVSPost2010Prop51ColorIndex
 90
      256
102
RTVSPost2010Prop51ColorRGB
 90
-16777216
102
RTVSPost2010PropOp51
 70
     0
102
RTVSPost2010Prop52
140
1.0
102
RTVSPost2010PropOp52
 70
     0
102
RTVSPost2010Prop53
 90
        2
102
RTVSPost2010PropOp53
 70
     1
102
RTVSPost2010Prop54
  1
strokes_ogs.tif
102
RTVSPost2010PropOp54
 70
     1
102
RTVSPost2010Prop55
280
     0
102
RTVSPost2010PropOp55
 70
     1
102
RTVSPost2010Prop56
140
1.0
102
RTVSPost2010PropOp56
 70
     1
102
RTVSPost2010Prop57
140
1.0
102
RTVSPost2010PropOp57
 70
     1
  0
XRECORD
  5
8E8
102
{ACAD_REACTORS
330
8E7
102
}
330
8E7
100
AcDbXrecord
280
     1
102
RTVSPropertyOp0
 70
     1
102
RTVSPropertyOp1
 70
     1
102
RTVSPropertyOp2
 70
     1
102
RTVSPropertyOp3
 70
     1
102
RTVSPropertyOp4
 70
     1
102
RTVSPropertyOp5
 70
     1
102
RTVSPropertyOp6
 70
     1
102
RTVSPropertyOp7
 70
     1
102
RTVSPropertyOp8
 70
     1
102
RTVSPropertyOp9
 70
     1
102
RTVSPropertyOp10
 70
     1
102
RTVSPropertyOp11
 70
     1
102
RTVSPropertyOp12
 70
     1
102
RTVSPropertyOp13
 70
     1
102
RTVSPropertyOp14
 70
     1
102
RTVSPropertyOp15
 70
     1
102
RTVSPropertyOp16
 70
     1
102
RTVSPropertyOp17
 70
     1
102
RTVSPropertyOp18
 70
     1
102
RTVSPropertyOp19
 70
     1
102
RTVSPropertyOp20
 70
     1
102
RTVSPropertyOp21
 70
     1
102
RTVSPropertyOp22
 70
     1
102
RTVSPropertyOp23
 70
     1
102
RTVSPropertyOp24
 70
     1
102
RTVSPropertyOp25
 70
     1
102
RTVSPropertyOp26
 70
     1
102
RTVSPropertyOp27
 70
     1
102
RTVSPropertyOp28
 70
     1
102
RTVSPropertyOp29
 70
     1
102
RTVSPropertyOp30
 70
     1
102
RTVSPropertyOp31
 70
     1
102
RTVSPropertyOp32
 70
     1
102
RTVSPropertyOp33
 70
     1
102
RTVSPropertyOp34
 70
     1
102
RTVSPropertyOp35
 70
     1
102
RTVSPropertyOp36
 70
     1
102
RTVSPropertyOp37
 70
     1
102
RTVSPropertyOp38
 70
     1
102
RTVSPropertyOp39
 70
     1
102
RTVSPropertyOp40
 70
     1
102
RTVSPropertyOp41
 70
     1
102
RTVSPropertyOp42
 70
     1
102
RTVSPropertyOp43
 70
     1
102
RTVSPropertyOp44
 70
     1
102
RTVSPropertyOp45
 70
     1
102
RTVSPropertyOp46
 70
     1
102
RTVSPropertyOp47
 70
     1
102
RTVSPropertyOp48
 70
     1
102
RTVSPropertyOp49
 70
     1
102
RTVSPropertyOp50
 70
     1
102
RTVSPropertyOp51
 70
     0
102
RTVSPropertyOp52
 70
     0
102
RTVSPropertyOp53
 70
     1
102
RTVSPropertyOp54
 70
     1
102
RTVSPropertyOp55
 70
     1
102
RTVSPropertyOp56
 70
     1
102
RTVSPropertyOp57
 70
     1
102
RTVSPost2010Prop28
280
     0
102
RTVSPost2010PropOp28
 70
     1
102
RTVSPost2010Prop29
280
     1
102
RTVSPost2010PropOp29
 70
     1
102
RTVSPost2010Prop30
280
     1
102
RTVSPost2010PropOp30
 70
     1
102
RTVSPost2010Prop31
280
     0
102
RTVSPost2010PropOp31
 70
     1
102
RTVSPost2010Prop32
280
     0
102
RTVSPost2010PropOp32
 70
     1
102
RTVSPost2010Prop33
280
     0
102
RTVSPost2010PropOp33
 70
     1
102
RTVSPost2010Prop34
280
     0
102
RTVSPost2010PropOp34
 70
     1
102
RTVSPost2010Prop35
280
     0
102
RTVSPost2010PropOp35
 70
     1
102
RTVSPost2010Prop36
280
     0
102
RTVSPost2010PropOp36
 70
     1
102
RTVSPost2010Prop37
 90
       50
102
RTVSPost2010PropOp37
 70
     1
102
RTVSPost2010Prop38
140
0.0
102
RTVSPost2010PropOp38
 70
     1
102
RTVSPost2010Prop39
140
1.0
102
RTVSPost2010PropOp39
 70
     1
102
RTVSPost2010Prop40
 90
        0
102
RTVSPost2010PropOp40
 70
     1
102
RTVSPost2010Prop41ColorIndex
 90
       18
102
RTVSPost2010Prop41ColorRGB
 90
        0
102
RTVSPost2010PropOp41
 70
     1
102
RTVSPost2010Prop42
 90
       50
102
RTVSPost2010PropOp42
 70
     1
102
RTVSPost2010Prop43
 90
        3
102
RTVSPost2010PropOp43
 70
     1
102
RTVSPost2010Prop44ColorIndex
 90
        5
102
RTVSPost2010Prop44ColorRGB
 90
      255
102
RTVSPost2010PropOp44
 70
     1
102
RTVSPost2010Prop45
280
     0
102
RTVSPost2010PropOp45
 70
     1
102
RTVSPost2010Prop46
 90
       50
102
RTVSPost2010PropOp46
 70
     1
102
RTVSPost2010Prop47
 90
       50
102
RTVSPost2010PropOp47
 70
     1
102
RTVSPost2010Prop48
 90
       50
102
RTVSPost2010PropOp48
 70
     1
102
RTVSPost2010Prop49
280
     0
102
RTVSPost2010PropOp49
 70
     1
102
RTVSPost2010Prop50
 90
       50
102
RTVSPost2010PropOp50
 70
     1
102
RTVSPost2010Prop51ColorIndex
 90
      256
102
RTVSPost2010Prop51ColorRGB
 90
-16777216
102
RTVSPost2010PropOp51
 70
     0
102
RTVSPost2010Prop52
140
1.0
102
RTVSPost2010PropOp52
 70
     0
102
RTVSPost2010Prop53
 90
        2
102
RTVSPost2010PropOp53
 70
     1
102
RTVSPost2010Prop54
  1
strokes_ogs.tif
102
RTVSPost2010PropOp54
 70
     1
102
RTVSPost2010Prop55
280
     0
102
RTVSPost2010PropOp55
 70
     1
102
RTVSPost2010Prop56
140
1.0
102
RTVSPost2010PropOp56
 70
     1
102
RTVSPost2010Prop57
140
1.0
102
RTVSPost2010PropOp57
 70
     1
  0
XRECORD
  5
8D8
102
{ACAD_REACTORS
330
8D7
102
}
330
8D7
100
AcDbXrecord
280
     1
102
RTVSPropertyOp0
 70
     1
102
RTVSPropertyOp1
 70
     1
102
RTVSPropertyOp2
 70
     1
102
RTVSPropertyOp3
 70
     1
102
RTVSPropertyOp4
 70
     1
102
RTVSPropertyOp5
 70
     1
102
RTVSPropertyOp6
 70
     1
102
RTVSPropertyOp7
 70
     1
102
RTVSPropertyOp8
 70
     1
102
RTVSPropertyOp9
 70
     1
102
RTVSPropertyOp10
 70
     1
102
RTVSPropertyOp11
 70
     1
102
RTVSPropertyOp12
 70
     1
102
RTVSPropertyOp13
 70
     1
102
RTVSPropertyOp14
 70
     1
102
RTVSPropertyOp15
 70
     1
102
RTVSPropertyOp16
 70
     1
102
RTVSPropertyOp17
 70
     1
102
RTVSPropertyOp18
 70
     1
102
RTVSPropertyOp19
 70
     1
102
RTVSPropertyOp20
 70
     1
102
RTVSPropertyOp21
 70
     1
102
RTVSPropertyOp22
 70
     1
102
RTVSPropertyOp23
 70
     1
102
RTVSPropertyOp24
 70
     1
102
RTVSPropertyOp25
 70
     1
102
RTVSPropertyOp26
 70
     1
102
RTVSPropertyOp27
 70
     1
102
RTVSPropertyOp28
 70
     1
102
RTVSPropertyOp29
 70
     1
102
RTVSPropertyOp30
 70
     1
102
RTVSPropertyOp31
 70
     1
102
RTVSPropertyOp32
 70
     1
102
RTVSPropertyOp33
 70
     1
102
RTVSPropertyOp34
 70
     1
102
RTVSPropertyOp35
 70
     1
102
RTVSPropertyOp36
 70
     1
102
RTVSPropertyOp37
 70
     1
102
RTVSPropertyOp38
 70
     1
102
RTVSPropertyOp39
 70
     1
102
RTVSPropertyOp40
 70
     1
102
RTVSPropertyOp41
 70
     1
102
RTVSPropertyOp42
 70
     1
102
RTVSPropertyOp43
 70
     1
102
RTVSPropertyOp44
 70
     1
102
RTVSPropertyOp45
 70
     1
102
RTVSPropertyOp46
 70
     1
102
RTVSPropertyOp47
 70
     1
102
RTVSPropertyOp48
 70
     1
102
RTVSPropertyOp49
 70
     1
102
RTVSPropertyOp50
 70
     1
102
RTVSPropertyOp51
 70
     0
102
RTVSPropertyOp52
 70
     0
102
RTVSPropertyOp53
 70
     1
102
RTVSPropertyOp54
 70
     1
102
RTVSPropertyOp55
 70
     1
102
RTVSPropertyOp56
 70
     1
102
RTVSPropertyOp57
 70
     1
102
RTVSPost2010Prop28
280
     0
102
RTVSPost2010PropOp28
 70
     1
102
RTVSPost2010Prop29
280
     1
102
RTVSPost2010PropOp29
 70
     1
102
RTVSPost2010Prop30
280
     1
102
RTVSPost2010PropOp30
 70
     1
102
RTVSPost2010Prop31
280
     0
102
RTVSPost2010PropOp31
 70
     1
102
RTVSPost2010Prop32
280
     0
102
RTVSPost2010PropOp32
 70
     1
102
RTVSPost2010Prop33
280
     0
102
RTVSPost2010PropOp33
 70
     1
102
RTVSPost2010Prop34
280
     0
102
RTVSPost2010PropOp34
 70
     1
102
RTVSPost2010Prop35
280
     0
102
RTVSPost2010PropOp35
 70
     1
102
RTVSPost2010Prop36
280
     0
102
RTVSPost2010PropOp36
 70
     1
102
RTVSPost2010Prop37
 90
       50
102
RTVSPost2010PropOp37
 70
     1
102
RTVSPost2010Prop38
140
0.0
102
RTVSPost2010PropOp38
 70
     1
102
RTVSPost2010Prop39
140
1.0
102
RTVSPost2010PropOp39
 70
     1
102
RTVSPost2010Prop40
 90
        0
102
RTVSPost2010PropOp40
 70
     1
102
RTVSPost2010Prop41ColorIndex
 90
       18
102
RTVSPost2010Prop41ColorRGB
 90
        0
102
RTVSPost2010PropOp41
 70
     1
102
RTVSPost2010Prop42
 90
       50
102
RTVSPost2010PropOp42
 70
     1
102
RTVSPost2010Prop43
 90
        3
102
RTVSPost2010PropOp43
 70
     1
102
RTVSPost2010Prop44ColorIndex
 90
        5
102
RTVSPost2010Prop44ColorRGB
 90
      255
102
RTVSPost2010PropOp44
 70
     1
102
RTVSPost2010Prop45
280
     0
102
RTVSPost2010PropOp45
 70
     1
102
RTVSPost2010Prop46
 90
       50
102
RTVSPost2010PropOp46
 70
     1
102
RTVSPost2010Prop47
 90
       50
102
RTVSPost2010PropOp47
 70
     1
102
RTVSPost2010Prop48
 90
       50
102
RTVSPost2010PropOp48
 70
     1
102
RTVSPost2010Prop49
280
     0
102
RTVSPost2010PropOp49
 70
     1
102
RTVSPost2010Prop50
 90
       50
102
RTVSPost2010PropOp50
 70
     1
102
RTVSPost2010Prop51ColorIndex
 90
      256
102
RTVSPost2010Prop51ColorRGB
 90
-16777216
102
RTVSPost2010PropOp51
 70
     0
102
RTVSPost2010Prop52
140
1.0
102
RTVSPost2010PropOp52
 70
     0
102
RTVSPost2010Prop53
 90
        2
102
RTVSPost2010PropOp53
 70
     1
102
RTVSPost2010Prop54
  1
strokes_ogs.tif
102
RTVSPost2010PropOp54
 70
     1
102
RTVSPost2010Prop55
280
     0
102
RTVSPost2010PropOp55
 70
     1
102
RTVSPost2010Prop56
140
1.0
102
RTVSPost2010PropOp56
 70
     1
102
RTVSPost2010Prop57
140
1.0
102
RTVSPost2010PropOp57
 70
     1
  0
XRECORD
  5
8CA
102
{ACAD_REACTORS
330
8C9
102
}
330
8C9
100
AcDbXrecord
280
     1
102
RTVSPropertyOp0
 70
     1
102
RTVSPropertyOp1
 70
     1
102
RTVSPropertyOp2
 70
     1
102
RTVSPropertyOp3
 70
     1
102
RTVSPropertyOp4
 70
     1
102
RTVSPropertyOp5
 70
     1
102
RTVSPropertyOp6
 70
     1
102
RTVSPropertyOp7
 70
     1
102
RTVSPropertyOp8
 70
     1
102
RTVSPropertyOp9
 70
     1
102
RTVSPropertyOp10
 70
     1
102
RTVSPropertyOp11
 70
     1
102
RTVSPropertyOp12
 70
     1
102
RTVSPropertyOp13
 70
     1
102
RTVSPropertyOp14
 70
     1
102
RTVSPropertyOp15
 70
     1
102
RTVSPropertyOp16
 70
     1
102
RTVSPropertyOp17
 70
     1
102
RTVSPropertyOp18
 70
     1
102
RTVSPropertyOp19
 70
     1
102
RTVSPropertyOp20
 70
     1
102
RTVSPropertyOp21
 70
     1
102
RTVSPropertyOp22
 70
     1
102
RTVSPropertyOp23
 70
     1
102
RTVSPropertyOp24
 70
     1
102
RTVSPropertyOp25
 70
     1
102
RTVSPropertyOp26
 70
     1
102
RTVSPropertyOp27
 70
     1
102
RTVSPropertyOp28
 70
     1
102
RTVSPropertyOp29
 70
     1
102
RTVSPropertyOp30
 70
     1
102
RTVSPropertyOp31
 70
     1
102
RTVSPropertyOp32
 70
     1
102
RTVSPropertyOp33
 70
     1
102
RTVSPropertyOp34
 70
     1
102
RTVSPropertyOp35
 70
     1
102
RTVSPropertyOp36
 70
     1
102
RTVSPropertyOp37
 70
     1
102
RTVSPropertyOp38
 70
     1
102
RTVSPropertyOp39
 70
     1
102
RTVSPropertyOp40
 70
     1
102
RTVSPropertyOp41
 70
     1
102
RTVSPropertyOp42
 70
     1
102
RTVSPropertyOp43
 70
     1
102
RTVSPropertyOp44
 70
     1
102
RTVSPropertyOp45
 70
     1
102
RTVSPropertyOp46
 70
     1
102
RTVSPropertyOp47
 70
     1
102
RTVSPropertyOp48
 70
     1
102
RTVSPropertyOp49
 70
     1
102
RTVSPropertyOp50
 70
     1
102
RTVSPropertyOp51
 70
     0
102
RTVSPropertyOp52
 70
     0
102
RTVSPropertyOp53
 70
     1
102
RTVSPropertyOp54
 70
     1
102
RTVSPropertyOp55
 70
     1
102
RTVSPropertyOp56
 70
     1
102
RTVSPropertyOp57
 70
     1
102
RTVSPost2010Prop28
280
     0
102
RTVSPost2010PropOp28
 70
     1
102
RTVSPost2010Prop29
280
     1
102
RTVSPost2010PropOp29
 70
     1
102
RTVSPost2010Prop30
280
     1
102
RTVSPost2010PropOp30
 70
     1
102
RTVSPost2010Prop31
280
     0
102
RTVSPost2010PropOp31
 70
     1
102
RTVSPost2010Prop32
280
     0
102
RTVSPost2010PropOp32
 70
     1
102
RTVSPost2010Prop33
280
     0
102
RTVSPost2010PropOp33
 70
     1
102
RTVSPost2010Prop34
280
     0
102
RTVSPost2010PropOp34
 70
     1
102
RTVSPost2010Prop35
280
     0
102
RTVSPost2010PropOp35
 70
     1
102
RTVSPost2010Prop36
280
     0
102
RTVSPost2010PropOp36
 70
     1
102
RTVSPost2010Prop37
 90
       50
102
RTVSPost2010PropOp37
 70
     1
102
RTVSPost2010Prop38
140
0.0
102
RTVSPost2010PropOp38
 70
     1
102
RTVSPost2010Prop39
140
1.0
102
RTVSPost2010PropOp39
 70
     1
102
RTVSPost2010Prop40
 90
        0
102
RTVSPost2010PropOp40
 70
     1
102
RTVSPost2010Prop41ColorIndex
 90
       18
102
RTVSPost2010Prop41ColorRGB
 90
        0
102
RTVSPost2010PropOp41
 70
     1
102
RTVSPost2010Prop42
 90
       50
102
RTVSPost2010PropOp42
 70
     1
102
RTVSPost2010Prop43
 90
        3
102
RTVSPost2010PropOp43
 70
     1
102
RTVSPost2010Prop44ColorIndex
 90
        5
102
RTVSPost2010Prop44ColorRGB
 90
      255
102
RTVSPost2010PropOp44
 70
     1
102
RTVSPost2010Prop45
280
     0
102
RTVSPost2010PropOp45
 70
     1
102
RTVSPost2010Prop46
 90
       50
102
RTVSPost2010PropOp46
 70
     1
102
RTVSPost2010Prop47
 90
       50
102
RTVSPost2010PropOp47
 70
     1
102
RTVSPost2010Prop48
 90
       50
102
RTVSPost2010PropOp48
 70
     1
102
RTVSPost2010Prop49
280
     0
102
RTVSPost2010PropOp49
 70
     1
102
RTVSPost2010Prop50
 90
       50
102
RTVSPost2010PropOp50
 70
     1
102
RTVSPost2010Prop51ColorIndex
 90
      256
102
RTVSPost2010Prop51ColorRGB
 90
-16777216
102
RTVSPost2010PropOp51
 70
     0
102
RTVSPost2010Prop52
140
1.0
102
RTVSPost2010PropOp52
 70
     0
102
RTVSPost2010Prop53
 90
        2
102
RTVSPost2010PropOp53
 70
     1
102
RTVSPost2010Prop54
  1
strokes_ogs.tif
102
RTVSPost2010PropOp54
 70
     1
102
RTVSPost2010Prop55
280
     0
102
RTVSPost2010PropOp55
 70
     1
102
RTVSPost2010Prop56
140
1.0
102
RTVSPost2010PropOp56
 70
     1
102
RTVSPost2010Prop57
140
1.0
102
RTVSPost2010PropOp57
 70
     1
  0
XRECORD
  5
8EA
102
{ACAD_REACTORS
330
8E9
102
}
330
8E9
100
AcDbXrecord
280
     1
102
RTVSPropertyOp0
 70
     1
102
RTVSPropertyOp1
 70
     1
102
RTVSPropertyOp2
 70
     1
102
RTVSPropertyOp3
 70
     1
102
RTVSPropertyOp4
 70
     1
102
RTVSPropertyOp5
 70
     1
102
RTVSPropertyOp6
 70
     1
102
RTVSPropertyOp7
 70
     1
102
RTVSPropertyOp8
 70
     1
102
RTVSPropertyOp9
 70
     1
102
RTVSPropertyOp10
 70
     1
102
RTVSPropertyOp11
 70
     1
102
RTVSPropertyOp12
 70
     1
102
RTVSPropertyOp13
 70
     1
102
RTVSPropertyOp14
 70
     1
102
RTVSPropertyOp15
 70
     1
102
RTVSPropertyOp16
 70
     1
102
RTVSPropertyOp17
 70
     1
102
RTVSPropertyOp18
 70
     1
102
RTVSPropertyOp19
 70
     1
102
RTVSPropertyOp20
 70
     1
102
RTVSPropertyOp21
 70
     1
102
RTVSPropertyOp22
 70
     1
102
RTVSPropertyOp23
 70
     1
102
RTVSPropertyOp24
 70
     1
102
RTVSPropertyOp25
 70
     1
102
RTVSPropertyOp26
 70
     1
102
RTVSPropertyOp27
 70
     1
102
RTVSPropertyOp28
 70
     1
102
RTVSPropertyOp29
 70
     1
102
RTVSPropertyOp30
 70
     1
102
RTVSPropertyOp31
 70
     1
102
RTVSPropertyOp32
 70
     1
102
RTVSPropertyOp33
 70
     1
102
RTVSPropertyOp34
 70
     1
102
RTVSPropertyOp35
 70
     1
102
RTVSPropertyOp36
 70
     1
102
RTVSPropertyOp37
 70
     1
102
RTVSPropertyOp38
 70
     1
102
RTVSPropertyOp39
 70
     1
102
RTVSPropertyOp40
 70
     1
102
RTVSPropertyOp41
 70
     1
102
RTVSPropertyOp42
 70
     1
102
RTVSPropertyOp43
 70
     1
102
RTVSPropertyOp44
 70
     1
102
RTVSPropertyOp45
 70
     1
102
RTVSPropertyOp46
 70
     1
102
RTVSPropertyOp47
 70
     1
102
RTVSPropertyOp48
 70
     1
102
RTVSPropertyOp49
 70
     1
102
RTVSPropertyOp50
 70
     1
102
RTVSPropertyOp51
 70
     0
102
RTVSPropertyOp52
 70
     0
102
RTVSPropertyOp53
 70
     1
102
RTVSPropertyOp54
 70
     1
102
RTVSPropertyOp55
 70
     1
102
RTVSPropertyOp56
 70
     1
102
RTVSPropertyOp57
 70
     1
102
RTVSPost2010Prop28
280
     0
102
RTVSPost2010PropOp28
 70
     1
102
RTVSPost2010Prop29
280
     1
102
RTVSPost2010PropOp29
 70
     1
102
RTVSPost2010Prop30
280
     1
102
RTVSPost2010PropOp30
 70
     1
102
RTVSPost2010Prop31
280
     0
102
RTVSPost2010PropOp31
 70
     1
102
RTVSPost2010Prop32
280
     0
102
RTVSPost2010PropOp32
 70
     1
102
RTVSPost2010Prop33
280
     0
102
RTVSPost2010PropOp33
 70
     1
102
RTVSPost2010Prop34
280
     0
102
RTVSPost2010PropOp34
 70
     1
102
RTVSPost2010Prop35
280
     0
102
RTVSPost2010PropOp35
 70
     1
102
RTVSPost2010Prop36
280
     0
102
RTVSPost2010PropOp36
 70
     1
102
RTVSPost2010Prop37
 90
       50
102
RTVSPost2010PropOp37
 70
     1
102
RTVSPost2010Prop38
140
0.0
102
RTVSPost2010PropOp38
 70
     1
102
RTVSPost2010Prop39
140
1.0
102
RTVSPost2010PropOp39
 70
     1
102
RTVSPost2010Prop40
 90
        0
102
RTVSPost2010PropOp40
 70
     1
102
RTVSPost2010Prop41ColorIndex
 90
       18
102
RTVSPost2010Prop41ColorRGB
 90
        0
102
RTVSPost2010PropOp41
 70
     1
102
RTVSPost2010Prop42
 90
       50
102
RTVSPost2010PropOp42
 70
     1
102
RTVSPost2010Prop43
 90
        3
102
RTVSPost2010PropOp43
 70
     1
102
RTVSPost2010Prop44ColorIndex
 90
        5
102
RTVSPost2010Prop44ColorRGB
 90
      255
102
RTVSPost2010PropOp44
 70
     1
102
RTVSPost2010Prop45
280
     0
102
RTVSPost2010PropOp45
 70
     1
102
RTVSPost2010Prop46
 90
       50
102
RTVSPost2010PropOp46
 70
     1
102
RTVSPost2010Prop47
 90
       50
102
RTVSPost2010PropOp47
 70
     1
102
RTVSPost2010Prop48
 90
       50
102
RTVSPost2010PropOp48
 70
     1
102
RTVSPost2010Prop49
280
     0
102
RTVSPost2010PropOp49
 70
     1
102
RTVSPost2010Prop50
 90
       50
102
RTVSPost2010PropOp50
 70
     1
102
RTVSPost2010Prop51ColorIndex
 90
      256
102
RTVSPost2010Prop51ColorRGB
 90
-16777216
102
RTVSPost2010PropOp51
 70
     0
102
RTVSPost2010Prop52
140
1.0
102
RTVSPost2010PropOp52
 70
     0
102
RTVSPost2010Prop53
 90
        2
102
RTVSPost2010PropOp53
 70
     1
102
RTVSPost2010Prop54
  1
strokes_ogs.tif
102
RTVSPost2010PropOp54
 70
     1
102
RTVSPost2010Prop55
280
     0
102
RTVSPost2010PropOp55
 70
     1
102
RTVSPost2010Prop56
140
1.0
102
RTVSPost2010PropOp56
 70
     1
102
RTVSPost2010Prop57
140
1.0
102
RTVSPost2010PropOp57
 70
     1
  0
ENDSEC
  0
EOF
