  0
SECTION
  2
HEADER
  9
$ACADVER
  1
AC1015
  9
$ACADMAINTVER
 70
     6
  9
$DWGCODEPAGE
  3
ANSI_932
  9
$INSBASE
 10
-28.57408741326981
 20
-82.8115125315162
 30
0.0
  9
$EXTMIN
 10
112.4530808199549
 20
41.95577084395705
 30
0.0
  9
$EXTMAX
 10
1375.369348321046
 20
1135.699488123992
 30
0.0
  9
$LIMMIN
 10
-210.0
 20
-148.5
  9
$LIMMAX
 10
210.0
 20
148.5
  9
$ORTHOMODE
 70
     1
  9
$REGENMODE
 70
     1
  9
$FILLMODE
 70
     1
  9
$QTEXTMODE
 70
     0
  9
$MIRRTEXT
 70
     1
  9
$LTSCALE
 40
3.0
  9
$ATTMODE
 70
     1
  9
$TEXTSIZE
 40
12.0
  9
$TRACEWID
 40
0.05
  9
$TEXTSTYLE
  7
KANJI
  9
$CLAYER
  8
2
  9
$CELTYPE
  6
BYLAYER
  9
$CECOLOR
 62
   256
  9
$CELTSCALE
 40
1.0
  9
$DISPSILH
 70
     0
  9
$DIMSCALE
 40
4.0
  9
$DIMASZ
 40
2.0
  9
$DIMEXO
 40
0.5
  9
$DIMDLI
 40
10.0
  9
$DIMRND
 40
0.0
  9
$DIMDLE
 40
0.0
  9
$DIMEXE
 40
1.0
  9
$DIMTP
 40
0.0
  9
$DIMTM
 40
0.0
  9
$DIMTXT
 40
3.0
  9
$DIMCEN
 40
0.09
  9
$DIMTSZ
 40
0.0
  9
$DIMTOL
 70
     0
  9
$DIMLIM
 70
     0
  9
$DIMTIH
 70
     0
  9
$DIMTOH
 70
     0
  9
$DIMSE1
 70
     0
  9
$DIMSE2
 70
     0
  9
$DIMTAD
 70
     1
  9
$DIMZIN
 70
     8
  9
$DIMBLK
  1

  9
$DIMASO
 70
     0
  9
$DIMSHO
 70
     0
  9
$DIMPOST
  1

  9
$DIMAPOST
  1

  9
$DIMALT
 70
     0
  9
$DIMALTD
 70
     2
  9
$DIMALTF
 40
25.4
  9
$DIMLFAC
 40
1.0
  9
$DIMTOFL
 70
     1
  9
$DIMTVP
 40
1.0
  9
$DIMTIX
 70
     1
  9
$DIMSOXD
 70
     1
  9
$DIMSAH
 70
     0
  9
$DIMBLK1
  1

  9
$DIMBLK2
  1

  9
$DIMSTYLE
  2
STANDARD
  9
$DIMCLRD
 70
   256
  9
$DIMCLRE
 70
   256
  9
$DIMCLRT
 70
   256
  9
$DIMTFAC
 40
1.0
  9
$DIMGAP
 40
1.0
  9
$DIMJUST
 70
     0
  9
$DIMSD1
 70
     0
  9
$DIMSD2
 70
     0
  9
$DIMTOLJ
 70
     1
  9
$DIMTZIN
 70
     0
  9
$DIMALTZ
 70
     0
  9
$DIMALTTZ
 70
     0
  9
$DIMUPT
 70
     0
  9
$DIMDEC
 70
     1
  9
$DIMTDEC
 70
     4
  9
$DIMALTU
 70
     2
  9
$DIMALTTD
 70
     2
  9
$DIMTXSTY
  7
STANDARD
  9
$DIMAUNIT
 70
     0
  9
$DIMADEC
 70
     0
  9
$DIMALTRND
 40
0.0
  9
$DIMAZIN
 70
     0
  9
$DIMDSEP
 70
    46
  9
$DIMATFIT
 70
     3
  9
$DIMFRAC
 70
     0
  9
$DIMLDRBLK
  1

  9
$DIMLUNIT
 70
     2
  9
$DIMLWD
 70
    -2
  9
$DIMLWE
 70
    -2
  9
$DIMTMOVE
 70
     0
  9
$LUNITS
 70
     2
  9
$LUPREC
 70
     4
  9
$SKETCHINC
 40
0.1
  9
$FILLETRAD
 40
2.0
  9
$AUNITS
 70
     0
  9
$AUPREC
 70
     0
  9
$MENU
  1
.
  9
$ELEVATION
 40
0.0
  9
$PELEVATION
 40
0.0
  9
$THICKNESS
 40
0.0
  9
$LIMCHECK
 70
     0
  9
$CHAMFERA
 40
0.0
  9
$CHAMFERB
 40
0.0
  9
$CHAMFERC
 40
0.0
  9
$CHAMFERD
 40
0.0
  9
$SKPOLY
 70
     0
  9
$TDCREATE
 40
2457345.818211678
  9
$TDUCREATE
 40
2457345.443211678
  9
$TDUPDATE
 40
2457871.831968032
  9
$TDUUPDATE
 40
2457871.456968032
  9
$TDINDWG
 40
0.0393914699
  9
$TDUSRTIMER
 40
0.0393911111
  9
$USRTIMER
 70
     1
  9
$ANGBASE
 50
0.0
  9
$ANGDIR
 70
     0
  9
$PDMODE
 70
     0
  9
$PDSIZE
 40
0.0
  9
$PLINEWID
 40
0.0
  9
$SPLFRAME
 70
     0
  9
$SPLINETYPE
 70
     6
  9
$SPLINESEGS
 70
     8
  9
$HANDSEED
  5
C32
  9
$SURFTAB1
 70
     6
  9
$SURFTAB2
 70
     6
  9
$SURFTYPE
 70
     6
  9
$SURFU
 70
     6
  9
$SURFV
 70
     6
  9
$UCSBASE
  2

  9
$UCSNAME
  2

  9
$UCSORG
 10
0.0
 20
0.0
 30
0.0
  9
$UCSXDIR
 10
1.0
 20
0.0
 30
0.0
  9
$UCSYDIR
 10
0.0
 20
1.0
 30
0.0
  9
$UCSORTHOREF
  2

  9
$UCSORTHOVIEW
 70
     0
  9
$UCSORGTOP
 10
0.0
 20
0.0
 30
0.0
  9
$UCSORGBOTTOM
 10
0.0
 20
0.0
 30
0.0
  9
$UCSORGLEFT
 10
0.0
 20
0.0
 30
0.0
  9
$UCSORGRIGHT
 10
0.0
 20
0.0
 30
0.0
  9
$UCSORGFRONT
 10
0.0
 20
0.0
 30
0.0
  9
$UCSORGBACK
 10
0.0
 20
0.0
 30
0.0
  9
$PUCSBASE
  2

  9
$PUCSNAME
  2

  9
$PUCSORG
 10
0.0
 20
0.0
 30
0.0
  9
$PUCSXDIR
 10
1.0
 20
0.0
 30
0.0
  9
$PUCSYDIR
 10
0.0
 20
1.0
 30
0.0
  9
$PUCSORTHOREF
  2

  9
$PUCSORTHOVIEW
 70
     0
  9
$PUCSORGTOP
 10
0.0
 20
0.0
 30
0.0
  9
$PUCSORGBOTTOM
 10
0.0
 20
0.0
 30
0.0
  9
$PUCSORGLEFT
 10
0.0
 20
0.0
 30
0.0
  9
$PUCSORGRIGHT
 10
0.0
 20
0.0
 30
0.0
  9
$PUCSORGFRONT
 10
0.0
 20
0.0
 30
0.0
  9
$PUCSORGBACK
 10
0.0
 20
0.0
 30
0.0
  9
$USERI1
 70
     0
  9
$USERI2
 70
     0
  9
$USERI3
 70
     0
  9
$USERI4
 70
     0
  9
$USERI5
 70
     0
  9
$USERR1
 40
0.0
  9
$USERR2
 40
0.0
  9
$USERR3
 40
0.0
  9
$USERR4
 40
0.0
  9
$USERR5
 40
0.0
  9
$WORLDVIEW
 70
     1
  9
$SHADEDGE
 70
     3
  9
$SHADEDIF
 70
    70
  9
$TILEMODE
 70
     1
  9
$MAXACTVP
 70
    16
  9
$PINSBASE
 10
0.0
 20
0.0
 30
0.0
  9
$PLIMCHECK
 70
     0
  9
$PEXTMIN
 10
1.000000000000000E+20
 20
1.000000000000000E+20
 30
1.000000000000000E+20
  9
$PEXTMAX
 10
-1.000000000000000E+20
 20
-1.000000000000000E+20
 30
-1.000000000000000E+20
  9
$PLIMMIN
 10
0.0
 20
0.0
  9
$PLIMMAX
 10
12.0
 20
9.0
  9
$UNITMODE
 70
     0
  9
$VISRETAIN
 70
     0
  9
$PLINEGEN
 70
     0
  9
$PSLTSCALE
 70
     1
  9
$TREEDEPTH
 70
  3020
  9
$CMLSTYLE
  2
STANDARD
  9
$CMLJUST
 70
     0
  9
$CMLSCALE
 40
1.0
  9
$PROXYGRAPHICS
 70
     1
  9
$MEASUREMENT
 70
     0
  9
$CELWEIGHT
370
    -1
  9
$ENDCAPS
280
     0
  9
$JOINSTYLE
280
     0
  9
$LWDISPLAY
290
     0
  9
$INSUNITS
 70
     0
  9
$HYPERLINKBASE
  1

  9
$STYLESHEET
  1

  9
$XEDIT
290
     1
  9
$CEPSNTYPE
380
     0
  9
$PSTYLEMODE
290
     1
  9
$FINGERPRINTGUID
  2
{EBC2A2BE-6A7B-4CD0-A29B-4AC117BC1E75}
  9
$VERSIONGUID
  2
{B495D273-9958-48D7-B930-5DF9B7CBA39F}
  9
$EXTNAMES
290
     1
  9
$PSVPSCALE
 40
0.0
  9
$OLESTARTUP
290
     0
  0
ENDSEC
  0
SECTION
  2
CLASSES
  0
CLASS
  1
LWPOLYLINE
  2
AcDbPolyline
  3
AutoCAD 2000
 90
        0
280
     0
281
     1
  0
CLASS
  1
XRECORD
  2
AcDbXrecord
  3
AutoCAD 2000
 90
        0
280
     0
281
     0
  0
CLASS
  1
ACDBDICTIONARYWDFLT
  2
AcDbDictionaryWithDefault
  3
ObjectDBX Classes
 90
        0
280
     0
281
     0
  0
CLASS
  1
ACDBPLACEHOLDER
  2
AcDbPlaceHolder
  3
ObjectDBX Classes
 90
        0
280
     0
281
     0
  0
CLASS
  1
LAYOUT
  2
AcDbLayout
  3
ObjectDBX Classes
 90
        0
280
     0
281
     0
  0
CLASS
  1
DICTIONARYVAR
  2
AcDbDictionaryVar
  3
ObjectDBX Classes
 90
        0
280
     0
281
     0
  0
CLASS
  1
DUMMY
  2
AcDbLongTransaction
  3
DUMMY
 90
        0
280
     0
281
     0
  0
CLASS
  1
LWPOLYLINE
  2
AcDbPolyline
  3
AutoCAD 2000
 90
        0
280
     0
281
     1
  0
CLASS
  1
HATCH
  2
AcDbHatch
  3
AutoCAD 2000
 90
        0
280
     0
281
     1
  0
CLASS
  1
XRECORD
  2
AcDbXrecord
  3
AutoCAD 2000
 90
        0
280
     0
281
     0
  0
CLASS
  1
DUMMY
  2
AcDbLongTransaction
  3
DUMMY
 90
        0
280
     0
281
     0
  0
CLASS
  1
LWPOLYLINE
  2
AcDbPolyline
  3
AutoCAD 2000
 90
        0
280
     0
281
     1
  0
CLASS
  1
HATCH
  2
AcDbHatch
  3
AutoCAD 2000
 90
        0
280
     0
281
     1
  0
CLASS
  1
XRECORD
  2
AcDbXrecord
  3
AutoCAD 2000
 90
        0
280
     0
281
     0
  0
CLASS
  1
DUMMY
  2
AcDbLongTransaction
  3
DUMMY
 90
        0
280
     0
281
     0
  0
CLASS
  1
LWPOLYLINE
  2
AcDbPolyline
  3
AutoCAD 2000
 90
        0
280
     0
281
     1
  0
CLASS
  1
HATCH
  2
AcDbHatch
  3
AutoCAD 2000
 90
        0
280
     0
281
     1
  0
CLASS
  1
XRECORD
  2
AcDbXrecord
  3
AutoCAD 2000
 90
        0
280
     0
281
     0
  0
CLASS
  1
DUMMY
  2
AcDbLongTransaction
  3
DUMMY
 90
        0
280
     0
281
     0
  0
CLASS
  1
LWPOLYLINE
  2
AcDbPolyline
  3
AutoCAD 2000
 90
        0
280
     0
281
     1
  0
CLASS
  1
HATCH
  2
AcDbHatch
  3
AutoCAD 2000
 90
        0
280
     0
281
     1
  0
CLASS
  1
XRECORD
  2
AcDbXrecord
  3
AutoCAD 2000
 90
        0
280
     0
281
     0
  0
CLASS
  1
DUMMY
  2
AcDbLongTransaction
  3
DUMMY
 90
        0
280
     0
281
     0
  0
CLASS
  1
LWPOLYLINE
  2
AcDbPolyline
  3
AutoCAD 2000
 90
        0
280
     0
281
     1
  0
CLASS
  1
HATCH
  2
AcDbHatch
  3
AutoCAD 2000
 90
        0
280
     0
281
     1
  0
CLASS
  1
XRECORD
  2
AcDbXrecord
  3
AutoCAD 2000
 90
        0
280
     0
281
     0
  0
CLASS
  1
DUMMY
  2
AcDbLongTransaction
  3
DUMMY
 90
        0
280
     0
281
     0
  0
CLASS
  1
LWPOLYLINE
  2
AcDbPolyline
  3
AutoCAD 2000
 90
        0
280
     0
281
     1
  0
CLASS
  1
HATCH
  2
AcDbHatch
  3
AutoCAD 2000
 90
        0
280
     0
281
     1
  0
CLASS
  1
XRECORD
  2
AcDbXrecord
  3
AutoCAD 2000
 90
        0
280
     0
281
     0
  0
CLASS
  1
DUMMY
  2
AcDbLongTransaction
  3
DUMMY
 90
        0
280
     0
281
     0
  0
CLASS
  1
LWPOLYLINE
  2
AcDbPolyline
  3
AutoCAD 2000
 90
        0
280
     0
281
     1
  0
CLASS
  1
HATCH
  2
AcDbHatch
  3
AutoCAD 2000
 90
        0
280
     0
281
     1
  0
CLASS
  1
XRECORD
  2
AcDbXrecord
  3
AutoCAD 2000
 90
        0
280
     0
281
     0
  0
CLASS
  1
DUMMY
  2
AcDbLongTransaction
  3
DUMMY
 90
        0
280
     0
281
     0
  0
CLASS
  1
LWPOLYLINE
  2
AcDbPolyline
  3
AutoCAD 2000
 90
        0
280
     0
281
     1
  0
CLASS
  1
HATCH
  2
AcDbHatch
  3
AutoCAD 2000
 90
        0
280
     0
281
     1
  0
CLASS
  1
XRECORD
  2
AcDbXrecord
  3
AutoCAD 2000
 90
        0
280
     0
281
     0
  0
CLASS
  1
DUMMY
  2
AcDbLongTransaction
  3
DUMMY
 90
        0
280
     0
281
     0
  0
CLASS
  1
LWPOLYLINE
  2
AcDbPolyline
  3
AutoCAD 2000
 90
        0
280
     0
281
     1
  0
CLASS
  1
HATCH
  2
AcDbHatch
  3
AutoCAD 2000
 90
        0
280
     0
281
     1
  0
CLASS
  1
XRECORD
  2
AcDbXrecord
  3
AutoCAD 2000
 90
        0
280
     0
281
     0
  0
CLASS
  1
MATERIAL
  2
AcDbMaterial
  3
ObjectDBX Classes
 90
     1153
280
     0
281
     0
  0
CLASS
  1
VISUALSTYLE
  2
AcDbVisualStyle
  3
ObjectDBX Classes
 90
     4095
280
     0
281
     0
  0
CLASS
  1
TABLESTYLE
  2
AcDbTableStyle
  3
ObjectDBX Classes
 90
     4095
280
     0
281
     0
  0
CLASS
  1
SCALE
  2
AcDbScale
  3
ObjectDBX Classes
 90
     1153
280
     0
281
     0
  0
CLASS
  1
MLEADERSTYLE
  2
AcDbMLeaderStyle
  3
ACDB_MLEADERSTYLE_CLASS
 90
     4095
280
     0
281
     0
  0
CLASS
  1
ACDBSECTIONVIEWSTYLE
  2
AcDbSectionViewStyle
  3
ObjectDBX Classes
 90
     1025
280
     0
281
     0
  0
CLASS
  1
ACDBDETAILVIEWSTYLE
  2
AcDbDetailViewStyle
  3
ObjectDBX Classes
 90
     1025
280
     0
281
     0
  0
CLASS
  1
SORTENTSTABLE
  2
AcDbSortentsTable
  3
ObjectDBX Classes
 90
        0
280
     0
281
     0
  0
ENDSEC
  0
SECTION
  2
TABLES
  0
TABLE
  2
VPORT
  5
1D
102
{ACAD_XDICTIONARY
360
BF6
102
}
330
0
100
AcDbSymbolTable
 70
     1
  0
VPORT
  5
998
330
1D
100
AcDbSymbolTableRecord
100
AcDbViewportTableRecord
  2
*ACTIVE
 70
     0
 10
0.0
 20
0.0
 11
1.0
 21
1.0
 12
1252.225313709637
 22
594.0451897338208
 13
0.0
 23
0.0
 14
1.0
 24
1.0
 15
0.0
 25
0.0
 16
0.0
 26
0.0
 36
1.0
 17
0.0
 27
0.0
 37
0.0
 40
1555.357469358661
 41
2.174107142857143
 42
50.0
 43
0.0
 44
0.0
 50
0.0
 51
0.0
 71
     0
 72
 20000
 73
     1
 74
     0
 75
     0
 76
     0
 77
     0
 78
     0
281
     0
 65
     1
110
0.0
120
0.0
130
0.0
111
1.0
121
0.0
131
0.0
112
0.0
122
1.0
132
0.0
 79
     0
146
0.0
1001
ACAD_NAV_VCDISPLAY
1070
     3
  0
ENDTAB
  0
TABLE
  2
LTYPE
  5
18
330
0
100
AcDbSymbolTable
 70
     2
  0
LTYPE
  5
19
330
18
100
AcDbSymbolTableRecord
100
AcDbLinetypeTableRecord
  2
BYBLOCK
 70
     0
  3

 72
    65
 73
     0
 40
0.0
  0
LTYPE
  5
1A
330
18
100
AcDbSymbolTableRecord
100
AcDbLinetypeTableRecord
  2
BYLAYER
 70
     0
  3

 72
    65
 73
     0
 40
0.0
  0
LTYPE
  5
A
330
18
100
AcDbSymbolTableRecord
100
AcDbLinetypeTableRecord
  2
CONTINUOUS
 70
     0
  3
Solid line
 72
    65
 73
     0
 40
0.0
  0
LTYPE
  5
2F
330
18
100
AcDbSymbolTableRecord
100
AcDbLinetypeTableRecord
  2
CENTER
 70
     0
  3
Center ____ _ ____ _ ____ _ ____ _ ____ _ ____
 72
    65
 73
     4
 40
2.0
 49
1.25
 74
     0
 49
-0.25
 74
     0
 49
0.25
 74
     0
 49
-0.25
 74
     0
  0
ENDTAB
  0
TABLE
  2
LAYER
  5
14
102
{ACAD_XDICTIONARY
360
9FA
102
}
330
0
100
AcDbSymbolTable
 70
     8
  0
LAYER
  5
6
102
{ACAD_XDICTIONARY
360
9EB
102
}
330
14
100
AcDbSymbolTableRecord
100
AcDbLayerTableRecord
  2
0
 70
     0
 62
     7
  6
CONTINUOUS
370
    -3
390
7
  0
LAYER
  5
2C
102
{ACAD_XDICTIONARY
360
9ED
102
}
330
14
100
AcDbSymbolTableRecord
100
AcDbLayerTableRecord
  2
1
 70
     0
 62
     9
  6
CONTINUOUS
370
    -3
390
7
  0
LAYER
  5
26
102
{ACAD_XDICTIONARY
360
9EF
102
}
330
14
100
AcDbSymbolTableRecord
100
AcDbLayerTableRecord
  2
2
 70
     0
 62
     4
  6
CONTINUOUS
370
    -3
390
7
  0
LAYER
  5
3E
102
{ACAD_XDICTIONARY
360
9F1
102
}
330
14
100
AcDbSymbolTableRecord
100
AcDbLayerTableRecord
  2
4
 70
     0
 62
     3
  6
CONTINUOUS
370
    -3
390
7
  0
LAYER
  5
2E
102
{ACAD_XDICTIONARY
360
9F3
102
}
330
14
100
AcDbSymbolTableRecord
100
AcDbLayerTableRecord
  2
L-CENTER
 70
     0
 62
     1
  6
CENTER
370
    -3
390
7
  0
LAYER
  5
45
102
{ACAD_XDICTIONARY
360
9F5
102
}
330
14
100
AcDbSymbolTableRecord
100
AcDbLayerTableRecord
  2
3
 70
     0
 62
     2
  6
CONTINUOUS
370
    -3
390
7
  0
LAYER
  5
32B
102
{ACAD_XDICTIONARY
360
32C
102
}
330
14
100
AcDbSymbolTableRecord
100
AcDbLayerTableRecord
  2
5
 70
     0
 62
     6
  6
CONTINUOUS
370
    -3
390
7
  0
LAYER
  5
B5B
330
14
100
AcDbSymbolTableRecord
100
AcDbLayerTableRecord
  2
Defpoints
 70
     0
 62
     7
  6
CONTINUOUS
290
     0
370
    -3
390
7
  0
ENDTAB
  0
TABLE
  2
STYLE
  5
15
330
0
100
AcDbSymbolTable
 70
     2
  0
STYLE
  5
16
330
15
100
AcDbSymbolTableRecord
100
AcDbTextStyleTableRecord
  2
STANDARD
 70
     0
 40
0.0
 41
1.0
 50
0.0
 71
     0
 42
7.2
  3
txt
  4

  0
STYLE
  5
27
330
15
100
AcDbSymbolTableRecord
100
AcDbTextStyleTableRecord
  2
KANJI
 70
     0
 40
0.0
 41
1.0
 50
0.0
 71
     0
 42
12.0
  3
TXT
  4
BIGFONT
  0
ENDTAB
  0
TABLE
  2
VIEW
  5
1B
330
0
100
AcDbSymbolTable
 70
     0
  0
ENDTAB
  0
TABLE
  2
UCS
  5
1C
330
0
100
AcDbSymbolTable
 70
     0
  0
ENDTAB
  0
TABLE
  2
APPID
  5
1F
330
0
100
AcDbSymbolTable
 70
     4
  0
APPID
  5
20
330
1F
100
AcDbSymbolTableRecord
100
AcDbRegAppTableRecord
  2
ACAD
 70
     0
  0
APPID
  5
A00
330
1F
100
AcDbSymbolTableRecord
100
AcDbRegAppTableRecord
  2
ACAD_NAV_VCDISPLAY
 70
     0
  0
APPID
  5
A0F
330
1F
100
AcDbSymbolTableRecord
100
AcDbRegAppTableRecord
  2
ACAD_MLEADERVER
 70
     0
  0
APPID
  5
B1E
330
1F
100
AcDbSymbolTableRecord
100
AcDbRegAppTableRecord
  2
ACAD_PSEXT
 70
     0
  0
ENDTAB
  0
TABLE
  2
DIMSTYLE
  5
21
330
0
100
AcDbSymbolTable
 70
     1
100
AcDbDimStyleTable
  0
DIMSTYLE
105
29
330
21
100
AcDbSymbolTableRecord
100
AcDbDimStyleTableRecord
  2
STANDARD
 70
     0
178
     0
340
16
  0
ENDTAB
  0
TABLE
  2
BLOCK_RECORD
  5
1
330
0
100
AcDbSymbolTable
 70
     0
  0
BLOCK_RECORD
  5
2
102
{ACAD_XDICTIONARY
360
B18
102
}
330
1
100
AcDbSymbolTableRecord
100
AcDbBlockTableRecord
  2
*MODEL_SPACE
340
C
  0
BLOCK_RECORD
  5
E
330
1
100
AcDbSymbolTableRecord
100
AcDbBlockTableRecord
  2
*PAPER_SPACE
340
13
  0
ENDTAB
  0
ENDSEC
  0
SECTION
  2
BLOCKS
  0
BLOCK
  5
5
330
2
100
AcDbEntity
  8
0
100
AcDbBlockBegin
  2
*MODEL_SPACE
 70
     0
 10
0.0
 20
0.0
 30
0.0
  3
*MODEL_SPACE
  1

  0
ENDBLK
  5
B
330
2
100
AcDbEntity
  8
0
100
AcDbBlockEnd
  0
BLOCK
  5
11
330
E
100
AcDbEntity
 67
     1
  8
0
100
AcDbBlockBegin
  2
*PAPER_SPACE
 70
     0
 10
0.0
 20
0.0
 30
0.0
  3
*PAPER_SPACE
  1

  0
ENDBLK
  5
12
330
E
100
AcDbEntity
 67
     1
  8
0
100
AcDbBlockEnd
  0
ENDSEC
  0
SECTION
  2
ENTITIES
  0
LINE
  5
63
330
2
100
AcDbEntity
  8
4
100
AcDbLine
 10
700.4802846833977
 20
531.429126807292
 30
0.0
 11
683.6803846833977
 21
531.429126807292
 31
0.0
  0
LINE
  5
64
330
2
100
AcDbEntity
  8
L-CENTER
 48
8.0
100
AcDbLine
 10
714.7236966833975
 20
503.855642807292
 30
0.0
 11
675.2015888769042
 21
503.855642807292
 31
0.0
  0
LINE
  5
65
330
2
100
AcDbEntity
  8
4
100
AcDbLine
 10
683.6803846833977
 20
391.4291268072921
 30
0.0
 11
700.4802846833977
 21
391.4291268072921
 31
0.0
  0
LINE
  5
66
330
2
100
AcDbEntity
  8
L-CENTER
 48
8.0
100
AcDbLine
 10
714.7236966833975
 20
419.002614807292
 30
0.0
 11
675.2015888769042
 21
419.002614807292
 31
0.0
  0
LINE
  5
67
330
2
100
AcDbEntity
  8
4
100
AcDbLine
 10
712.6803846833977
 20
123.4291268072921
 30
0.0
 11
665.6803846833977
 21
123.4291268072921
 31
0.0
  0
LINE
  5
68
330
2
100
AcDbEntity
  8
4
100
AcDbLine
 10
610.6803846833977
 20
86.42912680729205
 30
0.0
 11
715.6803846833977
 21
86.42912680729205
 31
0.0
  0
LINE
  5
6A
330
2
100
AcDbEntity
  8
L-CENTER
 48
8.0
100
AcDbLine
 10
330.2889233199526
 20
286.4291268072921
 30
0.0
 11
701.0718460468429
 21
286.4291268072921
 31
0.0
  0
LINE
  5
6C
330
2
100
AcDbEntity
  8
L-CENTER
 48
8.0
100
AcDbLine
 10
708.5587338289201
 20
461.4291268072921
 30
0.0
 11
228.213443612512
 21
461.4291268072921
 31
0.0
  0
LINE
  5
C7
330
2
100
AcDbEntity
  8
4
100
AcDbLine
 10
330.8804806833978
 20
531.429126807292
 30
0.0
 11
347.6803846833977
 21
531.429126807292
 31
0.0
  0
LINE
  5
C8
330
2
100
AcDbEntity
  8
4
100
AcDbLine
 10
347.6803846833977
 20
391.4291268072921
 30
0.0
 11
330.8804806833978
 21
391.4291268072921
 31
0.0
  0
LINE
  5
C9
330
2
100
AcDbEntity
  8
L-CENTER
 48
8.0
100
AcDbLine
 10
316.6370726833979
 20
503.855642807292
 30
0.0
 11
356.1591804898912
 21
503.855642807292
 31
0.0
  0
LINE
  5
CA
330
2
100
AcDbEntity
  8
L-CENTER
 48
8.0
100
AcDbLine
 10
316.6370726833979
 20
419.002614807292
 30
0.0
 11
356.1591804898912
 21
419.002614807292
 31
0.0
  0
LINE
  5
CB
330
2
100
AcDbEntity
  8
4
100
AcDbLine
 10
342.6803846833977
 20
233.4291268072921
 30
0.0
 11
341.1803846833977
 21
233.4291268072921
 31
0.0
  0
LINE
  5
CC
330
2
100
AcDbEntity
  8
L-CENTER
 48
8.0
100
AcDbLine
 10
359.7685585701188
 20
216.4291268072921
 30
0.0
 11
330.4407006833976
 21
216.4291268072921
 31
0.0
  0
LINE
  5
CD
330
2
100
AcDbEntity
  8
4
100
AcDbLine
 10
341.1803846833977
 20
199.4291268072921
 30
0.0
 11
342.6803846833977
 21
199.4291268072921
 31
0.0
  0
LINE
  5
CE
330
2
100
AcDbEntity
  8
4
100
AcDbLine
 10
340.6803846833977
 20
146.4291268072921
 30
0.0
 11
345.6803846833977
 21
146.4291268072921
 31
0.0
  0
ARC
  5
CF
330
2
100
AcDbEntity
  8
4
100
AcDbCircle
 10
328.6803846833977
 20
135.4291268072921
 30
0.0
 40
12.0
100
AcDbArc
 50
270.0
 51
0.0
  0
ARC
  5
D0
330
2
100
AcDbEntity
  8
4
100
AcDbCircle
 10
333.6803846833977
 20
135.4291268072921
 30
0.0
 40
12.0
100
AcDbArc
 50
270.0
 51
0.0
  0
LINE
  5
D1
330
2
100
AcDbEntity
  8
L-CENTER
 48
8.0
100
AcDbLine
 10
358.4628454670351
 20
131.4291268072921
 30
0.0
 11
334.8205806833976
 21
131.4291268072921
 31
0.0
  0
LINE
  5
D2
330
2
100
AcDbEntity
  8
4
100
AcDbLine
 10
318.6803846833977
 20
123.4291268072921
 30
0.0
 11
365.6803846833977
 21
123.4291268072921
 31
0.0
  0
LINE
  5
D3
330
2
100
AcDbEntity
  8
4
100
AcDbLine
 10
420.6803846833977
 20
86.42912680729205
 30
0.0
 11
315.6803846833977
 21
86.42912680729205
 31
0.0
  0
ARC
  5
D4
330
2
100
AcDbEntity
  8
4
100
AcDbCircle
 10
841.6803846833977
 20
286.4291268072921
 30
0.0
 40
500.0000679999999
100
AcDbArc
 50
162.755659
 51
197.244925
  0
LINE
  5
D5
330
2
100
AcDbEntity
  8
4
100
AcDbLine
 10
334.1803846833977
 20
198.4291268072921
 30
0.0
 11
334.1803846833977
 21
234.4291268072921
 31
0.0
  0
LINE
  5
D6
330
2
100
AcDbEntity
  8
4
100
AcDbLine
 10
341.1803846833977
 20
198.4291268072921
 30
0.0
 11
341.1803846833977
 21
234.4291268072921
 31
0.0
  0
LINE
  5
D7
330
2
100
AcDbEntity
  8
4
100
AcDbLine
 10
339.1803846833977
 20
198.4291268072921
 30
0.0
 11
339.1803846833977
 21
234.4291268072921
 31
0.0
  0
LINE
  5
DB
330
2
100
AcDbEntity
  8
4
100
AcDbLine
 10
340.6803846833977
 20
135.4291268072921
 30
0.0
 11
340.6803846833977
 21
146.4291268072921
 31
0.0
  0
LINE
  5
DD
330
2
100
AcDbEntity
  8
4
100
AcDbLine
 10
338.6803846833977
 20
128.7958788072921
 30
0.0
 11
338.6803846833977
 21
138.9291268072921
 31
0.0
  0
LINE
  5
DE
330
2
100
AcDbEntity
  8
4
100
AcDbLine
 10
340.6803846833977
 20
138.9291268072921
 30
0.0
 11
338.6803846833977
 21
138.9291268072921
 31
0.0
  0
ARC
  5
DF
330
2
100
AcDbEntity
  8
4
100
AcDbCircle
 10
318.6803846833977
 20
120.4291268072921
 30
0.0
 40
3.0
100
AcDbArc
 50
90.0
 51
180.0
  0
LINE
  5
E0
330
2
100
AcDbEntity
  8
4
100
AcDbLine
 10
315.6803846833977
 20
120.4291268072921
 30
0.0
 11
315.6803846833977
 21
86.42912680729205
 31
0.0
  0
LINE
  5
E1
330
2
100
AcDbEntity
  8
L-CENTER
 48
8.0
100
AcDbLine
 10
340.6803846833977
 20
138.4291268072921
 30
0.0
 11
340.6803846833977
 21
71.42912680729205
 31
0.0
  0
LINE
  5
E2
330
2
100
AcDbEntity
  8
4
100
AcDbLine
 10
339.1803846833977
 20
207.4291268072921
 30
0.0
 11
334.1803846833977
 21
207.4291268072921
 31
0.0
  0
LINE
  5
E3
330
2
100
AcDbEntity
  8
4
100
AcDbLine
 10
341.1803846833977
 20
198.4291268072921
 30
0.0
 11
334.1803846833977
 21
198.4291268072921
 31
0.0
  0
LINE
  5
E8
330
2
100
AcDbEntity
  8
4
100
AcDbLine
 10
339.1803846833977
 20
225.4291268072921
 30
0.0
 11
334.1803846833977
 21
225.4291268072921
 31
0.0
  0
LINE
  5
E9
330
2
100
AcDbEntity
  8
4
100
AcDbLine
 10
341.1803846833977
 20
234.4291268072921
 30
0.0
 11
334.1803846833977
 21
234.4291268072921
 31
0.0
  0
LINE
  5
ED
330
2
100
AcDbEntity
  8
4
100
AcDbLine
 10
328.3804806833978
 20
494.055590807292
 30
0.0
 11
328.3804806833978
 21
513.6556908072921
 31
0.0
  0
LINE
  5
EE
330
2
100
AcDbEntity
  8
4
100
AcDbLine
 10
330.8804806833978
 20
494.6556908072921
 30
0.0
 11
330.8804806833978
 21
513.055590807292
 31
0.0
  0
LINE
  5
EF
330
2
100
AcDbEntity
  8
4
100
AcDbLine
 10
330.8804806833978
 20
531.429126807292
 30
0.0
 11
330.8804806833978
 21
391.4291268072921
 31
0.0
  0
LINE
  5
F0
330
2
100
AcDbEntity
  8
4
100
AcDbLine
 10
321.3804806833978
 20
496.5018828072921
 30
0.0
 11
321.3804806833978
 21
511.209402807292
 31
0.0
  0
ARC
  5
F1
330
2
100
AcDbEntity
  8
4
100
AcDbCircle
 10
335.2840446833975
 20
503.855642807292
 30
0.0
 40
13.90362
100
AcDbArc
 50
159.3323260000002
 51
200.6686179999998
  0
LINE
  5
F3
330
2
100
AcDbEntity
  8
4
100
AcDbLine
 10
315.6803846833977
 20
479.4291268072921
 30
0.0
 11
236.6803846833977
 21
479.4291268072921
 31
0.0
  0
LINE
  5
F4
330
2
100
AcDbEntity
  8
4
100
AcDbLine
 10
235.6803846833977
 20
482.9291268072921
 30
0.0
 11
310.6803846833977
 21
482.9291268072921
 31
0.0
  0
LINE
  5
F5
330
2
100
AcDbEntity
  8
4
100
AcDbLine
 10
315.6803846833977
 20
443.4291268072921
 30
0.0
 11
236.6803846833977
 21
443.4291268072921
 31
0.0
  0
LINE
  5
FA
330
2
100
AcDbEntity
  8
4
100
AcDbLine
 10
235.6803846833977
 20
478.4291268072921
 30
0.0
 11
236.6803846833977
 21
479.4291268072921
 31
0.0
  0
LINE
  5
FB
330
2
100
AcDbEntity
  8
4
100
AcDbLine
 10
236.6803846833977
 20
443.4291268072921
 30
0.0
 11
235.6803846833977
 21
444.4291268072921
 31
0.0
  0
LINE
  5
FC
330
2
100
AcDbEntity
  8
4
100
AcDbLine
 10
236.6803846833977
 20
479.4291268072921
 30
0.0
 11
236.6803846833977
 21
443.4291268072921
 31
0.0
  0
LINE
  5
FD
330
2
100
AcDbEntity
  8
4
100
AcDbLine
 10
235.6803846833977
 20
482.9291268072921
 30
0.0
 11
235.6803846833977
 21
444.4291268072921
 31
0.0
  0
LINE
  5
FE
330
2
100
AcDbEntity
  8
4
100
AcDbLine
 10
329.8804846833978
 20
492.4291268072921
 30
0.0
 11
329.8804846833978
 21
430.4291268072921
 31
0.0
  0
LINE
  5
FF
330
2
100
AcDbEntity
  8
4
100
AcDbLine
 10
330.8804846833978
 20
430.4291268072921
 30
0.0
 11
329.8804846833978
 21
430.4291268072921
 31
0.0
  0
LINE
  5
100
330
2
100
AcDbEntity
  8
4
100
AcDbLine
 10
330.8804806833978
 20
428.202566807292
 30
0.0
 11
330.8804806833978
 21
409.8026628072921
 31
0.0
  0
LINE
  5
101
330
2
100
AcDbEntity
  8
4
100
AcDbLine
 10
328.3804806833978
 20
428.802662807292
 30
0.0
 11
328.3804806833978
 21
409.202566807292
 31
0.0
  0
LINE
  5
102
330
2
100
AcDbEntity
  8
4
100
AcDbLine
 10
330.8804806833978
 20
409.8026628072921
 30
0.0
 11
328.3804806833978
 21
409.8026628072921
 31
0.0
  0
LINE
  5
103
330
2
100
AcDbEntity
  8
4
100
AcDbLine
 10
328.3804806833978
 20
428.202566807292
 30
0.0
 11
330.8804806833978
 21
428.202566807292
 31
0.0
  0
ARC
  5
104
330
2
100
AcDbEntity
  8
4
100
AcDbCircle
 10
325.1714966833979
 20
411.6488548072921
 30
0.0
 40
3.79102
100
AcDbArc
 50
139.8117440000003
 51
220.1858760000003
  0
ARC
  5
105
330
2
100
AcDbEntity
  8
4
100
AcDbCircle
 10
325.1714966833979
 20
426.356374807292
 30
0.0
 40
3.790928
100
AcDbArc
 50
139.8117440000011
 51
220.1882559999989
  0
LINE
  5
106
330
2
100
AcDbEntity
  8
4
100
AcDbLine
 10
321.3804806833978
 20
426.356374807292
 30
0.0
 11
321.3804806833978
 21
411.6488548072921
 31
0.0
  0
ARC
  5
107
330
2
100
AcDbEntity
  8
4
100
AcDbCircle
 10
335.2840446833975
 20
419.002614807292
 30
0.0
 40
13.90362
100
AcDbArc
 50
159.3313820000002
 51
200.6676739999998
  0
LINE
  5
108
330
2
100
AcDbEntity
  8
4
100
AcDbLine
 10
328.3804806833978
 20
423.910082807292
 30
0.0
 11
322.2755006833977
 21
423.910082807292
 31
0.0
  0
LINE
  5
109
330
2
100
AcDbEntity
  8
4
100
AcDbLine
 10
322.2755006833977
 20
428.802662807292
 30
0.0
 11
328.3804806833978
 21
428.802662807292
 31
0.0
  0
LINE
  5
10A
330
2
100
AcDbEntity
  8
4
100
AcDbLine
 10
328.3804806833978
 20
414.0951428072921
 30
0.0
 11
322.2755006833977
 21
414.0951428072921
 31
0.0
  0
LINE
  5
10B
330
2
100
AcDbEntity
  8
4
100
AcDbLine
 10
322.2755006833977
 20
409.202566807292
 30
0.0
 11
328.3804806833978
 21
409.202566807292
 31
0.0
  0
LINE
  5
10C
330
2
100
AcDbEntity
  8
4
100
AcDbLine
 10
310.6803846833977
 20
482.9291268072921
 30
0.0
 11
310.6803846833977
 21
479.4291268072921
 31
0.0
  0
LINE
  5
10D
330
2
100
AcDbEntity
  8
4
100
AcDbLine
 10
330.8804846833978
 20
492.4291268072921
 30
0.0
 11
329.8804846833978
 21
492.4291268072921
 31
0.0
  0
LINE
  5
10E
330
2
100
AcDbEntity
  8
4
100
AcDbLine
 10
315.6803846833977
 20
481.4291268072921
 30
0.0
 11
329.8804846833978
 21
481.4291268072921
 31
0.0
  0
LINE
  5
10F
330
2
100
AcDbEntity
  8
4
100
AcDbLine
 10
329.8804846833978
 20
441.4291268072921
 30
0.0
 11
315.6803846833977
 21
441.4291268072921
 31
0.0
  0
LINE
  5
110
330
2
100
AcDbEntity
  8
4
100
AcDbLine
 10
315.6803846833977
 20
481.4291268072921
 30
0.0
 11
315.6803846833977
 21
441.4291268072921
 31
0.0
  0
LINE
  5
111
330
2
100
AcDbEntity
  8
4
100
AcDbLine
 10
328.3804806833978
 20
494.6556908072921
 30
0.0
 11
330.8804806833978
 21
494.6556908072921
 31
0.0
  0
ARC
  5
112
330
2
100
AcDbEntity
  8
4
100
AcDbCircle
 10
325.1714966833979
 20
496.5018828072921
 30
0.0
 40
3.79102
100
AcDbArc
 50
139.8141239999997
 51
220.1882559999997
  0
LINE
  5
113
330
2
100
AcDbEntity
  8
4
100
AcDbLine
 10
322.2755006833977
 20
494.055590807292
 30
0.0
 11
328.3804806833978
 21
494.055590807292
 31
0.0
  0
LINE
  5
114
330
2
100
AcDbEntity
  8
4
100
AcDbLine
 10
328.3804806833978
 20
498.9481708072922
 30
0.0
 11
322.2755006833977
 21
498.9481708072922
 31
0.0
  0
LINE
  5
11B
330
2
100
AcDbEntity
  8
4
100
AcDbLine
 10
330.8804806833978
 20
513.055590807292
 30
0.0
 11
328.3804806833978
 21
513.055590807292
 31
0.0
  0
ARC
  5
11C
330
2
100
AcDbEntity
  8
4
100
AcDbCircle
 10
325.1714966833979
 20
511.209402807292
 30
0.0
 40
3.79102
100
AcDbArc
 50
139.8141239999997
 51
220.1882670000003
  0
LINE
  5
11D
330
2
100
AcDbEntity
  8
4
100
AcDbLine
 10
322.2755006833977
 20
513.6556908072921
 30
0.0
 11
328.3804806833978
 21
513.6556908072921
 31
0.0
  0
LINE
  5
11E
330
2
100
AcDbEntity
  8
4
100
AcDbLine
 10
328.3804806833978
 20
508.7631108072919
 30
0.0
 11
322.2755006833977
 21
508.7631108072919
 31
0.0
  0
LINE
  5
11F
330
2
100
AcDbEntity
  8
4
100
AcDbLine
 10
482.2223766833977
 20
428.5179948072921
 30
0.0
 11
473.2592406833978
 21
345.678638807292
 31
0.0
  0
LINE
  5
120
330
2
100
AcDbEntity
  8
4
100
AcDbLine
 10
549.1383926833978
 20
428.5179948072921
 30
0.0
 11
558.1015286833976
 21
345.678638807292
 31
0.0
  0
ARC
  5
121
330
2
100
AcDbEntity
  8
4
100
AcDbCircle
 10
515.6803846833977
 20
286.4291268072921
 30
0.0
 40
150.0
100
AcDbArc
 50
99.7249686749924
 51
80.27503132500743
  0
CIRCLE
  5
122
330
2
100
AcDbEntity
  8
4
100
AcDbCircle
 10
515.6803846833977
 20
286.4291268072921
 30
0.0
 40
172.0
  0
ARC
  5
123
330
2
100
AcDbEntity
  8
4
100
AcDbCircle
 10
189.6803846833977
 20
286.4291268072921
 30
0.0
 40
500.00002
100
AcDbArc
 50
342.755952
 51
17.244898
  0
LINE
  5
124
330
2
100
AcDbEntity
  8
L-CENTER
 48
8.0
100
AcDbLine
 10
515.6803846833977
 20
610.1996348072921
 30
0.0
 11
515.6803846833977
 21
101.0376654438469
 31
0.0
  0
ARC
  5
125
330
2
100
AcDbEntity
  8
4
100
AcDbCircle
 10
515.6803846833977
 20
43.42912680729205
 30
0.0
 40
299.999952
100
AcDbArc
 50
80.90485100000004
 51
99.095489
  0
ARC
  5
126
330
2
100
AcDbEntity
  8
4
100
AcDbCircle
 10
515.6803846833977
 20
39.42912680729205
 30
0.0
 40
300.00004
100
AcDbArc
 50
81.590664
 51
98.409623
  0
ARC
  5
127
330
2
100
AcDbEntity
  8
4
100
AcDbCircle
 10
515.6803846833977
 20
533.429126807292
 30
0.0
 40
299.999944
100
AcDbArc
 50
261.590937
 51
278.409996
  0
ARC
  5
128
330
2
100
AcDbEntity
  8
4
100
AcDbCircle
 10
515.6803846833977
 20
529.429126807292
 30
0.0
 40
300.000044
100
AcDbArc
 50
260.905178
 51
279.09567
  0
LINE
  5
129
330
2
100
AcDbEntity
  8
4
100
AcDbLine
 10
447.1523086833977
 20
110.4291268072921
 30
0.0
 11
584.2084606833978
 21
110.4291268072921
 31
0.0
  0
ARC
  5
12A
330
2
100
AcDbEntity
  8
4
100
AcDbCircle
 10
515.6806286833976
 20
612.429126807292
 30
0.0
 40
499.99998
100
AcDbArc
 50
254.335962
 51
285.664911
  0
LINE
  5
12B
330
2
100
AcDbEntity
  8
4
100
AcDbLine
 10
482.2223766833977
 20
144.340258807292
 30
0.0
 11
473.2592406833978
 21
227.1796148072921
 31
0.0
  0
LINE
  5
12C
330
2
100
AcDbEntity
  8
4
100
AcDbLine
 10
342.6803846833977
 20
199.4291268072921
 30
0.0
 11
342.6803846833977
 21
233.4291268072921
 31
0.0
  0
LINE
  5
12D
330
2
100
AcDbEntity
  8
4
100
AcDbLine
 10
342.6803846833977
 20
196.4291268072921
 30
0.0
 11
342.6803846833977
 21
236.4291268072921
 31
0.0
  0
LINE
  5
12E
330
2
100
AcDbEntity
  8
4
100
AcDbLine
 10
345.6803846833977
 20
223.3102308072921
 30
0.0
 11
345.6803846833977
 21
135.4291268072921
 31
0.0
  0
LINE
  5
12F
330
2
100
AcDbEntity
  8
4
100
AcDbLine
 10
444.3332166833979
 20
109.8363548072921
 30
0.0
 11
424.8612926833976
 21
101.2687268072921
 31
0.0
  0
LINE
  5
130
330
2
100
AcDbEntity
  8
4
100
AcDbLine
 10
370.6803846833977
 20
128.4291268072921
 30
0.0
 11
370.6803846833977
 21
164.4291268072921
 31
0.0
  0
LINE
  5
131
330
2
100
AcDbEntity
  8
4
100
AcDbLine
 10
380.6803846833977
 20
164.4291268072921
 30
0.0
 11
380.6803846833977
 21
86.42912680729205
 31
0.0
  0
ARC
  5
132
330
2
100
AcDbEntity
  8
4
100
AcDbCircle
 10
365.6803846833977
 20
128.4291268072921
 30
0.0
 40
5.0
100
AcDbArc
 50
270.0
 51
0.0
  0
ARC
  5
133
330
2
100
AcDbEntity
  8
4
100
AcDbCircle
 10
515.6806286833976
 20
612.429126807292
 30
0.0
 40
500.000064
100
AcDbArc
 50
252.755191
 51
253.14234
  0
ARC
  5
134
330
2
100
AcDbEntity
  8
4
100
AcDbCircle
 10
368.9328246833979
 20
139.6818108072921
 30
0.0
 40
5.00004
100
AcDbArc
 50
197.2467140000002
 51
252.7567990000003
  0
LINE
  5
135
330
2
100
AcDbEntity
  8
4
100
AcDbLine
 10
420.6803846833977
 20
94.86149880729204
 30
0.0
 11
420.6803846833977
 21
86.42912680729205
 31
0.0
  0
ARC
  5
136
330
2
100
AcDbEntity
  8
4
100
AcDbCircle
 10
427.6803846833977
 20
94.86149880729204
 30
0.0
 40
6.999996
100
AcDbArc
 50
113.7488360000001
 51
180.0
  0
LINE
  5
137
330
2
100
AcDbEntity
  8
4
100
AcDbLine
 10
345.6803846833977
 20
196.4291268072921
 30
0.0
 11
342.6803846833977
 21
196.4291268072921
 31
0.0
  0
LINE
  5
138
330
2
100
AcDbEntity
  8
4
100
AcDbLine
 10
370.6803846833977
 20
164.4291268072921
 30
0.0
 11
380.6803846833977
 21
164.4291268072921
 31
0.0
  0
ARC
  5
139
330
2
100
AcDbEntity
  8
4
100
AcDbCircle
 10
447.1523086833977
 20
103.4291268072921
 30
0.0
 40
6.999996
100
AcDbArc
 50
90.0
 51
113.7488360000001
  0
ARC
  5
13A
330
2
100
AcDbEntity
  8
4
100
AcDbCircle
 10
479.2397086833976
 20
144.0175068072921
 30
0.0
 40
3.0001
100
AcDbArc
 50
255.6482580000001
 51
6.175939999999565
  0
LINE
  5
13B
330
2
100
AcDbEntity
  8
4
100
AcDbLine
 10
373.5915166833979
 20
252.970874807292
 30
0.0
 11
456.4311166833977
 21
244.0077388072921
 31
0.0
  0
LINE
  5
13C
330
2
100
AcDbEntity
  8
4
100
AcDbLine
 10
373.5915166833979
 20
319.8873788072921
 30
0.0
 11
456.4311166833977
 21
328.850514807292
 31
0.0
  0
ARC
  5
13D
330
2
100
AcDbEntity
  8
4
100
AcDbCircle
 10
373.2687646833979
 20
249.988210807292
 30
0.0
 40
2.99998
100
AcDbArc
 50
83.82405999999969
 51
194.3528979999996
  0
LINE
  5
13E
330
2
100
AcDbEntity
  8
4
100
AcDbLine
 10
344.1867326833976
 20
236.4291268072921
 30
0.0
 11
342.6803846833977
 21
236.4291268072921
 31
0.0
  0
ARC
  5
13F
330
2
100
AcDbEntity
  8
4
100
AcDbCircle
 10
373.2687646833979
 20
322.8700468072921
 30
0.0
 40
2.99998
100
AcDbArc
 50
165.6471020000004
 51
276.1759400000003
  0
ARC
  5
140
330
2
100
AcDbEntity
  8
4
100
AcDbCircle
 10
762.6806286833976
 20
286.4288828072921
 30
0.0
 40
300.000004
100
AcDbArc
 50
171.590893
 51
188.409621
  0
ARC
  5
141
330
2
100
AcDbEntity
  8
4
100
AcDbCircle
 10
758.6806286833976
 20
286.4288828072921
 30
0.0
 40
300.000012
100
AcDbArc
 50
170.90508
 51
189.0954339999999
  0
ARC
  5
142
330
2
100
AcDbEntity
  8
4
100
AcDbCircle
 10
466.2997686833978
 20
226.426442807292
 30
0.0
 40
7.000096000000001
100
AcDbArc
 50
6.176666000000007
 51
80.743662
  0
ARC
  5
143
330
2
100
AcDbEntity
  8
4
100
AcDbCircle
 10
455.6779446833975
 20
237.0482668072921
 30
0.0
 40
7.000096000000001
100
AcDbArc
 50
9.256338000000442
 51
83.82333400000005
  0
ARC
  5
144
330
2
100
AcDbEntity
  8
4
100
AcDbCircle
 10
469.3644646833977
 20
240.1129668072921
 30
0.0
 40
7.000103999999999
100
AcDbArc
 50
189.0943789999999
 51
260.9056210000001
  0
ARC
  5
145
330
2
100
AcDbEntity
  8
4
100
AcDbCircle
 10
472.8307766833977
 20
243.579274807292
 30
0.0
 40
7.00006
100
AcDbArc
 50
188.409035
 51
261.590965
  0
ARC
  5
146
330
2
100
AcDbEntity
  8
4
100
AcDbCircle
 10
466.2997686833978
 20
346.4318108072921
 30
0.0
 40
7.000096000000001
100
AcDbArc
 50
279.256338
 51
353.823334
  0
ARC
  5
147
330
2
100
AcDbEntity
  8
4
100
AcDbCircle
 10
455.6781886833978
 20
335.809986807292
 30
0.0
 40
7.000083999999999
100
AcDbArc
 50
276.1746799999997
 51
350.7436619999996
  0
ARC
  5
148
330
2
100
AcDbEntity
  8
4
100
AcDbCircle
 10
469.3644646833977
 20
332.745290807292
 30
0.0
 40
7.000103999999999
100
AcDbArc
 50
99.09437800000015
 51
170.9056129999999
  0
ARC
  5
149
330
2
100
AcDbEntity
  8
4
100
AcDbCircle
 10
472.8307766833977
 20
329.2789828072921
 30
0.0
 40
7.00006
100
AcDbArc
 50
98.40903600000007
 51
171.5909740000003
  0
LINE
  5
14A
330
2
100
AcDbEntity
  8
4
100
AcDbLine
 10
685.6803846833977
 20
223.3102308072921
 30
0.0
 11
685.6803846833977
 21
135.4291268072921
 31
0.0
  0
LINE
  5
14B
330
2
100
AcDbEntity
  8
4
100
AcDbLine
 10
549.1383926833978
 20
144.340258807292
 30
0.0
 11
558.1015286833976
 21
227.1796148072921
 31
0.0
  0
ARC
  5
14C
330
2
100
AcDbEntity
  8
4
100
AcDbCircle
 10
603.6803846833977
 20
94.86149880729204
 30
0.0
 40
6.999996
100
AcDbArc
 50
0.0
 51
66.25116400000036
  0
ARC
  5
14D
330
2
100
AcDbEntity
  8
4
100
AcDbCircle
 10
584.2084606833978
 20
103.4291268072921
 30
0.0
 40
6.999996
100
AcDbArc
 50
66.2511640000004
 51
90.0
  0
LINE
  5
14E
330
2
100
AcDbEntity
  8
4
100
AcDbLine
 10
587.027552683398
 20
109.8363548072921
 30
0.0
 11
606.4994766833975
 21
101.2687268072921
 31
0.0
  0
ARC
  5
14F
330
2
100
AcDbEntity
  8
4
100
AcDbCircle
 10
552.1210566833979
 20
144.0175068072921
 30
0.0
 40
2.99998
100
AcDbArc
 50
173.8240599999998
 51
284.3528979999996
  0
LINE
  5
150
330
2
100
AcDbEntity
  8
4
100
AcDbLine
 10
660.6803846833977
 20
128.4291268072921
 30
0.0
 11
660.6803846833977
 21
164.4291268072921
 31
0.0
  0
LINE
  5
151
330
2
100
AcDbEntity
  8
4
100
AcDbLine
 10
650.6803846833977
 20
164.4291268072921
 30
0.0
 11
650.6803846833977
 21
86.42912680729205
 31
0.0
  0
LINE
  5
152
330
2
100
AcDbEntity
  8
4
100
AcDbLine
 10
610.6803846833977
 20
94.86149880729204
 30
0.0
 11
610.6803846833977
 21
86.42912680729205
 31
0.0
  0
ARC
  5
153
330
2
100
AcDbEntity
  8
4
100
AcDbCircle
 10
697.6803846833977
 20
135.4291268072921
 30
0.0
 40
12.0
100
AcDbArc
 50
180.0
 51
270.0011650000001
  0
ARC
  5
154
330
2
100
AcDbEntity
  8
4
100
AcDbCircle
 10
665.6803846833977
 20
128.4291268072921
 30
0.0
 40
5.0
100
AcDbArc
 50
180.0
 51
270.0
  0
ARC
  5
155
330
2
100
AcDbEntity
  8
4
100
AcDbCircle
 10
515.6801406833979
 20
612.429126807292
 30
0.0
 40
500.00002
100
AcDbArc
 50
286.858598
 51
287.245747
  0
ARC
  5
156
330
2
100
AcDbEntity
  8
4
100
AcDbCircle
 10
662.4279446833975
 20
139.6818108072921
 30
0.0
 40
4.999924
100
AcDbArc
 50
287.2440290000006
 51
342.7532860000005
  0
LINE
  5
158
330
2
100
AcDbEntity
  8
4
100
AcDbLine
 10
680.6803846833977
 20
86.42912680729205
 30
0.0
 11
680.6803846833977
 21
123.4291268072921
 31
0.0
  0
LWPOLYLINE
  5
159
330
2
100
AcDbEntity
  8
4
100
AcDbPolyline
 90
       32
 70
     0
 43
0.0
 10
670.8718646833977
 20
123.4292028072921
 10
670.1625246833978
 20
122.494018807292
 10
669.553652683398
 20
121.5529468072921
 10
669.0746246833978
 20
120.6042668072921
 10
668.7548126833976
 20
119.6462548072921
 10
668.6235846833974
 20
118.6771868072921
 10
668.7103206833976
 20
117.695346807292
 10
668.9793326833978
 20
116.8091588072921
 10
669.3708846833974
 20
115.915458807292
 10
669.8111366833978
 20
115.018246807292
 10
670.2262446833979
 20
114.121518807292
 10
670.5423686833979
 20
113.2292788072921
 10
670.6856646833976
 20
112.345514807292
 10
670.6370006833977
 20
111.6456828072921
 10
670.4578566833975
 20
110.9518188072921
 10
670.1760566833977
 20
110.2618788072921
 10
668.9928846833977
 20
108.195182807292
 10
668.5786366833977
 20
107.5005148072921
 10
668.200824683398
 20
106.799562807292
 10
667.8872646833975
 20
106.0902828072921
 10
667.5542766833978
 20
104.880770807292
 10
667.4413086833979
 20
103.646674807292
 10
667.510240683398
 20
102.392486807292
 10
668.4272886833978
 20
98.55430280729206
 10
669.609304683398
 20
94.69705480729203
 10
669.8843166833976
 20
93.42803480729208
 10
670.0363126833977
 20
92.17487080729211
 10
670.0271726833976
 20
90.94205080729205
 10
669.8435006833975
 20
89.78750280729207
 10
669.5070486833979
 20
88.65200280729209
 10
669.0464486833976
 20
87.53197880729203
 10
668.4903526833978
 20
86.42386280729204
  0
LINE
  5
15A
330
2
100
AcDbEntity
  8
L-CENTER
 48
8.0
100
AcDbLine
 10
690.6803846833977
 20
138.4291268072921
 30
0.0
 11
690.6803846833977
 21
71.42912680729205
 31
0.0
  0
LINE
  5
15B
330
2
100
AcDbEntity
  8
4
100
AcDbLine
 10
660.6803846833977
 20
164.4291268072921
 30
0.0
 11
650.6803846833977
 21
164.4291268072921
 31
0.0
  0
LINE
  5
15C
330
2
100
AcDbEntity
  8
4
100
AcDbLine
 10
657.7692526833976
 20
252.970874807292
 30
0.0
 11
574.9296526833978
 21
244.0077388072921
 31
0.0
  0
LINE
  5
15D
330
2
100
AcDbEntity
  8
4
100
AcDbLine
 10
657.7692526833976
 20
319.8873788072921
 30
0.0
 11
574.9296526833978
 21
328.850514807292
 31
0.0
  0
ARC
  5
15E
330
2
100
AcDbEntity
  8
4
100
AcDbCircle
 10
272.6801406833979
 20
286.4288828072921
 30
0.0
 40
299.999984
100
AcDbArc
 50
350.905601
 51
9.095295999999994
  0
ARC
  5
15F
330
2
100
AcDbEntity
  8
4
100
AcDbCircle
 10
268.6801406833977
 20
286.4288828072921
 30
0.0
 40
300.000028
100
AcDbArc
 50
351.591322
 51
8.409483000000021
  0
ARC
  5
160
330
2
100
AcDbEntity
  8
4
100
AcDbCircle
 10
558.5299926833977
 20
243.579274807292
 30
0.0
 40
7.00006
100
AcDbArc
 50
278.409035
 51
351.5909650000002
  0
ARC
  5
161
330
2
100
AcDbEntity
  8
4
100
AcDbCircle
 10
561.9963006833977
 20
240.1129668072921
 30
0.0
 40
7.000103999999999
100
AcDbArc
 50
279.0943789999999
 51
350.9056210000001
  0
ARC
  5
162
330
2
100
AcDbEntity
  8
4
100
AcDbCircle
 10
565.0610006833977
 20
226.426442807292
 30
0.0
 40
7.000096000000001
100
AcDbArc
 50
99.25633800000047
 51
173.823334
  0
ARC
  5
163
330
2
100
AcDbEntity
  8
4
100
AcDbCircle
 10
575.6828246833979
 20
237.0482668072921
 30
0.0
 40
7.000096000000001
100
AcDbArc
 50
96.17666599999995
 51
170.7436619999996
  0
ARC
  5
164
330
2
100
AcDbEntity
  8
4
100
AcDbCircle
 10
558.5299926833977
 20
329.2789828072921
 30
0.0
 40
7.00006
100
AcDbArc
 50
8.409027000000155
 51
81.59096399999947
  0
ARC
  5
165
330
2
100
AcDbEntity
  8
4
100
AcDbCircle
 10
561.9963006833977
 20
332.745290807292
 30
0.0
 40
7.000103999999999
100
AcDbArc
 50
9.094387000000209
 51
80.90562199999988
  0
ARC
  5
166
330
2
100
AcDbEntity
  8
4
100
AcDbCircle
 10
565.0610006833977
 20
346.4318108072921
 30
0.0
 40
7.000096000000001
100
AcDbArc
 50
186.176666
 51
260.7436619999995
  0
ARC
  5
167
330
2
100
AcDbEntity
  8
4
100
AcDbCircle
 10
575.6825806833976
 20
335.809986807292
 30
0.0
 40
7.000083999999999
100
AcDbArc
 50
189.2563380000004
 51
263.8253199999999
  0
ARC
  5
168
330
2
100
AcDbEntity
  8
4
100
AcDbCircle
 10
658.0920046833976
 20
249.988210807292
 30
0.0
 40
3.0001
100
AcDbArc
 50
345.6482580000001
 51
96.17594000000075
  0
ARC
  5
169
330
2
100
AcDbEntity
  8
4
100
AcDbCircle
 10
658.0920046833976
 20
322.8700468072921
 30
0.0
 40
2.99998
100
AcDbArc
 50
263.8240599999997
 51
14.35289799999935
  0
ARC
  5
16B
330
2
100
AcDbEntity
  8
4
100
AcDbCircle
 10
515.6803846833973
 20
421.4291268072923
 30
0.0
 40
23.0
100
AcDbArc
 50
180.0
 51
0.0
  0
LINE
  5
16C
330
2
100
AcDbEntity
  8
4
100
AcDbLine
 10
495.6803846833977
 20
551.429126807292
 30
0.0
 11
535.6803846833977
 21
551.429126807292
 31
0.0
  0
LINE
  5
16D
330
2
100
AcDbEntity
  8
4
100
AcDbLine
 10
528.1803846833977
 20
560.429126807292
 30
0.0
 11
503.1803846833977
 21
560.429126807292
 31
0.0
  0
LINE
  5
16E
330
2
100
AcDbEntity
  8
4
100
AcDbLine
 10
515.6803846833977
 20
562.429126807292
 30
0.0
 11
528.1803846833977
 21
560.429126807292
 31
0.0
  0
CIRCLE
  5
16F
330
2
100
AcDbEntity
  8
4
100
AcDbCircle
 10
515.6803846833977
 20
577.429126807292
 30
0.0
 40
15.0
  0
LINE
  5
170
330
2
100
AcDbEntity
  8
L-CENTER
 48
8.0
100
AcDbLine
 10
548.4508926833978
 20
577.429126807292
 30
0.0
 11
482.9098766833977
 21
577.429126807292
 31
0.0
  0
ARC
  5
171
330
2
100
AcDbEntity
  8
4
100
AcDbCircle
 10
515.6803846833977
 20
577.429126807292
 30
0.0
 40
24.999952
100
AcDbArc
 50
301.7709889999999
 51
240.0
  0
LINE
  5
172
330
2
100
AcDbEntity
  8
4
100
AcDbLine
 10
347.6803846833977
 20
535.429126807292
 30
0.0
 11
683.6803846833977
 21
535.429126807292
 31
0.0
  0
ARC
  5
173
330
2
100
AcDbEntity
  8
4
100
AcDbCircle
 10
515.6801406833979
 20
-39.57087319270795
 30
0.0
 40
500.000032
100
AcDbArc
 50
72.75489999999999
 51
107.245404
  0
LINE
  5
174
330
2
100
AcDbEntity
  8
4
100
AcDbLine
 10
342.6803846833977
 20
391.4291268072921
 30
0.0
 11
342.6803846833977
 21
531.429126807292
 31
0.0
  0
LINE
  5
175
330
2
100
AcDbEntity
  8
4
100
AcDbLine
 10
347.6803846833977
 20
476.4291268072921
 30
0.0
 11
347.6803846833977
 21
535.429126807292
 31
0.0
  0
LINE
  5
176
330
2
100
AcDbEntity
  8
4
100
AcDbLine
 10
347.6803846833977
 20
363.656178807292
 30
0.0
 11
347.6803846833977
 21
446.4291268072921
 31
0.0
  0
ARC
  5
177
330
2
100
AcDbEntity
  8
4
100
AcDbCircle
 10
368.9328246833979
 20
433.176442807292
 30
0.0
 40
4.999924
100
AcDbArc
 50
107.2440329999999
 51
162.7532969999999
  0
ARC
  5
178
330
2
100
AcDbEntity
  8
4
100
AcDbCircle
 10
342.6803846833977
 20
476.4291268072921
 30
0.0
 40
5.0
100
AcDbArc
 50
270.0
 51
0.0
  0
ARC
  5
179
330
2
100
AcDbEntity
  8
4
100
AcDbCircle
 10
342.6803846833977
 20
446.4291268072921
 30
0.0
 40
5.0
100
AcDbArc
 50
0.0
 51
90.0
  0
ARC
  5
17A
330
2
100
AcDbEntity
  8
4
100
AcDbCircle
 10
490.6803846833982
 20
432.3023594444007
 30
0.0
 40
2.0
100
AcDbArc
 50
0.0
 51
99.72496867499491
  0
LINE
  5
17B
330
2
100
AcDbEntity
  8
4
100
AcDbLine
 10
492.6803846833982
 20
421.4291268072923
 30
0.0
 11
492.6803846833982
 21
432.3023594444008
 31
0.0
  0
ARC
  5
17C
330
2
100
AcDbEntity
  8
4
100
AcDbCircle
 10
479.2397086833976
 20
428.840746807292
 30
0.0
 40
3.0001
100
AcDbArc
 50
353.8240599999993
 51
104.3517419999999
  0
LINE
  5
17D
330
2
100
AcDbEntity
  8
4
100
AcDbLine
 10
392.6803846833977
 20
538.429126807292
 30
0.0
 11
442.6803846833977
 21
538.429126807292
 31
0.0
  0
LINE
  5
17E
330
2
100
AcDbEntity
  8
4
100
AcDbLine
 10
394.6803846833977
 20
548.929126807292
 30
0.0
 11
440.6803846833977
 21
548.929126807292
 31
0.0
  0
LINE
  5
17F
330
2
100
AcDbEntity
  8
4
100
AcDbLine
 10
394.6803846833977
 20
543.929126807292
 30
0.0
 11
440.6803846833977
 21
543.929126807292
 31
0.0
  0
LINE
  5
180
330
2
100
AcDbEntity
  8
4
100
AcDbLine
 10
394.6803846833977
 20
539.929126807292
 30
0.0
 11
440.6803846833977
 21
539.929126807292
 31
0.0
  0
LINE
  5
181
330
2
100
AcDbEntity
  8
4
100
AcDbLine
 10
395.6803846833977
 20
538.429126807292
 30
0.0
 11
439.6803846833977
 21
538.429126807292
 31
0.0
  0
ARC
  5
183
330
2
100
AcDbEntity
  8
4
100
AcDbCircle
 10
369.6803846833977
 20
540.429126807292
 30
0.0
 40
4.0
100
AcDbArc
 50
90.0
 51
180.0
  0
LINE
  5
184
330
2
100
AcDbEntity
  8
4
100
AcDbLine
 10
365.6803846833977
 20
535.429126807292
 30
0.0
 11
365.6803846833977
 21
540.429126807292
 31
0.0
  0
LINE
  5
185
330
2
100
AcDbEntity
  8
4
100
AcDbLine
 10
369.6803846833977
 20
544.429126807292
 30
0.0
 11
369.6803846833977
 21
554.429126807292
 31
0.0
  0
LINE
  5
186
330
2
100
AcDbEntity
  8
4
100
AcDbLine
 10
368.6803846833977
 20
557.429126807292
 30
0.0
 11
370.6803846833977
 21
556.429126807292
 31
0.0
  0
LINE
  5
187
330
2
100
AcDbEntity
  8
4
100
AcDbLine
 10
370.6803846833977
 20
556.429126807292
 30
0.0
 11
370.6803846833977
 21
554.429126807292
 31
0.0
  0
ARC
  5
188
330
2
100
AcDbEntity
  8
4
100
AcDbCircle
 10
349.6803846833977
 20
540.429126807292
 30
0.0
 40
4.0
100
AcDbArc
 50
0.0
 51
90.0
  0
ARC
  5
189
330
2
100
AcDbEntity
  8
4
100
AcDbCircle
 10
356.6803846833977
 20
535.429126807292
 30
0.0
 40
5.0
100
AcDbArc
 50
53.13010200000015
 51
126.8698979999998
  0
LINE
  5
18A
330
2
100
AcDbEntity
  8
4
100
AcDbLine
 10
353.6803846833977
 20
535.429126807292
 30
0.0
 11
353.6803846833977
 21
540.429126807292
 31
0.0
  0
LINE
  5
18B
330
2
100
AcDbEntity
  8
4
100
AcDbLine
 10
353.6803846833977
 20
535.429126807292
 30
0.0
 11
359.6803846833977
 21
535.429126807292
 31
0.0
  0
LINE
  5
18C
330
2
100
AcDbEntity
  8
4
100
AcDbLine
 10
349.6803846833977
 20
544.429126807292
 30
0.0
 11
349.6803846833977
 21
554.429126807292
 31
0.0
  0
LINE
  5
18D
330
2
100
AcDbEntity
  8
4
100
AcDbLine
 10
349.6803846833977
 20
544.429126807292
 30
0.0
 11
359.6803846833977
 21
544.429126807292
 31
0.0
  0
LINE
  5
18E
330
2
100
AcDbEntity
  8
4
100
AcDbLine
 10
350.6803846833977
 20
557.429126807292
 30
0.0
 11
348.6803846833977
 21
556.429126807292
 31
0.0
  0
LINE
  5
18F
330
2
100
AcDbEntity
  8
4
100
AcDbLine
 10
348.6803846833977
 20
556.429126807292
 30
0.0
 11
348.6803846833977
 21
554.429126807292
 31
0.0
  0
LINE
  5
190
330
2
100
AcDbEntity
  8
4
100
AcDbLine
 10
348.6803846833977
 20
556.429126807292
 30
0.0
 11
359.6803846833977
 21
556.429126807292
 31
0.0
  0
LINE
  5
191
330
2
100
AcDbEntity
  8
4
100
AcDbLine
 10
350.6803846833977
 20
557.429126807292
 30
0.0
 11
359.6803846833977
 21
557.429126807292
 31
0.0
  0
LINE
  5
192
330
2
100
AcDbEntity
  8
4
100
AcDbLine
 10
359.6803846833977
 20
554.429126807292
 30
0.0
 11
348.6803846833977
 21
554.429126807292
 31
0.0
  0
LINE
  5
193
330
2
100
AcDbEntity
  8
L-CENTER
 48
8.0
100
AcDbLine
 10
359.6803846833977
 20
562.4934220533514
 30
0.0
 11
359.6803846833977
 21
525.4857900533514
 31
0.0
  0
LINE
  5
194
330
2
100
AcDbEntity
  8
4
100
AcDbLine
 10
365.6803846833977
 20
535.429126807292
 30
0.0
 11
359.6803846833977
 21
535.429126807292
 31
0.0
  0
ARC
  5
195
330
2
100
AcDbEntity
  8
4
100
AcDbCircle
 10
362.6803846833977
 20
535.429126807292
 30
0.0
 40
5.0
100
AcDbArc
 50
53.13010200000015
 51
126.8698979999998
  0
LINE
  5
196
330
2
100
AcDbEntity
  8
4
100
AcDbLine
 10
369.6803846833977
 20
544.429126807292
 30
0.0
 11
359.6803846833977
 21
544.429126807292
 31
0.0
  0
LINE
  5
197
330
2
100
AcDbEntity
  8
4
100
AcDbLine
 10
362.6803846833977
 20
540.429126807292
 30
0.0
 11
356.6803846833977
 21
540.429126807292
 31
0.0
  0
LINE
  5
198
330
2
100
AcDbEntity
  8
4
100
AcDbLine
 10
368.6803846833977
 20
557.429126807292
 30
0.0
 11
359.6803846833977
 21
557.429126807292
 31
0.0
  0
LINE
  5
199
330
2
100
AcDbEntity
  8
4
100
AcDbLine
 10
370.6803846833977
 20
556.429126807292
 30
0.0
 11
359.6803846833977
 21
556.429126807292
 31
0.0
  0
LINE
  5
19A
330
2
100
AcDbEntity
  8
4
100
AcDbLine
 10
359.6803846833977
 20
554.429126807292
 30
0.0
 11
370.6803846833977
 21
554.429126807292
 31
0.0
  0
LINE
  5
19C
330
2
100
AcDbEntity
  8
4
100
AcDbLine
 10
429.1803846833977
 20
543.929126807292
 30
0.0
 11
429.1803846833977
 21
548.929126807292
 31
0.0
  0
LINE
  5
19D
330
2
100
AcDbEntity
  8
4
100
AcDbLine
 10
406.1803846833977
 20
543.929126807292
 30
0.0
 11
406.1803846833977
 21
548.929126807292
 31
0.0
  0
LINE
  5
19E
330
2
100
AcDbEntity
  8
L-CENTER
 48
8.0
100
AcDbLine
 10
417.6803846833977
 20
518.0126172890314
 30
0.0
 11
417.6803846833977
 21
554.0355428072921
 31
0.0
  0
LINE
  5
19F
330
2
100
AcDbEntity
  8
4
100
AcDbLine
 10
394.6803846833977
 20
539.929126807292
 30
0.0
 11
394.6803846833977
 21
548.929126807292
 31
0.0
  0
LINE
  5
1A0
330
2
100
AcDbEntity
  8
4
100
AcDbLine
 10
392.6803846833977
 20
535.429126807292
 30
0.0
 11
392.6803846833977
 21
538.429126807292
 31
0.0
  0
LINE
  5
1A1
330
2
100
AcDbEntity
  8
4
100
AcDbLine
 10
395.6803846833977
 20
539.929126807292
 30
0.0
 11
395.6803846833977
 21
538.429126807292
 31
0.0
  0
LINE
  5
1A3
330
2
100
AcDbEntity
  8
4
100
AcDbLine
 10
440.6803846833977
 20
539.929126807292
 30
0.0
 11
440.6803846833977
 21
548.929126807292
 31
0.0
  0
LINE
  5
1A4
330
2
100
AcDbEntity
  8
4
100
AcDbLine
 10
442.6803846833977
 20
535.429126807292
 30
0.0
 11
442.6803846833977
 21
538.429126807292
 31
0.0
  0
LINE
  5
1A5
330
2
100
AcDbEntity
  8
4
100
AcDbLine
 10
439.6803846833977
 20
539.929126807292
 30
0.0
 11
439.6803846833977
 21
538.429126807292
 31
0.0
  0
ARC
  5
1A6
330
2
100
AcDbEntity
  8
4
100
AcDbCircle
 10
493.6803846833977
 20
537.4291268072919
 30
0.0
 40
2.0
100
AcDbArc
 50
270.0
 51
0.0
  0
LINE
  5
1A7
330
2
100
AcDbEntity
  8
4
100
AcDbLine
 10
503.1803846833977
 20
551.429126807292
 30
0.0
 11
503.1803846833977
 21
560.429126807292
 31
0.0
  0
ARC
  5
1A8
330
2
100
AcDbEntity
  8
4
100
AcDbCircle
 10
501.7804806833979
 20
554.984790807292
 30
0.0
 40
1.399916
100
AcDbArc
 50
0.0
 51
58.23083899999887
  0
LINE
  5
1A9
330
2
100
AcDbEntity
  8
4
100
AcDbLine
 10
503.1803846833977
 20
560.429126807292
 30
0.0
 11
515.6803846833977
 21
562.429126807292
 31
0.0
  0
LINE
  5
1AA
330
2
100
AcDbEntity
  8
4
100
AcDbLine
 10
495.6803846833977
 20
537.4291268072919
 30
0.0
 11
495.6803846833977
 21
551.4291268072922
 31
0.0
  0
LINE
  5
1B3
330
2
100
AcDbEntity
  8
4
100
AcDbLine
 10
673.6803846833936
 20
520.4291268072932
 30
0.0
 11
673.6803846834036
 21
480.4291268052943
 31
0.0
  0
LINE
  5
1B4
330
2
100
AcDbEntity
  8
4
100
AcDbLine
 10
566.6803846829007
 20
520.4291268072936
 30
0.0
 11
566.6803846829002
 21
480.4291268052931
 31
0.0
  0
ARC
  5
1B5
330
2
100
AcDbEntity
  8
4
100
AcDbCircle
 10
646.7639768188942
 20
502.4291268072925
 30
0.0
 40
5.0
100
AcDbArc
 50
333.4349488251167
 51
89.99999999999739
  0
LINE
  5
1B6
330
2
100
AcDbEntity
  8
4
100
AcDbLine
 10
652.5949744867626
 20
487.258306412094
 30
0.0
 11
662.522025469922
 21
507.1124083803131
 31
0.0
  0
ARC
  5
1B7
330
2
100
AcDbEntity
  8
4
100
AcDbCircle
 10
619.680384682897
 20
506.6741248046925
 30
0.0
 40
5.0
100
AcDbArc
 50
308.6821874535028
 51
0.0
  0
LINE
  5
1B8
330
2
100
AcDbEntity
  8
4
100
AcDbLine
 10
603.6803846829007
 20
512.9291268072931
 30
0.0
 11
603.6803846829007
 21
487.9291268052931
 31
0.0
  0
LINE
  5
1B9
330
2
100
AcDbEntity
  8
4
100
AcDbLine
 10
577.6803846829007
 20
512.8137421917925
 30
0.0
 11
577.6803846829007
 21
488.0445114207928
 31
0.0
  0
LINE
  5
1BA
330
2
100
AcDbEntity
  8
4
100
AcDbLine
 10
584.6803846834014
 20
512.8137421917925
 30
0.0
 11
584.6803846834014
 21
495.0445114212928
 31
0.0
  0
LINE
  5
1BB
330
2
100
AcDbEntity
  8
4
100
AcDbLine
 10
688.6803846833977
 20
391.4291268072921
 30
0.0
 11
688.6803846833977
 21
531.429126807292
 31
0.0
  0
LINE
  5
1BC
330
2
100
AcDbEntity
  8
4
100
AcDbLine
 10
683.6803846833977
 20
476.4291268072921
 30
0.0
 11
683.6803846833977
 21
535.429126807292
 31
0.0
  0
LINE
  5
1BD
330
2
100
AcDbEntity
  8
4
100
AcDbLine
 10
571.6803846829002
 20
475.4291268052932
 30
0.0
 11
668.6803846834036
 21
475.4291268052931
 31
0.0
  0
LINE
  5
1BE
330
2
100
AcDbEntity
  8
4
100
AcDbLine
 10
605.1803846829007
 20
486.4291268052931
 30
0.0
 11
619.6803846829007
 21
486.4291268052931
 31
0.0
  0
ARC
  5
1BF
330
2
100
AcDbEntity
  8
4
100
AcDbCircle
 10
540.6803846833977
 20
432.3023594444006
 30
0.0
 40
2.0
100
AcDbArc
 50
80.2750313250051
 51
180.0
  0
LINE
  5
1C0
330
2
100
AcDbEntity
  8
4
100
AcDbLine
 10
538.6803846833973
 20
421.4291268072923
 30
0.0
 11
538.6803846833973
 21
432.3023594444006
 31
0.0
  0
ARC
  5
1C1
330
2
100
AcDbEntity
  8
4
100
AcDbCircle
 10
552.1210566833979
 20
428.840746807292
 30
0.0
 40
2.99998
100
AcDbArc
 50
75.64710200000042
 51
186.1759400000002
  0
ARC
  5
1C2
330
2
100
AcDbEntity
  8
4
100
AcDbCircle
 10
571.6803846829002
 20
480.4291268052931
 30
0.0
 40
5.0
100
AcDbArc
 50
180.0
 51
270.0
  0
ARC
  5
1C3
330
2
100
AcDbEntity
  8
4
100
AcDbCircle
 10
605.1803846829007
 20
487.9291268052931
 30
0.0
 40
1.5
100
AcDbArc
 50
180.0
 51
270.0
  0
ARC
  5
1C4
330
2
100
AcDbEntity
  8
4
100
AcDbCircle
 10
597.1803846829007
 20
487.9291268052928
 30
0.0
 40
1.5
100
AcDbArc
 50
270.0
 51
0.0
  0
ARC
  5
1C5
330
2
100
AcDbEntity
  8
4
100
AcDbCircle
 10
597.1803846829007
 20
491.9291268057926
 30
0.0
 40
1.5
100
AcDbArc
 50
0.0
 51
90.0
  0
LINE
  5
1C6
330
2
100
AcDbEntity
  8
4
100
AcDbLine
 10
598.6803846829007
 20
491.9291268057926
 30
0.0
 11
598.6803846829007
 21
487.9291268052928
 31
0.0
  0
ARC
  5
1C7
330
2
100
AcDbEntity
  8
4
100
AcDbCircle
 10
586.2957692989016
 20
495.0445114212928
 30
0.0
 40
1.6153846155
100
AcDbArc
 50
180.0
 51
270.0
  0
LINE
  5
1C8
330
2
100
AcDbEntity
  8
4
100
AcDbLine
 10
586.2957692989016
 20
493.4291268057927
 30
0.0
 11
597.1803846829007
 21
493.4291268057926
 31
0.0
  0
LINE
  5
1C9
330
2
100
AcDbEntity
  8
4
100
AcDbLine
 10
579.2957692984005
 20
486.4291268052928
 30
0.0
 11
597.1803846829007
 21
486.4291268052928
 31
0.0
  0
ARC
  5
1CA
330
2
100
AcDbEntity
  8
4
100
AcDbCircle
 10
579.2957692984005
 20
488.0445114207928
 30
0.0
 40
1.6153846155
100
AcDbArc
 50
180.0
 51
270.0
  0
LINE
  5
1CB
330
2
100
AcDbEntity
  8
4
100
AcDbLine
 10
683.6803846833977
 20
363.656178807292
 30
0.0
 11
683.6803846833977
 21
446.4291268072921
 31
0.0
  0
ARC
  5
1CC
330
2
100
AcDbEntity
  8
4
100
AcDbCircle
 10
651.2533337002374
 20
487.9291268052926
 30
0.0
 40
1.5
100
AcDbArc
 50
270.0
 51
333.4349488251145
  0
ARC
  5
1CD
330
2
100
AcDbEntity
  8
4
100
AcDbCircle
 10
646.7811977453234
 20
487.9291268052926
 30
0.0
 40
1.5
100
AcDbArc
 50
153.4349488251146
 51
270.0
  0
LINE
  5
1CE
330
2
100
AcDbEntity
  8
4
100
AcDbLine
 10
645.4395569587978
 20
488.5999471984912
 30
0.0
 11
651.2361127739791
 21
500.1930588299639
 31
0.0
  0
ARC
  5
1CF
330
2
100
AcDbEntity
  8
4
100
AcDbCircle
 10
619.6803846829002
 20
494.1841288078955
 30
0.0
 40
5.0
100
AcDbArc
 50
0.0
 51
51.31781254652588
  0
LINE
  5
1D0
330
2
100
AcDbEntity
  8
4
100
AcDbLine
 10
624.6803846829002
 20
494.1841288078966
 30
0.0
 11
624.6803846829007
 21
491.4291268052931
 31
0.0
  0
ARC
  5
1D1
330
2
100
AcDbEntity
  8
4
100
AcDbCircle
 10
624.6803846828984
 20
500.4291268062952
 30
0.0
 40
3.0
100
AcDbArc
 50
128.6821874535029
 51
231.3178125465249
  0
ARC
  5
1D2
330
2
100
AcDbEntity
  8
4
100
AcDbCircle
 10
619.6803846829007
 20
491.4291268052931
 30
0.0
 40
5.0
100
AcDbArc
 50
270.0
 51
0.0
  0
LINE
  5
1D3
330
2
100
AcDbEntity
  8
4
100
AcDbLine
 10
636.6803846833982
 20
502.3137421910428
 30
0.0
 11
636.6803846833991
 21
498.5445114215428
 31
0.0
  0
ARC
  5
1D4
330
2
100
AcDbEntity
  8
4
100
AcDbCircle
 10
635.0650000678988
 20
498.5445114215428
 30
0.0
 40
1.6153846155
100
AcDbArc
 50
270.0
 51
0.0
  0
ARC
  5
1D5
330
2
100
AcDbEntity
  8
4
100
AcDbCircle
 10
635.0650000678979
 20
502.3137421910428
 30
0.0
 40
1.6153846155
100
AcDbArc
 50
0.0
 51
90.0
  0
LINE
  5
1D6
330
2
100
AcDbEntity
  8
4
100
AcDbLine
 10
646.7811977453234
 20
486.4291268052926
 30
0.0
 11
651.2533337002374
 21
486.4291268052926
 31
0.0
  0
ARC
  5
1D7
330
2
100
AcDbEntity
  8
4
100
AcDbCircle
 10
631.2957692983991
 20
498.5445114215428
 30
0.0
 40
1.6153846155
100
AcDbArc
 50
180.0
 51
270.0
  0
ARC
  5
1D8
330
2
100
AcDbEntity
  8
4
100
AcDbCircle
 10
631.2957692983978
 20
502.3137421910428
 30
0.0
 40
1.6153846155
100
AcDbArc
 50
90.0
 51
180.0
  0
LINE
  5
1D9
330
2
100
AcDbEntity
  8
4
100
AcDbLine
 10
629.680384682898
 20
502.3137421910428
 30
0.0
 11
629.6803846828989
 21
498.5445114215428
 31
0.0
  0
LINE
  5
1DA
330
2
100
AcDbEntity
  8
4
100
AcDbLine
 10
631.2957692983978
 20
503.9291268065427
 30
0.0
 11
635.0650000678979
 21
503.9291268065427
 31
0.0
  0
LINE
  5
1DB
330
2
100
AcDbEntity
  8
4
100
AcDbLine
 10
631.2957692983991
 20
496.9291268060427
 30
0.0
 11
635.0650000678988
 21
496.9291268060427
 31
0.0
  0
ARC
  5
1DC
330
2
100
AcDbEntity
  8
4
100
AcDbCircle
 10
668.6803846834036
 20
480.4291268052931
 30
0.0
 40
5.0
100
AcDbArc
 50
270.0
 51
0.0
  0
ARC
  5
1DD
330
2
100
AcDbEntity
  8
4
100
AcDbCircle
 10
688.6803846833977
 20
476.4291268072921
 30
0.0
 40
5.0
100
AcDbArc
 50
180.0
 51
270.0
  0
ARC
  5
1DE
330
2
100
AcDbEntity
  8
4
100
AcDbCircle
 10
688.6803846833977
 20
446.4291268072921
 30
0.0
 40
5.0
100
AcDbArc
 50
90.0
 51
180.0
  0
ARC
  5
1DF
330
2
100
AcDbEntity
  8
4
100
AcDbCircle
 10
662.4279446833975
 20
433.176442807292
 30
0.0
 40
5.00004
100
AcDbArc
 50
17.24670299999975
 51
72.75679599999998
  0
LINE
  5
1E1
330
2
100
AcDbEntity
  8
4
100
AcDbLine
 10
571.6803846829011
 20
525.4291268072936
 30
0.0
 11
668.6803846833936
 21
525.4291268072919
 31
0.0
  0
LINE
  5
1E2
330
2
100
AcDbEntity
  8
4
100
AcDbLine
 10
605.1803846829007
 20
514.4291268072931
 30
0.0
 11
619.6803846828966
 21
514.4291268072928
 31
0.0
  0
ARC
  5
1E3
330
2
100
AcDbEntity
  8
4
100
AcDbCircle
 10
537.6803846833977
 20
537.4291268072919
 30
0.0
 40
2.0
100
AcDbArc
 50
180.0
 51
270.0
  0
ARC
  5
1E4
330
2
100
AcDbEntity
  8
4
100
AcDbCircle
 10
529.5805286833979
 20
554.984790807292
 30
0.0
 40
1.399916
100
AcDbArc
 50
121.7691610000011
 51
180.0
  0
LINE
  5
1E5
330
2
100
AcDbEntity
  8
4
100
AcDbLine
 10
528.1803846833977
 20
551.429126807292
 30
0.0
 11
528.1803846833977
 21
560.429126807292
 31
0.0
  0
LINE
  5
1E6
330
2
100
AcDbEntity
  8
4
100
AcDbLine
 10
535.6803846833977
 20
537.4291268072919
 30
0.0
 11
535.6803846833977
 21
551.4291268072922
 31
0.0
  0
ARC
  5
1E7
330
2
100
AcDbEntity
  8
4
100
AcDbCircle
 10
571.6803846829007
 20
520.4291268072936
 30
0.0
 40
5.0
100
AcDbArc
 50
89.9999999999987
 51
180.0
  0
ARC
  5
1E8
330
2
100
AcDbEntity
  8
4
100
AcDbCircle
 10
605.1803846829007
 20
512.9291268072931
 30
0.0
 40
1.5
100
AcDbArc
 50
90.0
 51
180.0
  0
ARC
  5
1E9
330
2
100
AcDbEntity
  8
4
100
AcDbCircle
 10
583.0650000679016
 20
512.8137421917925
 30
0.0
 40
1.6153846155
100
AcDbArc
 50
0.0
 51
90.0
  0
ARC
  5
1EA
330
2
100
AcDbEntity
  8
4
100
AcDbCircle
 10
579.2957692984005
 20
512.8137421917925
 30
0.0
 40
1.6153846155
100
AcDbArc
 50
90.0
 51
180.0
  0
LINE
  5
1EB
330
2
100
AcDbEntity
  8
4
100
AcDbLine
 10
579.2957692984005
 20
514.4291268072925
 30
0.0
 11
583.0650000679016
 21
514.4291268072925
 31
0.0
  0
LINE
  5
1EC
330
2
100
AcDbEntity
  8
4
100
AcDbLine
 10
643.1803846833955
 20
514.4291268072925
 30
0.0
 11
661.1803846833955
 21
514.4291268072925
 31
0.0
  0
ARC
  5
1ED
330
2
100
AcDbEntity
  8
4
100
AcDbCircle
 10
643.1803846833964
 20
508.9291268072927
 30
0.0
 40
1.5
100
AcDbArc
 50
180.0
 51
270.0
  0
LINE
  5
1EE
330
2
100
AcDbEntity
  8
4
100
AcDbLine
 10
643.1803846833964
 20
507.4291268072927
 30
0.0
 11
646.7639768188942
 21
507.4291268072925
 31
0.0
  0
ARC
  5
1EF
330
2
100
AcDbEntity
  8
4
100
AcDbCircle
 10
643.1803846833955
 20
512.9291268072925
 30
0.0
 40
1.5
100
AcDbArc
 50
90.0
 51
180.0
  0
LINE
  5
1F0
330
2
100
AcDbEntity
  8
4
100
AcDbLine
 10
641.6803846833955
 20
512.9291268072922
 30
0.0
 11
641.6803846833964
 21
508.9291268072924
 31
0.0
  0
ARC
  5
1F1
330
2
100
AcDbEntity
  8
4
100
AcDbCircle
 10
619.6803846828966
 20
509.4291268072928
 30
0.0
 40
5.0
100
AcDbArc
 50
0.0
 51
90.0
  0
LINE
  5
1F2
330
2
100
AcDbEntity
  8
4
100
AcDbLine
 10
624.6803846828966
 20
509.429126807294
 30
0.0
 11
624.680384682897
 21
506.6741248046937
 31
0.0
  0
ARC
  5
1F3
330
2
100
AcDbEntity
  8
4
100
AcDbCircle
 10
668.6803846833936
 20
520.4291268072919
 30
0.0
 40
5.0
100
AcDbArc
 50
0.0
 51
89.9999999999987
  0
ARC
  5
1F4
330
2
100
AcDbEntity
  8
4
100
AcDbCircle
 10
661.1803846833968
 20
507.7832287735117
 30
0.0
 40
1.5
100
AcDbArc
 50
333.4349488251145
 51
0.0
  0
ARC
  5
1F5
330
2
100
AcDbEntity
  8
4
100
AcDbCircle
 10
661.1803846833955
 20
512.9291268072925
 30
0.0
 40
1.5
100
AcDbArc
 50
0.0
 51
90.0
  0
LINE
  5
1F6
330
2
100
AcDbEntity
  8
4
100
AcDbLine
 10
662.6803846833955
 20
512.9291268072928
 30
0.0
 11
662.6803846833968
 21
507.7832287735121
 31
0.0
  0
LINE
  5
1F7
330
2
100
AcDbEntity
  8
4
100
AcDbLine
 10
677.6803846833977
 20
535.429126807292
 30
0.0
 11
677.6803846833977
 21
540.429126807292
 31
0.0
  0
LINE
  5
1F8
330
2
100
AcDbEntity
  8
4
100
AcDbLine
 10
681.6803846833977
 20
544.429126807292
 30
0.0
 11
681.6803846833977
 21
554.429126807292
 31
0.0
  0
LINE
  5
1F9
330
2
100
AcDbEntity
  8
4
100
AcDbLine
 10
680.6803846833977
 20
557.429126807292
 30
0.0
 11
682.6803846833977
 21
556.429126807292
 31
0.0
  0
LINE
  5
1FA
330
2
100
AcDbEntity
  8
4
100
AcDbLine
 10
682.6803846833977
 20
556.429126807292
 30
0.0
 11
682.6803846833977
 21
554.429126807292
 31
0.0
  0
ARC
  5
1FB
330
2
100
AcDbEntity
  8
4
100
AcDbCircle
 10
661.6803846833977
 20
540.429126807292
 30
0.0
 40
4.0
100
AcDbArc
 50
0.0
 51
90.0
  0
ARC
  5
1FC
330
2
100
AcDbEntity
  8
4
100
AcDbCircle
 10
668.6803846833977
 20
535.429126807292
 30
0.0
 40
5.0
100
AcDbArc
 50
53.13010200000015
 51
126.8698979999998
  0
LINE
  5
1FD
330
2
100
AcDbEntity
  8
4
100
AcDbLine
 10
665.6803846833977
 20
535.429126807292
 30
0.0
 11
665.6803846833977
 21
540.429126807292
 31
0.0
  0
LINE
  5
1FE
330
2
100
AcDbEntity
  8
4
100
AcDbLine
 10
665.6803846833977
 20
535.429126807292
 30
0.0
 11
671.6803846833977
 21
535.429126807292
 31
0.0
  0
LINE
  5
1FF
330
2
100
AcDbEntity
  8
4
100
AcDbLine
 10
668.6803846833977
 20
540.429126807292
 30
0.0
 11
674.6803846833977
 21
540.429126807292
 31
0.0
  0
LINE
  5
200
330
2
100
AcDbEntity
  8
4
100
AcDbLine
 10
661.6803846833977
 20
544.429126807292
 30
0.0
 11
661.6803846833977
 21
554.429126807292
 31
0.0
  0
LINE
  5
201
330
2
100
AcDbEntity
  8
4
100
AcDbLine
 10
661.6803846833977
 20
544.429126807292
 30
0.0
 11
671.6803846833977
 21
544.429126807292
 31
0.0
  0
LINE
  5
202
330
2
100
AcDbEntity
  8
4
100
AcDbLine
 10
662.6803846833977
 20
557.429126807292
 30
0.0
 11
671.6803846833977
 21
557.429126807292
 31
0.0
  0
LINE
  5
203
330
2
100
AcDbEntity
  8
4
100
AcDbLine
 10
660.6803846833977
 20
556.429126807292
 30
0.0
 11
671.6803846833977
 21
556.429126807292
 31
0.0
  0
LINE
  5
204
330
2
100
AcDbEntity
  8
4
100
AcDbLine
 10
662.6803846833977
 20
557.429126807292
 30
0.0
 11
660.6803846833977
 21
556.429126807292
 31
0.0
  0
LINE
  5
205
330
2
100
AcDbEntity
  8
4
100
AcDbLine
 10
671.6803846833977
 20
554.429126807292
 30
0.0
 11
660.6803846833977
 21
554.429126807292
 31
0.0
  0
LINE
  5
206
330
2
100
AcDbEntity
  8
4
100
AcDbLine
 10
660.6803846833977
 20
556.429126807292
 30
0.0
 11
660.6803846833977
 21
554.429126807292
 31
0.0
  0
LINE
  5
207
330
2
100
AcDbEntity
  8
L-CENTER
 48
8.0
100
AcDbLine
 10
671.6803846833977
 20
562.4934220533514
 30
0.0
 11
671.6803846833977
 21
525.4857900533514
 31
0.0
  0
ARC
  5
208
330
2
100
AcDbEntity
  8
4
100
AcDbCircle
 10
681.6803846833977
 20
540.429126807292
 30
0.0
 40
4.0
100
AcDbArc
 50
90.0
 51
180.0
  0
LINE
  5
209
330
2
100
AcDbEntity
  8
4
100
AcDbLine
 10
677.6803846833977
 20
535.429126807292
 30
0.0
 11
671.6803846833977
 21
535.429126807292
 31
0.0
  0
ARC
  5
20A
330
2
100
AcDbEntity
  8
4
100
AcDbCircle
 10
674.6803846833977
 20
535.429126807292
 30
0.0
 40
5.0
100
AcDbArc
 50
53.13010200000015
 51
126.8698979999998
  0
LINE
  5
20B
330
2
100
AcDbEntity
  8
4
100
AcDbLine
 10
681.6803846833977
 20
544.429126807292
 30
0.0
 11
671.6803846833977
 21
544.429126807292
 31
0.0
  0
LINE
  5
20C
330
2
100
AcDbEntity
  8
4
100
AcDbLine
 10
671.6803846833977
 20
554.429126807292
 30
0.0
 11
682.6803846833977
 21
554.429126807292
 31
0.0
  0
LINE
  5
20D
330
2
100
AcDbEntity
  8
4
100
AcDbLine
 10
680.6803846833977
 20
557.429126807292
 30
0.0
 11
671.6803846833977
 21
557.429126807292
 31
0.0
  0
LINE
  5
20E
330
2
100
AcDbEntity
  8
4
100
AcDbLine
 10
682.6803846833977
 20
556.429126807292
 30
0.0
 11
671.6803846833977
 21
556.429126807292
 31
0.0
  0
LINE
  5
264
330
2
100
AcDbEntity
  8
L-CENTER
 48
8.0
100
AcDbLine
 10
141.845248819955
 20
432.036958807292
 30
0.0
 11
141.845248819955
 21
490.8212948072921
 31
0.0
  0
TEXT
  5
266
330
2
100
AcDbEntity
  8
3
100
AcDbText
 10
831.0316868543135
 20
41.95577084395705
 30
0.0
 40
12.31020678973231
  1
LB7-03
  7
KANJI
100
AcDbText
  0
LINE
  5
26F
330
2
100
AcDbEntity
  8
L-CENTER
 48
8.0
100
AcDbLine
 10
112.4530808199549
 20
461.4291268072921
 30
0.0
 11
171.2374168199551
 21
461.4291268072921
 31
0.0
  0
LINE
  5
270
330
2
100
AcDbEntity
  8
4
100
AcDbLine
 10
146.845248819955
 20
482.9291268072921
 30
0.0
 11
136.845248819955
 21
482.9291268072921
 31
0.0
  0
LINE
  5
271
330
2
100
AcDbEntity
  8
4
100
AcDbLine
 10
136.845248819955
 20
474.9291268072921
 30
0.0
 11
146.845248819955
 21
474.9291268072921
 31
0.0
  0
ARC
  5
272
330
2
100
AcDbEntity
  8
4
100
AcDbCircle
 10
141.845248819955
 20
461.4291268072921
 30
0.0
 40
17.999996
100
AcDbArc
 50
106.1276238948288
 51
73.87237499999986
  0
LINE
  5
273
330
2
100
AcDbEntity
  8
4
100
AcDbLine
 10
136.845248819955
 20
474.9291268072921
 30
0.0
 11
136.845248819955
 21
482.9291268072921
 31
0.0
  0
LINE
  5
279
330
2
100
AcDbEntity
  8
4
100
AcDbLine
 10
146.845248819955
 20
474.9291268072921
 30
0.0
 11
146.845248819955
 21
482.9291268072921
 31
0.0
  0
LINE
  5
36B
330
2
100
AcDbEntity
  8
4
100
AcDbLine
 10
1368.254696007335
 20
339.4291268072922
 30
0.0
 11
1349.95485773152
 21
344.0040863762465
 31
0.0
  0
LINE
  5
36C
330
2
100
AcDbEntity
  8
4
100
AcDbLine
 10
1368.254696007335
 20
233.4291268072922
 30
0.0
 11
1349.954857709032
 21
228.8541672327162
 31
0.0
  0
ARC
  5
36D
330
2
100
AcDbEntity
  8
4
100
AcDbCircle
 10
1360.354940007335
 20
120.4291268072921
 30
0.0
 40
3.0
100
AcDbArc
 50
0.0
 51
90.0
  0
LINE
  5
36E
330
2
100
AcDbEntity
  8
L-CENTER
 48
8.0
100
AcDbLine
 10
1375.369348321046
 20
286.4291268072921
 30
0.0
 11
990.0151189879252
 21
286.4291268072921
 31
0.0
  0
LINE
  5
36F
330
2
100
AcDbEntity
  8
4
100
AcDbLine
 10
1113.354940007335
 20
86.42912680729205
 30
0.0
 11
1363.354940007335
 21
86.42912680729205
 31
0.0
  0
ARC
  5
37A
330
2
100
AcDbEntity
  8
4
100
AcDbCircle
 10
712.6803846833977
 20
120.4291268072921
 30
0.0
 40
3.0
100
AcDbArc
 50
0.0
 51
90.0
  0
LINE
  5
37B
330
2
100
AcDbEntity
  8
4
100
AcDbLine
 10
700.6803846833977
 20
86.42912680729205
 30
0.0
 11
700.6803846833977
 21
123.4291268072921
 31
0.0
  0
LINE
  5
37C
330
2
100
AcDbEntity
  8
4
100
AcDbLine
 10
715.6803846833977
 20
120.4291268072921
 30
0.0
 11
715.6803846833977
 21
86.42912680729205
 31
0.0
  0
LINE
  5
386
330
2
100
AcDbEntity
  8
4
100
AcDbLine
 10
709.9802846833977
 20
511.209402807292
 30
0.0
 11
709.9802846833977
 21
496.5018828072921
 31
0.0
  0
LINE
  5
387
330
2
100
AcDbEntity
  8
4
100
AcDbLine
 10
700.4802846833977
 20
513.055590807292
 30
0.0
 11
700.4802846833977
 21
494.6556908072921
 31
0.0
  0
LINE
  5
388
330
2
100
AcDbEntity
  8
4
100
AcDbLine
 10
702.9802846833977
 20
513.6556908072921
 30
0.0
 11
702.9802846833977
 21
494.055590807292
 31
0.0
  0
LINE
  5
389
330
2
100
AcDbEntity
  8
4
100
AcDbLine
 10
700.4802846833977
 20
531.429126807292
 30
0.0
 11
700.4802846833977
 21
391.4291268072921
 31
0.0
  0
ARC
  5
38A
330
2
100
AcDbEntity
  8
4
100
AcDbCircle
 10
696.0767206833975
 20
503.855642807292
 30
0.0
 40
13.90362
100
AcDbArc
 50
339.3323219999999
 51
20.66861499999984
  0
LINE
  5
38B
330
2
100
AcDbEntity
  8
4
100
AcDbLine
 10
700.4802846833977
 20
409.8026628072921
 30
0.0
 11
700.4802846833977
 21
428.202566807292
 31
0.0
  0
LINE
  5
38C
330
2
100
AcDbEntity
  8
4
100
AcDbLine
 10
702.9802846833977
 20
409.202566807292
 30
0.0
 11
702.9802846833977
 21
428.802662807292
 31
0.0
  0
ARC
  5
38D
330
2
100
AcDbEntity
  8
4
100
AcDbCircle
 10
706.1892726833976
 20
411.6488548072921
 30
0.0
 40
3.790928
100
AcDbArc
 50
319.8117440000006
 51
40.18825599999942
  0
LINE
  5
38E
330
2
100
AcDbEntity
  8
4
100
AcDbLine
 10
702.9802846833977
 20
409.8026628072921
 30
0.0
 11
700.4802846833977
 21
409.8026628072921
 31
0.0
  0
LINE
  5
38F
330
2
100
AcDbEntity
  8
4
100
AcDbLine
 10
709.0852686833978
 20
409.202566807292
 30
0.0
 11
702.9802846833977
 21
409.202566807292
 31
0.0
  0
LINE
  5
390
330
2
100
AcDbEntity
  8
4
100
AcDbLine
 10
709.9802846833977
 20
411.6488548072921
 30
0.0
 11
709.9802846833977
 21
426.356374807292
 31
0.0
  0
LINE
  5
391
330
2
100
AcDbEntity
  8
4
100
AcDbLine
 10
709.0852686833978
 20
428.802662807292
 30
0.0
 11
702.9802846833977
 21
428.802662807292
 31
0.0
  0
LINE
  5
392
330
2
100
AcDbEntity
  8
4
100
AcDbLine
 10
702.9802846833977
 20
423.910082807292
 30
0.0
 11
709.0852686833978
 21
423.910082807292
 31
0.0
  0
LINE
  5
393
330
2
100
AcDbEntity
  8
4
100
AcDbLine
 10
700.4802846833977
 20
428.202566807292
 30
0.0
 11
702.9802846833977
 21
428.202566807292
 31
0.0
  0
LINE
  5
394
330
2
100
AcDbEntity
  8
4
100
AcDbLine
 10
702.9802846833977
 20
414.0951428072921
 30
0.0
 11
709.0852686833978
 21
414.0951428072921
 31
0.0
  0
ARC
  5
395
330
2
100
AcDbEntity
  8
4
100
AcDbCircle
 10
706.1892726833976
 20
426.356374807292
 30
0.0
 40
3.791112
100
AcDbArc
 50
319.8141240000007
 51
40.18587600000109
  0
ARC
  5
396
330
2
100
AcDbEntity
  8
4
100
AcDbCircle
 10
696.0767206833975
 20
419.002614807292
 30
0.0
 40
13.90362
100
AcDbArc
 50
339.3313850000002
 51
20.66767800000014
  0
LINE
  5
397
330
2
100
AcDbEntity
  8
4
100
AcDbLine
 10
702.9802846833977
 20
498.9481708072922
 30
0.0
 11
709.0852686833978
 21
498.9481708072922
 31
0.0
  0
LINE
  5
398
330
2
100
AcDbEntity
  8
4
100
AcDbLine
 10
709.0852686833978
 20
494.055590807292
 30
0.0
 11
702.9802846833977
 21
494.055590807292
 31
0.0
  0
LINE
  5
399
330
2
100
AcDbEntity
  8
4
100
AcDbLine
 10
700.4802846833977
 20
494.6556908072921
 30
0.0
 11
702.9802846833977
 21
494.6556908072921
 31
0.0
  0
ARC
  5
39A
330
2
100
AcDbEntity
  8
4
100
AcDbCircle
 10
706.1892726833976
 20
496.5018828072921
 30
0.0
 40
3.79102
100
AcDbArc
 50
319.8141239999997
 51
40.18825600000022
  0
ARC
  5
39C
330
2
100
AcDbEntity
  8
4
100
AcDbCircle
 10
706.1892726833976
 20
511.209402807292
 30
0.0
 40
3.79102
100
AcDbArc
 50
319.814112
 51
40.18825600000022
  0
LINE
  5
39D
330
2
100
AcDbEntity
  8
4
100
AcDbLine
 10
702.9802846833977
 20
508.7631108072919
 30
0.0
 11
709.0852686833978
 21
508.7631108072919
 31
0.0
  0
LINE
  5
39E
330
2
100
AcDbEntity
  8
4
100
AcDbLine
 10
709.0852686833978
 20
513.6556908072921
 30
0.0
 11
702.9802846833977
 21
513.6556908072921
 31
0.0
  0
LINE
  5
39F
330
2
100
AcDbEntity
  8
4
100
AcDbLine
 10
702.9802846833977
 20
513.055590807292
 30
0.0
 11
700.4802846833977
 21
513.055590807292
 31
0.0
  0
LINE
  5
3AB
330
2
100
AcDbEntity
  8
4
100
AcDbLine
 10
1154.354940007335
 20
433.4291268072921
 30
0.0
 11
1124.354940007335
 21
343.4291268072919
 31
0.0
  0
LINE
  5
3AC
330
2
100
AcDbEntity
  8
4
100
AcDbLine
 10
1154.354940007335
 20
154.589126807292
 30
0.0
 11
1154.354940007335
 21
458.4291268072921
 31
0.0
  0
LINE
  5
3AD
330
2
100
AcDbEntity
  8
4
100
AcDbLine
 10
1166.354940007335
 20
130.633226807292
 30
0.0
 11
1166.354940007335
 21
460.4291268072921
 31
0.0
  0
LINE
  5
3AE
330
2
100
AcDbEntity
  8
4
100
AcDbLine
 10
1167.354940007335
 20
135.4291268072921
 30
0.0
 11
1167.354940007335
 21
461.4291268072921
 31
0.0
  0
LINE
  5
3AF
330
2
100
AcDbEntity
  8
4
100
AcDbLine
 10
1312.354940007335
 20
162.0173628072921
 30
0.0
 11
1312.354940007335
 21
458.4291268072921
 31
0.0
  0
LINE
  5
3B0
330
2
100
AcDbEntity
  8
4
100
AcDbLine
 10
1310.354940007335
 20
130.633294807292
 30
0.0
 11
1310.354940007335
 21
460.4291268072921
 31
0.0
  0
LINE
  5
3B1
330
2
100
AcDbEntity
  8
4
100
AcDbLine
 10
1309.354940007335
 20
135.4291268072921
 30
0.0
 11
1309.354940007335
 21
461.4291268072921
 31
0.0
  0
LINE
  5
3B2
330
2
100
AcDbEntity
  8
4
100
AcDbLine
 10
1324.654840007335
 20
458.4291268072921
 30
0.0
 11
1324.654840007335
 21
152.1292028072921
 31
0.0
  0
LINE
  5
3B3
330
2
100
AcDbEntity
  8
L-CENTER
 48
8.0
100
AcDbLine
 10
1238.354940007335
 20
606.8164352359881
 30
0.0
 11
1238.354940007335
 21
77.28698946505256
 31
0.0
  0
LINE
  5
3B4
330
2
100
AcDbEntity
  8
4
100
AcDbLine
 10
1154.354940007335
 20
427.1045714869555
 30
0.0
 11
1126.654778305639
 21
344.0040863818681
 31
0.0
  0
LINE
  5
3B5
330
2
100
AcDbEntity
  8
4
100
AcDbLine
 10
1325.941467006784
 20
416.0442622403637
 30
0.0
 11
1349.95485773152
 21
344.0040863762465
 31
0.0
  0
LINE
  5
3B6
330
2
100
AcDbEntity
  8
4
100
AcDbLine
 10
1328.049652102764
 20
416.0442622403637
 30
0.0
 11
1352.254696007335
 21
343.4291268072925
 31
0.0
  0
LINE
  5
3B7
330
2
100
AcDbEntity
  8
4
100
AcDbLine
 10
1116.354940007335
 20
123.4291268072921
 30
0.0
 11
1360.354940007335
 21
123.4291268072921
 31
0.0
  0
LINE
  5
3B8
330
2
100
AcDbEntity
  8
4
100
AcDbLine
 10
1150.386352007336
 20
151.334886807292
 30
0.0
 11
1124.354940007335
 21
229.4291268072917
 31
0.0
  0
LINE
  5
3B9
330
2
100
AcDbEntity
  8
4
100
AcDbLine
 10
1152.041995336519
 20
152.6925121772226
 30
0.0
 11
1126.654778283151
 21
228.8541672383377
 31
0.0
  0
LINE
  5
3BE
330
2
100
AcDbEntity
  8
4
100
AcDbLine
 10
1116.354940007335
 20
123.4291268072921
 30
0.0
 11
1166.354940007335
 21
164.4291268072921
 31
0.0
  0
ARC
  5
3BF
330
2
100
AcDbEntity
  8
4
100
AcDbCircle
 10
1116.354940007335
 20
120.4291268072921
 30
0.0
 40
3.0
100
AcDbArc
 50
90.0
 51
180.0
  0
LINE
  5
3C0
330
2
100
AcDbEntity
  8
4
100
AcDbLine
 10
1113.354940007335
 20
86.42912680729205
 30
0.0
 11
1113.354940007335
 21
120.4291268072921
 31
0.0
  0
LINE
  5
3C1
330
2
100
AcDbEntity
  8
L-CENTER
 48
8.0
100
AcDbLine
 10
1138.354940007335
 20
71.42912680729205
 30
0.0
 11
1138.354940007335
 21
138.4291268072921
 31
0.0
  0
ARC
  5
3C2
330
2
100
AcDbEntity
  8
4
100
AcDbCircle
 10
1155.354940007335
 20
135.4291268072921
 30
0.0
 40
12.0
100
AcDbArc
 50
270.0011650000001
 51
0.0
  0
LINE
  5
3C7
330
2
100
AcDbEntity
  8
4
100
AcDbLine
 10
1124.354940007335
 20
329.4291268072919
 30
0.0
 11
1124.354940007335
 21
243.4291268072921
 31
0.0
  0
LINE
  5
3C8
330
2
100
AcDbEntity
  8
4
100
AcDbLine
 10
1108.354940007335
 20
339.4291268072921
 30
0.0
 11
1108.354940007335
 21
233.4291268072921
 31
0.0
  0
LINE
  5
3C9
330
2
100
AcDbEntity
  8
4
100
AcDbLine
 10
1124.354940007335
 20
243.4291268072921
 30
0.0
 11
1154.354940007335
 21
253.4291268072921
 31
0.0
  0
LINE
  5
3CA
330
2
100
AcDbEntity
  8
4
100
AcDbLine
 10
1126.654778285997
 20
243.4291268072921
 30
0.0
 11
1154.354940007335
 21
252.6625140477381
 31
0.0
  0
LINE
  5
3CB
330
2
100
AcDbEntity
  8
4
100
AcDbLine
 10
1124.354940007335
 20
243.4291268072921
 30
0.0
 11
1126.654778285997
 21
243.4291268072921
 31
0.0
  0
LINE
  5
3CC
330
2
100
AcDbEntity
  8
4
100
AcDbLine
 10
1108.354940007335
 20
233.4291268072921
 30
0.0
 11
1126.654778283151
 21
228.8541672383377
 31
0.0
  0
LINE
  5
3CD
330
2
100
AcDbEntity
  8
4
100
AcDbLine
 10
1126.654778285997
 20
243.4291268072919
 30
0.0
 11
1126.654778283151
 21
228.8541672383377
 31
0.0
  0
LINE
  5
3CE
330
2
100
AcDbEntity
  8
4
100
AcDbLine
 10
1124.354940007335
 20
329.4291268072921
 30
0.0
 11
1154.354940007335
 21
319.4291268072921
 31
0.0
  0
LINE
  5
3CF
330
2
100
AcDbEntity
  8
4
100
AcDbLine
 10
1126.654778285997
 20
329.4291268072921
 30
0.0
 11
1154.354940007335
 21
320.1957395668461
 31
0.0
  0
LINE
  5
3D0
330
2
100
AcDbEntity
  8
4
100
AcDbLine
 10
1108.354940007335
 20
339.4291268072921
 30
0.0
 11
1126.654778305639
 21
344.004086381868
 31
0.0
  0
LINE
  5
3D1
330
2
100
AcDbEntity
  8
4
100
AcDbLine
 10
1124.354940007335
 20
329.4291268072921
 30
0.0
 11
1126.654778302793
 21
329.4291268072919
 31
0.0
  0
LINE
  5
3D2
330
2
100
AcDbEntity
  8
4
100
AcDbLine
 10
1126.654778305639
 20
344.004086381868
 30
0.0
 11
1126.654778302793
 21
329.4291268072918
 31
0.0
  0
LINE
  5
3D3
330
2
100
AcDbEntity
  8
4
100
AcDbLine
 10
1325.941465756199
 20
156.8139913742204
 30
0.0
 11
1349.954857709031
 21
228.8541672327161
 31
0.0
  0
LINE
  5
3D4
330
2
100
AcDbEntity
  8
4
100
AcDbLine
 10
1328.049650862978
 20
156.8139913742204
 30
0.0
 11
1352.254696007336
 21
229.4291268072923
 31
0.0
  0
LINE
  5
3D5
330
2
100
AcDbEntity
  8
4
100
AcDbLine
 10
1360.354940007335
 20
123.4291268072921
 30
0.0
 11
1310.354940007335
 21
163.6252068072921
 31
0.0
  0
ARC
  5
3D6
330
2
100
AcDbEntity
  8
4
100
AcDbCircle
 10
1321.354940007335
 20
135.4291268072921
 30
0.0
 40
12.0
100
AcDbArc
 50
180.0
 51
270.0011650000001
  0
LINE
  5
3D7
330
2
100
AcDbEntity
  8
L-CENTER
 48
8.0
100
AcDbLine
 10
1338.354940007335
 20
138.4291268072921
 30
0.0
 11
1338.354940007335
 21
71.42912680729205
 31
0.0
  0
LINE
  5
3D8
330
2
100
AcDbEntity
  8
L-CENTER
 48
8.0
100
AcDbLine
 10
1301.742493286244
 20
146.999036797997
 30
0.0
 11
1337.022818261915
 21
146.999036797997
 31
0.0
  0
LINE
  5
3D9
330
2
100
AcDbEntity
  8
4
100
AcDbLine
 10
1338.254696007335
 20
181.4291268072921
 30
0.0
 11
1336.254696007335
 21
181.4291268072921
 31
0.0
  0
ARC
  5
3DA
330
2
100
AcDbEntity
  8
4
100
AcDbCircle
 10
1320.375674709876
 20
146.999036797997
 30
0.0
 40
13.77916529745958
100
AcDbArc
 50
350.1996414585433
 51
20.8640643639199
  0
LINE
  5
3DB
330
2
100
AcDbEntity
  8
4
100
AcDbLine
 10
1334.154840007335
 20
154.3602527301643
 30
0.0
 11
1334.154840007335
 21
144.4919531194521
 31
0.0
  0
ARC
  5
3DC
330
2
100
AcDbEntity
  8
4
100
AcDbCircle
 10
1330.371226078276
 20
154.3602527301643
 30
0.0
 40
3.783613929059507
100
AcDbArc
 50
319.5701031551734
 51
40.42989684482659
  0
LINE
  5
3DD
330
2
100
AcDbEntity
  8
4
100
AcDbLine
 10
1327.154840007335
 20
150.1194043194521
 30
0.0
 11
1327.154840007335
 21
156.8139913742204
 31
0.0
  0
LINE
  5
3DE
330
2
100
AcDbEntity
  8
4
100
AcDbLine
 10
1324.654840007335
 20
152.1292083194521
 30
0.0
 11
1324.654840007335
 21
156.8139913742204
 31
0.0
  0
LINE
  5
3DF
330
2
100
AcDbEntity
  8
4
100
AcDbLine
 10
1333.251313061483
 20
151.9065140861087
 30
0.0
 11
1327.154840007335
 21
151.9065140861087
 31
0.0
  0
LINE
  5
3E0
330
2
100
AcDbEntity
  8
4
100
AcDbLine
 10
1324.654840007335
 20
156.8139913742204
 30
0.0
 11
1333.251313061483
 21
156.8139913742204
 31
0.0
  0
LINE
  5
3E1
330
2
100
AcDbEntity
  8
4
100
AcDbLine
 10
1338.254696007335
 20
141.4291268072921
 30
0.0
 11
1338.254696007335
 21
181.4291268072921
 31
0.0
  0
LINE
  5
3E2
330
2
100
AcDbEntity
  8
4
100
AcDbLine
 10
1324.654840007335
 20
296.244081383516
 30
0.0
 11
1324.654840007335
 21
276.6141722310686
 31
0.0
  0
LINE
  5
3E3
330
2
100
AcDbEntity
  8
4
100
AcDbLine
 10
1327.154840007335
 20
296.244081383516
 30
0.0
 11
1327.154840007335
 21
276.6141722310686
 31
0.0
  0
LINE
  5
3E4
330
2
100
AcDbEntity
  8
4
100
AcDbLine
 10
1334.154840007335
 20
279.0679108751247
 30
0.0
 11
1334.154840007335
 21
293.7903427394599
 31
0.0
  0
ARC
  5
3E5
330
2
100
AcDbEntity
  8
4
100
AcDbCircle
 10
1320.375674709876
 20
286.4291268072921
 30
0.0
 40
13.77916529745958
100
AcDbArc
 50
339.1359356360799
 51
20.86406436392003
  0
LINE
  5
3E6
330
2
100
AcDbEntity
  8
4
100
AcDbLine
 10
1352.254696007335
 20
243.4291268072923
 30
0.0
 11
1352.254696007335
 21
329.4291268072922
 31
0.0
  0
LINE
  5
3E7
330
2
100
AcDbEntity
  8
4
100
AcDbLine
 10
1352.254696007335
 20
243.4291268072922
 30
0.0
 11
1349.954857711878
 21
243.4291268072923
 31
0.0
  0
ARC
  5
3E8
330
2
100
AcDbEntity
  8
4
100
AcDbCircle
 10
1330.371226078276
 20
279.0679108751247
 30
0.0
 40
3.783613929059507
100
AcDbArc
 50
319.5701031551734
 51
40.42989684482659
  0
LINE
  5
3E9
330
2
100
AcDbEntity
  8
4
100
AcDbLine
 10
1324.654840007335
 20
276.6141722310686
 30
0.0
 11
1333.251313061483
 21
276.6141722310686
 31
0.0
  0
LINE
  5
3EA
330
2
100
AcDbEntity
  8
4
100
AcDbLine
 10
1333.251313061483
 20
281.5216495191803
 30
0.0
 11
1327.154840007335
 21
281.5216495191803
 31
0.0
  0
LINE
  5
3EB
330
2
100
AcDbEntity
  8
4
100
AcDbLine
 10
1349.954857728673
 20
243.4291268072919
 30
0.0
 11
1324.654840007335
 21
252.5958477211033
 31
0.0
  0
LINE
  5
3EC
330
2
100
AcDbEntity
  8
4
100
AcDbLine
 10
1352.254696007335
 20
243.4291268072919
 30
0.0
 11
1324.654840007335
 21
253.4291268072921
 31
0.0
  0
LINE
  5
3ED
330
2
100
AcDbEntity
  8
4
100
AcDbLine
 10
1349.954857709031
 20
228.8541672327162
 30
0.0
 11
1349.954857711878
 21
243.4291268072924
 31
0.0
  0
LINE
  5
3EE
330
2
100
AcDbEntity
  8
4
100
AcDbLine
 10
1352.254696007335
 20
329.4291268072922
 30
0.0
 11
1349.954857728673
 21
329.4291268072922
 31
0.0
  0
LINE
  5
3EF
330
2
100
AcDbEntity
  8
4
100
AcDbLine
 10
1349.954857728673
 20
329.4291268072923
 30
0.0
 11
1349.95485773152
 21
344.0040863762465
 31
0.0
  0
LINE
  5
3F0
330
2
100
AcDbEntity
  8
4
100
AcDbLine
 10
1352.254696007335
 20
329.4291268072922
 30
0.0
 11
1324.654840007335
 21
319.4291268072921
 31
0.0
  0
LINE
  5
3F1
330
2
100
AcDbEntity
  8
4
100
AcDbLine
 10
1349.954857728673
 20
329.4291268072922
 30
0.0
 11
1324.654840007335
 21
320.2624058934808
 31
0.0
  0
LINE
  5
3F2
330
2
100
AcDbEntity
  8
4
100
AcDbLine
 10
1333.251313061483
 20
291.3366040954043
 30
0.0
 11
1327.154840007335
 21
291.3366040954043
 31
0.0
  0
LINE
  5
3F3
330
2
100
AcDbEntity
  8
4
100
AcDbLine
 10
1333.251313061483
 20
296.244081383516
 30
0.0
 11
1324.654840007335
 21
296.244081383516
 31
0.0
  0
ARC
  5
3F4
330
2
100
AcDbEntity
  8
4
100
AcDbCircle
 10
1330.371226078276
 20
293.7903427394599
 30
0.0
 40
3.783613929059507
100
AcDbArc
 50
319.5701031551734
 51
40.42989684482659
  0
ARC
  5
3F7
330
2
100
AcDbEntity
  8
4
100
AcDbCircle
 10
1238.354940007335
 20
135.4291268072921
 30
0.0
 40
400.000032
100
AcDbArc
 50
81.15580100000001
 51
98.84427300000002
  0
CIRCLE
  5
3F8
330
2
100
AcDbEntity
  8
4
100
AcDbCircle
 10
1238.354940007335
 20
461.4291268072921
 30
0.0
 40
70.0
  0
LINE
  5
3F9
330
2
100
AcDbEntity
  8
L-CENTER
 48
8.0
100
AcDbLine
 10
1317.394552325684
 20
461.4291268072921
 30
0.0
 11
1159.315327688986
 21
461.4291268072921
 31
0.0
  0
LINE
  5
3FA
330
2
100
AcDbEntity
  8
4
100
AcDbLine
 10
1167.534298247509
 20
523.7870143177332
 30
0.0
 11
1163.040428549461
 21
478.0070499759278
 31
0.0
  0
ARC
  5
3FB
330
2
100
AcDbEntity
  8
4
100
AcDbCircle
 10
1567.354940007335
 20
461.4291268072921
 30
0.0
 40
400.000064
100
AcDbArc
 50
170.631452
 51
180.0003849998515
  0
ARC
  5
3FF
330
2
100
AcDbEntity
  8
4
100
AcDbCircle
 10
1165.030861781714
 20
477.8116643368822
 30
0.0
 40
2.0
100
AcDbArc
 50
174.3936718254994
 51
264.3936718254996
  0
LINE
  5
400
330
2
100
AcDbEntity
  8
4
100
AcDbLine
 10
1167.604183008142
 20
475.5494482829433
 30
0.0
 11
1164.835476142669
 21
475.8212311046299
 31
0.0
  0
LINE
  5
401
330
2
100
AcDbEntity
  8
4
100
AcDbLine
 10
1154.354940007335
 20
458.4291268072921
 30
0.0
 11
1166.354940007335
 21
458.4291268072921
 31
0.0
  0
LINE
  5
402
330
2
100
AcDbEntity
  8
4
100
AcDbLine
 10
1166.354940007335
 20
460.4291268072921
 30
0.0
 11
1167.354940007335
 21
460.4291268072921
 31
0.0
  0
ARC
  5
403
330
2
100
AcDbEntity
  8
4
100
AcDbCircle
 10
1169.524731479762
 20
523.5916286786877
 30
0.0
 40
2.0
100
AcDbArc
 50
84.39367182549938
 51
174.3936718254994
  0
LINE
  5
404
330
2
100
AcDbEntity
  8
4
100
AcDbLine
 10
1172.48882398428
 20
525.3102790892534
 30
0.0
 11
1169.720117118807
 21
525.5820619109401
 31
0.0
  0
ARC
  5
405
330
2
100
AcDbEntity
  8
4
100
AcDbCircle
 10
1177.624224007335
 20
525.7325948072921
 30
0.0
 40
4.999968
100
AcDbArc
 50
98.84506100000107
 51
170.6310399999997
  0
LINE
  5
40A
330
2
100
AcDbEntity
  8
4
100
AcDbLine
 10
1205.408892007335
 20
506.395922807292
 30
0.0
 11
1198.468464007336
 21
513.336110807292
 31
0.0
  0
LINE
  5
40B
330
2
100
AcDbEntity
  8
L-CENTER
 48
8.0
100
AcDbLine
 10
1207.67009426495
 20
492.1139725496782
 30
0.0
 11
1184.186972007335
 21
515.597094807292
 31
0.0
  0
CIRCLE
  5
40C
330
2
100
AcDbEntity
  8
4
100
AcDbCircle
 10
1195.928424007336
 20
503.855642807292
 30
0.0
 40
8.5
  0
LINE
  5
40D
330
2
100
AcDbEntity
  8
4
100
AcDbLine
 10
1188.988240007336
 20
510.7958268072921
 30
0.0
 11
1186.447712007335
 21
501.315114807292
 31
0.0
  0
LINE
  5
40E
330
2
100
AcDbEntity
  8
4
100
AcDbLine
 10
1271.300984007336
 20
506.395922807292
 30
0.0
 11
1278.241412007335
 21
513.336110807292
 31
0.0
  0
CIRCLE
  5
40F
330
2
100
AcDbEntity
  8
4
100
AcDbCircle
 10
1280.781452007335
 20
503.855642807292
 30
0.0
 40
8.5
  0
LINE
  5
410
330
2
100
AcDbEntity
  8
L-CENTER
 48
8.0
100
AcDbLine
 10
1269.039783749721
 20
492.1139745496779
 30
0.0
 11
1292.522906007335
 21
515.5970968072918
 31
0.0
  0
LINE
  5
411
330
2
100
AcDbEntity
  8
4
100
AcDbLine
 10
1287.721640007336
 20
510.7958268072921
 30
0.0
 11
1290.262164007336
 21
501.315114807292
 31
0.0
  0
ARC
  5
412
330
2
100
AcDbEntity
  8
4
100
AcDbCircle
 10
909.3549400073352
 20
461.4291268072921
 30
0.0
 40
400.00002
100
AcDbArc
 50
0.0
 51
9.369116999999983
  0
LINE
  5
414
330
2
100
AcDbEntity
  8
4
100
AcDbLine
 10
1271.300984007336
 20
506.395922807292
 30
0.0
 11
1273.841268007335
 21
496.915454807292
 31
0.0
  0
CIRCLE
  5
415
330
2
100
AcDbEntity
  8
4
100
AcDbCircle
 10
1280.781452007335
 20
419.002614807292
 30
0.0
 40
8.5
  0
LINE
  5
416
330
2
100
AcDbEntity
  8
L-CENTER
 48
8.0
100
AcDbLine
 10
1292.522908007335
 20
407.2611588072921
 30
0.0
 11
1269.039785749721
 21
430.7442810649064
 31
0.0
  0
LINE
  5
417
330
2
100
AcDbEntity
  8
4
100
AcDbLine
 10
1271.300984007336
 20
416.4623308072921
 30
0.0
 11
1273.841268007335
 21
425.9427988072921
 31
0.0
  0
LINE
  5
418
330
2
100
AcDbEntity
  8
4
100
AcDbLine
 10
1271.300984007336
 20
416.4623308072921
 30
0.0
 11
1278.241412007335
 21
409.5221468072921
 31
0.0
  0
LINE
  5
41A
330
2
100
AcDbEntity
  8
4
100
AcDbLine
 10
1205.408892007335
 20
416.4623308072921
 30
0.0
 11
1202.868612007335
 21
425.9427988072921
 31
0.0
  0
LINE
  5
41B
330
2
100
AcDbEntity
  8
4
100
AcDbLine
 10
1188.988240007336
 20
412.062426807292
 30
0.0
 11
1186.447712007335
 21
421.543142807292
 31
0.0
  0
LINE
  5
41C
330
2
100
AcDbEntity
  8
4
100
AcDbLine
 10
1193.388140007336
 20
428.4833268072921
 30
0.0
 11
1186.447712007335
 21
421.543142807292
 31
0.0
  0
LINE
  5
41D
330
2
100
AcDbEntity
  8
4
100
AcDbLine
 10
1198.468464007336
 20
409.5221468072921
 30
0.0
 11
1188.988240007336
 21
412.062426807292
 31
0.0
  0
LINE
  5
41E
330
2
100
AcDbEntity
  8
L-CENTER
 48
8.0
100
AcDbLine
 10
1184.186972007335
 20
407.2611588072921
 30
0.0
 11
1207.670092114441
 21
430.7442832154147
 31
0.0
  0
LINE
  5
41F
330
2
100
AcDbEntity
  8
4
100
AcDbLine
 10
1202.868612007335
 20
425.9427988072921
 30
0.0
 11
1193.388140007336
 21
428.4833268072921
 31
0.0
  0
LINE
  5
420
330
2
100
AcDbEntity
  8
4
100
AcDbLine
 10
1205.408892007335
 20
416.4623308072921
 30
0.0
 11
1198.468464007336
 21
409.5221468072921
 31
0.0
  0
CIRCLE
  5
421
330
2
100
AcDbEntity
  8
4
100
AcDbCircle
 10
1195.928424007336
 20
419.002614807292
 30
0.0
 40
8.5
  0
LINE
  5
422
330
2
100
AcDbEntity
  8
4
100
AcDbLine
 10
1205.408892007335
 20
506.395922807292
 30
0.0
 11
1202.868612007335
 21
496.915454807292
 31
0.0
  0
LINE
  5
423
330
2
100
AcDbEntity
  8
4
100
AcDbLine
 10
1193.388140007336
 20
494.374926807292
 30
0.0
 11
1186.447712007335
 21
501.315114807292
 31
0.0
  0
LINE
  5
424
330
2
100
AcDbEntity
  8
4
100
AcDbLine
 10
1202.868612007335
 20
496.915454807292
 30
0.0
 11
1193.388140007336
 21
494.374926807292
 31
0.0
  0
LINE
  5
425
330
2
100
AcDbEntity
  8
4
100
AcDbLine
 10
1334.154840007335
 20
418.4980008844198
 30
0.0
 11
1334.154840007335
 21
433.220432748755
 31
0.0
  0
ARC
  5
426
330
2
100
AcDbEntity
  8
4
100
AcDbCircle
 10
1330.371226078276
 20
433.220432748755
 30
0.0
 40
3.783613929059507
100
AcDbArc
 50
319.5701031551734
 51
40.42989684482659
  0
LINE
  5
427
330
2
100
AcDbEntity
  8
4
100
AcDbLine
 10
1324.654840007335
 20
435.6741713928111
 30
0.0
 11
1324.654840007335
 21
416.0442622403637
 31
0.0
  0
LINE
  5
428
330
2
100
AcDbEntity
  8
4
100
AcDbLine
 10
1327.154840007335
 20
435.6741713928111
 30
0.0
 11
1327.154840007335
 21
416.0442622403637
 31
0.0
  0
LINE
  5
429
330
2
100
AcDbEntity
  8
L-CENTER
 48
8.0
100
AcDbLine
 10
1301.742493286244
 20
425.8592168165871
 30
0.0
 11
1337.022818261915
 21
425.8592168165871
 31
0.0
  0
LINE
  5
42A
330
2
100
AcDbEntity
  8
4
100
AcDbLine
 10
1273.841268007335
 20
425.9427988072921
 30
0.0
 11
1283.321736007335
 21
428.4833268072921
 31
0.0
  0
LINE
  5
42B
330
2
100
AcDbEntity
  8
4
100
AcDbLine
 10
1283.321736007335
 20
428.4833268072921
 30
0.0
 11
1290.262164007336
 21
421.543142807292
 31
0.0
  0
LINE
  5
42C
330
2
100
AcDbEntity
  8
4
100
AcDbLine
 10
1287.721640007336
 20
412.062426807292
 30
0.0
 11
1290.262164007336
 21
421.543142807292
 31
0.0
  0
LINE
  5
42D
330
2
100
AcDbEntity
  8
4
100
AcDbLine
 10
1278.241412007335
 20
409.5221468072921
 30
0.0
 11
1287.721640007336
 21
412.062426807292
 31
0.0
  0
LINE
  5
42E
330
2
100
AcDbEntity
  8
4
100
AcDbLine
 10
1333.251313061483
 20
430.7666941046994
 30
0.0
 11
1327.154840007335
 21
430.7666941046994
 31
0.0
  0
LINE
  5
42F
330
2
100
AcDbEntity
  8
4
100
AcDbLine
 10
1324.654840007335
 20
416.0442622403637
 30
0.0
 11
1333.251313061483
 21
416.0442622403637
 31
0.0
  0
LINE
  5
430
330
2
100
AcDbEntity
  8
4
100
AcDbLine
 10
1333.251313061483
 20
420.9517395284754
 30
0.0
 11
1327.154840007335
 21
420.9517395284754
 31
0.0
  0
ARC
  5
431
330
2
100
AcDbEntity
  8
4
100
AcDbCircle
 10
1320.375674709876
 20
425.8592168165871
 30
0.0
 40
13.77916529745958
100
AcDbArc
 50
339.1359356360799
 51
20.86406436392003
  0
ARC
  5
432
330
2
100
AcDbEntity
  8
4
100
AcDbCircle
 10
1330.371226078276
 20
418.4980008844198
 30
0.0
 40
3.783613929059507
100
AcDbArc
 50
319.5701031551734
 51
40.42989684482659
  0
LINE
  5
433
330
2
100
AcDbEntity
  8
4
100
AcDbLine
 10
1338.254696007335
 20
431.4291268072921
 30
0.0
 11
1334.154840007335
 21
431.4291268072921
 31
0.0
  0
LINE
  5
434
330
2
100
AcDbEntity
  8
4
100
AcDbLine
 10
1338.254696007335
 20
391.4291268072921
 30
0.0
 11
1336.254696826858
 21
391.4291268072919
 31
0.0
  0
LINE
  5
435
330
2
100
AcDbEntity
  8
4
100
AcDbLine
 10
1338.254696007335
 20
431.4291268072921
 30
0.0
 11
1338.254696007335
 21
391.4291268072921
 31
0.0
  0
LINE
  5
436
330
2
100
AcDbEntity
  8
4
100
AcDbLine
 10
1324.654840007335
 20
458.4291268072921
 30
0.0
 11
1310.354940007335
 21
458.4291268072921
 31
0.0
  0
LINE
  5
437
330
2
100
AcDbEntity
  8
4
100
AcDbLine
 10
1273.841268007335
 20
496.915454807292
 30
0.0
 11
1283.321736007335
 21
494.374926807292
 31
0.0
  0
LINE
  5
438
330
2
100
AcDbEntity
  8
4
100
AcDbLine
 10
1283.321736007335
 20
494.374926807292
 30
0.0
 11
1290.262164007336
 21
501.315114807292
 31
0.0
  0
LINE
  5
439
330
2
100
AcDbEntity
  8
4
100
AcDbLine
 10
1309.354940007335
 20
460.4291268072921
 30
0.0
 11
1310.354940007335
 21
460.4291268072921
 31
0.0
  0
LINE
  5
43A
330
2
100
AcDbEntity
  8
4
100
AcDbLine
 10
1333.251313061483
 20
435.6741713928111
 30
0.0
 11
1324.654840007335
 21
435.6741713928111
 31
0.0
  0
LINE
  5
43B
330
2
100
AcDbEntity
  8
4
100
AcDbLine
 10
1243.354940007335
 20
557.429126807292
 30
0.0
 11
1243.354940007335
 21
597.429126807292
 31
0.0
  0
LINE
  5
43C
330
2
100
AcDbEntity
  8
4
100
AcDbLine
 10
1233.354940007335
 20
557.429126807292
 30
0.0
 11
1233.354940007335
 21
597.429126807292
 31
0.0
  0
LINE
  5
43D
330
2
100
AcDbEntity
  8
4
100
AcDbLine
 10
1225.854940007335
 20
560.4291268072922
 30
0.0
 11
1233.354940007335
 21
560.429126807292
 31
0.0
  0
LINE
  5
43E
330
2
100
AcDbEntity
  8
4
100
AcDbLine
 10
1233.354940007335
 20
561.6288388072916
 30
0.0
 11
1225.854940007335
 21
560.429126807292
 31
0.0
  0
LINE
  5
43F
330
2
100
AcDbEntity
  8
4
100
AcDbLine
 10
1229.354940007335
 20
557.429126807292
 30
0.0
 11
1227.354940007335
 21
556.429126807292
 31
0.0
  0
LINE
  5
440
330
2
100
AcDbEntity
  8
4
100
AcDbLine
 10
1218.354940007335
 20
551.429126807292
 30
0.0
 11
1228.354940007335
 21
551.429126807292
 31
0.0
  0
LINE
  5
441
330
2
100
AcDbEntity
  8
4
100
AcDbLine
 10
1238.354940007335
 20
554.429126807292
 30
0.0
 11
1227.354940007335
 21
554.429126807292
 31
0.0
  0
LINE
  5
442
330
2
100
AcDbEntity
  8
4
100
AcDbLine
 10
1227.354940007335
 20
556.429126807292
 30
0.0
 11
1238.354940007335
 21
556.429126807292
 31
0.0
  0
LINE
  5
443
330
2
100
AcDbEntity
  8
4
100
AcDbLine
 10
1198.468464007336
 20
513.336110807292
 30
0.0
 11
1188.988240007336
 21
510.7958268072921
 31
0.0
  0
LINE
  5
444
330
2
100
AcDbEntity
  8
4
100
AcDbLine
 10
1225.854940007335
 20
551.429126807292
 30
0.0
 11
1225.854940007335
 21
560.429126807292
 31
0.0
  0
LINE
  5
445
330
2
100
AcDbEntity
  8
4
100
AcDbLine
 10
1227.354940007335
 20
556.429126807292
 30
0.0
 11
1227.354940007335
 21
554.429126807292
 31
0.0
  0
LINE
  5
446
330
2
100
AcDbEntity
  8
4
100
AcDbLine
 10
1215.354940007335
 20
540.429126807292
 30
0.0
 11
1215.354940007335
 21
544.429126807292
 31
0.0
  0
LINE
  5
447
330
2
100
AcDbEntity
  8
4
100
AcDbLine
 10
1216.354940007335
 20
538.429126807292
 30
0.0
 11
1216.354940007335
 21
540.429126807292
 31
0.0
  0
LINE
  5
448
330
2
100
AcDbEntity
  8
4
100
AcDbLine
 10
1218.354940007335
 20
534.928882807292
 30
0.0
 11
1218.354940007335
 21
551.429126807292
 31
0.0
  0
LINE
  5
449
330
2
100
AcDbEntity
  8
4
100
AcDbLine
 10
1213.354940007335
 20
534.6471468072921
 30
0.0
 11
1213.354940007335
 21
538.429126807292
 31
0.0
  0
LINE
  5
44A
330
2
100
AcDbEntity
  8
4
100
AcDbLine
 10
1216.354940007335
 20
538.429126807292
 30
0.0
 11
1218.354940007335
 21
538.4291268072922
 31
0.0
  0
LINE
  5
44B
330
2
100
AcDbEntity
  8
4
100
AcDbLine
 10
1213.354940007335
 20
538.429126807292
 30
0.0
 11
1218.354940007335
 21
538.4291268072919
 31
0.0
  0
LINE
  5
44C
330
2
100
AcDbEntity
  8
4
100
AcDbLine
 10
1215.354940007335
 20
540.429126807292
 30
0.0
 11
1218.354940007335
 21
540.4291268072919
 31
0.0
  0
LINE
  5
44D
330
2
100
AcDbEntity
  8
4
100
AcDbLine
 10
1215.354940007335
 20
544.429126807292
 30
0.0
 11
1218.354940007335
 21
544.4291268072919
 31
0.0
  0
LINE
  5
44E
330
2
100
AcDbEntity
  8
4
100
AcDbLine
 10
1243.354940007335
 20
560.429126807292
 30
0.0
 11
1250.854940007335
 21
560.429126807292
 31
0.0
  0
LINE
  5
44F
330
2
100
AcDbEntity
  8
4
100
AcDbLine
 10
1261.354940007335
 20
540.429126807292
 30
0.0
 11
1261.354940007335
 21
544.429126807292
 31
0.0
  0
LINE
  5
450
330
2
100
AcDbEntity
  8
4
100
AcDbLine
 10
1260.354940007335
 20
540.429126807292
 30
0.0
 11
1260.354940007335
 21
538.429126807292
 31
0.0
  0
LINE
  5
451
330
2
100
AcDbEntity
  8
4
100
AcDbLine
 10
1263.354940007335
 20
534.6471468072921
 30
0.0
 11
1263.354940007335
 21
538.429126807292
 31
0.0
  0
LINE
  5
452
330
2
100
AcDbEntity
  8
4
100
AcDbLine
 10
1258.354940007335
 20
534.928882807292
 30
0.0
 11
1258.354940007335
 21
551.4291268072919
 31
0.0
  0
LINE
  5
453
330
2
100
AcDbEntity
  8
4
100
AcDbLine
 10
1250.854940007335
 20
551.429126807292
 30
0.0
 11
1250.854940007335
 21
560.429126807292
 31
0.0
  0
ARC
  5
454
330
2
100
AcDbEntity
  8
4
100
AcDbCircle
 10
1248.354940007335
 20
540.429126807292
 30
0.0
 40
4.0
100
AcDbArc
 50
90.0
 51
180.0
  0
LINE
  5
455
330
2
100
AcDbEntity
  8
4
100
AcDbLine
 10
1244.854940007335
 20
535.429126807292
 30
0.0
 11
1238.354940007335
 21
535.429126807292
 31
0.0
  0
LINE
  5
456
330
2
100
AcDbEntity
  8
4
100
AcDbLine
 10
1243.229940007335
 20
540.429126807292
 30
0.0
 11
1238.354940007335
 21
540.429126807292
 31
0.0
  0
LINE
  5
457
330
2
100
AcDbEntity
  8
4
100
AcDbLine
 10
1244.354940007335
 20
540.429126807292
 30
0.0
 11
1244.354940007335
 21
540.1254148072921
 31
0.0
  0
LINE
  5
458
330
2
100
AcDbEntity
  8
4
100
AcDbLine
 10
1241.604940007335
 20
535.429126807292
 30
0.0
 11
1241.604940007335
 21
539.728930807292
 31
0.0
  0
LINE
  5
459
330
2
100
AcDbEntity
  8
4
100
AcDbLine
 10
1244.854940007335
 20
535.429126807292
 30
0.0
 11
1244.854940007335
 21
539.728930807292
 31
0.0
  0
ARC
  5
45A
330
2
100
AcDbEntity
  8
4
100
AcDbCircle
 10
1243.229940007335
 20
538.193286807292
 30
0.0
 40
2.235808
100
AcDbArc
 50
43.38061500000116
 51
136.6193849999988
  0
LINE
  5
45B
330
2
100
AcDbEntity
  8
4
100
AcDbLine
 10
1248.354940007335
 20
551.429126807292
 30
0.0
 11
1258.354940007335
 21
551.4291268072919
 31
0.0
  0
LINE
  5
45C
330
2
100
AcDbEntity
  8
4
100
AcDbLine
 10
1248.354940007335
 20
544.429126807292
 30
0.0
 11
1248.354940007335
 21
554.429126807292
 31
0.0
  0
LINE
  5
45D
330
2
100
AcDbEntity
  8
4
100
AcDbLine
 10
1243.354940007335
 20
561.6288388072915
 30
0.0
 11
1250.854940007335
 21
560.429126807292
 31
0.0
  0
LINE
  5
45E
330
2
100
AcDbEntity
  8
4
100
AcDbLine
 10
1247.354940007335
 20
557.429126807292
 30
0.0
 11
1249.354940007335
 21
556.429126807292
 31
0.0
  0
LINE
  5
45F
330
2
100
AcDbEntity
  8
4
100
AcDbLine
 10
1249.354940007335
 20
556.429126807292
 30
0.0
 11
1249.354940007335
 21
554.429126807292
 31
0.0
  0
LINE
  5
460
330
2
100
AcDbEntity
  8
4
100
AcDbLine
 10
1248.354940007335
 20
544.429126807292
 30
0.0
 11
1238.354940007335
 21
544.429126807292
 31
0.0
  0
LINE
  5
461
330
2
100
AcDbEntity
  8
4
100
AcDbLine
 10
1249.354940007335
 20
556.429126807292
 30
0.0
 11
1238.354940007335
 21
556.429126807292
 31
0.0
  0
LINE
  5
462
330
2
100
AcDbEntity
  8
4
100
AcDbLine
 10
1238.354940007335
 20
554.429126807292
 30
0.0
 11
1249.354940007335
 21
554.429126807292
 31
0.0
  0
LINE
  5
463
330
2
100
AcDbEntity
  8
4
100
AcDbLine
 10
1258.354940007335
 20
540.429126807292
 30
0.0
 11
1261.354940007335
 21
540.429126807292
 31
0.0
  0
LINE
  5
464
330
2
100
AcDbEntity
  8
4
100
AcDbLine
 10
1258.354940007335
 20
538.4291268072922
 30
0.0
 11
1260.354940007335
 21
538.429126807292
 31
0.0
  0
LINE
  5
465
330
2
100
AcDbEntity
  8
4
100
AcDbLine
 10
1258.354940007335
 20
538.4291268072922
 30
0.0
 11
1260.354940007335
 21
538.429126807292
 31
0.0
  0
LINE
  5
466
330
2
100
AcDbEntity
  8
4
100
AcDbLine
 10
1258.354940007335
 20
538.4291268072919
 30
0.0
 11
1263.354940007335
 21
538.429126807292
 31
0.0
  0
LINE
  5
467
330
2
100
AcDbEntity
  8
4
100
AcDbLine
 10
1258.354940007335
 20
544.429126807292
 30
0.0
 11
1261.354940007335
 21
544.429126807292
 31
0.0
  0
ARC
  5
468
330
2
100
AcDbEntity
  8
4
100
AcDbCircle
 10
1228.354940007335
 20
540.429126807292
 30
0.0
 40
4.0
100
AcDbArc
 50
0.0
 51
90.0
  0
ARC
  5
469
330
2
100
AcDbEntity
  8
4
100
AcDbCircle
 10
1233.479940007335
 20
538.193286807292
 30
0.0
 40
2.235808
100
AcDbArc
 50
43.38061500000116
 51
136.6193849999988
  0
LINE
  5
46A
330
2
100
AcDbEntity
  8
4
100
AcDbLine
 10
1231.854940007335
 20
535.429126807292
 30
0.0
 11
1231.854940007335
 21
539.728930807292
 31
0.0
  0
LINE
  5
46B
330
2
100
AcDbEntity
  8
4
100
AcDbLine
 10
1235.104940007335
 20
535.429126807292
 30
0.0
 11
1235.104940007335
 21
539.728930807292
 31
0.0
  0
LINE
  5
46C
330
2
100
AcDbEntity
  8
4
100
AcDbLine
 10
1232.354940007335
 20
540.429126807292
 30
0.0
 11
1232.354940007335
 21
540.1254148072921
 31
0.0
  0
LINE
  5
46D
330
2
100
AcDbEntity
  8
4
100
AcDbLine
 10
1228.354940007335
 20
544.429126807292
 30
0.0
 11
1228.354940007335
 21
554.429126807292
 31
0.0
  0
ARC
  5
46E
330
2
100
AcDbEntity
  8
4
100
AcDbCircle
 10
1238.354940007335
 20
532.5375268072921
 30
0.0
 40
7.891472
100
AcDbArc
 50
65.6797129999998
 51
114.3202870000002
  0
LINE
  5
46F
330
2
100
AcDbEntity
  8
4
100
AcDbLine
 10
1233.479940007335
 20
540.429126807292
 30
0.0
 11
1238.354940007335
 21
540.429126807292
 31
0.0
  0
LINE
  5
470
330
2
100
AcDbEntity
  8
4
100
AcDbLine
 10
1231.854940007335
 20
535.429126807292
 30
0.0
 11
1238.354940007335
 21
535.429126807292
 31
0.0
  0
LINE
  5
471
330
2
100
AcDbEntity
  8
4
100
AcDbLine
 10
1228.354940007335
 20
544.429126807292
 30
0.0
 11
1238.354940007335
 21
544.429126807292
 31
0.0
  0
LINE
  5
472
330
2
100
AcDbEntity
  8
L-CENTER
 48
4.0
100
AcDbLine
 10
1246.181112007335
 20
577.429126807292
 30
0.0
 11
1229.198444007336
 21
577.429126807292
 31
0.0
  0
LINE
  5
473
330
2
100
AcDbEntity
  8
4
100
AcDbLine
 10
1247.354940007335
 20
557.429126807292
 30
0.0
 11
1229.354940007335
 21
557.429126807292
 31
0.0
  0
ARC
  5
478
330
2
100
AcDbEntity
  8
4
100
AcDbCircle
 10
1238.354940007335
 20
597.429126807292
 30
0.0
 40
5.0
100
AcDbArc
 50
0.0
 51
180.0
  0
LINE
  5
47B
330
2
100
AcDbEntity
  8
4
100
AcDbLine
 10
1278.241412007335
 20
513.336110807292
 30
0.0
 11
1287.721640007336
 21
510.7958268072921
 31
0.0
  0
ARC
  5
47C
330
2
100
AcDbEntity
  8
4
100
AcDbCircle
 10
1299.085652007336
 20
525.7325948072921
 30
0.0
 40
4.999968
100
AcDbArc
 50
9.36895799999972
 51
81.15492800000129
  0
LINE
  5
543
330
2
100
AcDbEntity
  8
4
100
AcDbLine
 10
1363.354940007335
 20
86.42912680729205
 30
0.0
 11
1363.354940007335
 21
120.4291268072921
 31
0.0
  0
LINE
  5
54A
330
2
100
AcDbEntity
  8
4
100
AcDbLine
 10
1369.254696007335
 20
328.9291268072921
 30
0.0
 11
1369.254696007335
 21
243.9291268072921
 31
0.0
  0
LINE
  5
54B
330
2
100
AcDbEntity
  8
4
100
AcDbLine
 10
1368.254696007335
 20
339.4291268072921
 30
0.0
 11
1368.254696007335
 21
233.4291268072921
 31
0.0
  0
LINE
  5
54C
330
2
100
AcDbEntity
  8
4
100
AcDbLine
 10
1369.254696007335
 20
243.9291268072921
 30
0.0
 11
1368.254696007335
 21
243.9291268072921
 31
0.0
  0
LINE
  5
54F
330
2
100
AcDbEntity
  8
4
100
AcDbLine
 10
1369.254696007335
 20
328.9291268072921
 30
0.0
 11
1368.254696007335
 21
328.9291268072921
 31
0.0
  0
ARC
  5
A10
330
2
100
AcDbEntity
  8
4
100
AcDbCircle
 10
702.4500884534714
 20
1113.957777390337
 30
0.0
 40
8.0
100
AcDbArc
 50
0.0
 51
90.0
  0
LINE
  5
A11
330
2
100
AcDbEntity
  8
L-CENTER
 48
8.0
100
AcDbLine
 10
709.5934004534715
 20
954.5312653903372
 30
0.0
 11
687.3715724534713
 21
954.5312653903372
 31
0.0
  0
LINE
  5
A12
330
2
100
AcDbEntity
  8
L-CENTER
 48
8.0
100
AcDbLine
 10
709.5935004534717
 20
1039.384293390337
 30
0.0
 11
687.3716724534715
 21
1039.384293390337
 31
0.0
  0
LINE
  5
A13
330
2
100
AcDbEntity
  8
L-CENTER
 48
8.0
100
AcDbLine
 10
719.0233283115022
 20
996.9577773903372
 30
0.0
 11
220.8856507269752
 21
996.9577773903372
 31
0.0
  0
ARC
  5
A14
330
2
100
AcDbEntity
  8
4
100
AcDbCircle
 10
702.4500884534714
 20
879.9577773903368
 30
0.0
 40
8.0
100
AcDbArc
 50
270.0
 51
0.0
  0
LINE
  5
A15
330
2
100
AcDbEntity
  8
4
100
AcDbLine
 10
678.4500884534714
 20
925.9577773903377
 30
0.0
 11
678.4500884534714
 21
1067.957777390338
 31
0.0
  0
LINE
  5
A16
330
2
100
AcDbEntity
  8
4
100
AcDbLine
 10
683.4500884534714
 20
926.9577773903372
 30
0.0
 11
683.4500884534714
 21
1066.957777390338
 31
0.0
  0
LINE
  5
A17
330
2
100
AcDbEntity
  8
4
100
AcDbLine
 10
695.2500884534716
 20
926.9577773903372
 30
0.0
 11
695.2500884534716
 21
1066.957777390338
 31
0.0
  0
LINE
  5
A18
330
2
100
AcDbEntity
  8
L-CENTER
 48
8.0
100
AcDbLine
 10
412.4500884534714
 20
965.3757843256415
 30
0.0
 11
412.4500884534714
 21
1028.625574157107
 31
0.0
  0
LINE
  5
A19
330
2
100
AcDbEntity
  8
4
100
AcDbLine
 10
337.4500884534718
 20
926.9577773903372
 30
0.0
 11
337.4500884534714
 21
1066.957777390337
 31
0.0
  0
LINE
  5
A1A
330
2
100
AcDbEntity
  8
4
100
AcDbLine
 10
342.4500884534714
 20
925.9577773903368
 30
0.0
 11
342.4500884534714
 21
1067.957777390337
 31
0.0
  0
LINE
  5
A1B
330
2
100
AcDbEntity
  8
4
100
AcDbLine
 10
324.6500884534712
 20
1027.957777390337
 30
0.0
 11
324.6500884534712
 21
965.9577773903372
 31
0.0
  0
LINE
  5
A1C
330
2
100
AcDbEntity
  8
4
100
AcDbLine
 10
325.6500884534721
 20
926.9577773903377
 30
0.0
 11
325.6500884534712
 21
1066.957777390338
 31
0.0
  0
LINE
  5
A1D
330
2
100
AcDbEntity
  8
4
100
AcDbLine
 10
310.4500884534714
 20
879.9577773903372
 30
0.0
 11
310.4500884534714
 21
1113.957777390337
 31
0.0
  0
LINE
  5
A1E
330
2
100
AcDbEntity
  8
L-CENTER
 48
8.0
100
AcDbLine
 10
510.4500884534714
 20
750.3603384193318
 30
0.0
 11
510.4500884534714
 21
1135.699488123992
 31
0.0
  0
LINE
  5
A1F
330
2
100
AcDbEntity
  8
4
100
AcDbLine
 10
342.4500884534714
 20
925.9577773903368
 30
0.0
 11
678.4500884534714
 21
925.9577773903377
 31
0.0
  0
LINE
  5
A20
330
2
100
AcDbEntity
  8
4
100
AcDbLine
 10
336.4500884534714
 20
924.9577773903368
 30
0.0
 11
561.4500884529743
 21
924.9577773903372
 31
0.0
  0
LINE
  5
A21
330
2
100
AcDbEntity
  8
4
100
AcDbLine
 10
338.4500884534714
 20
912.9577773903368
 30
0.0
 11
682.4500884534714
 21
912.9577773903377
 31
0.0
  0
LINE
  5
A22
330
2
100
AcDbEntity
  8
L-CENTER
 48
8.0
100
AcDbLine
 10
313.8232724021514
 20
896.9577773903372
 30
0.0
 11
357.0769045047914
 21
896.9577773903372
 31
0.0
  0
LINE
  5
A23
330
2
100
AcDbEntity
  8
4
100
AcDbLine
 10
318.4500884534714
 20
871.9577773903372
 30
0.0
 11
367.4500884534714
 21
871.9577773903372
 31
0.0
  0
CIRCLE
  5
A24
330
2
100
AcDbEntity
  8
4
100
AcDbCircle
 10
335.4500884534714
 20
896.9577773903372
 30
0.0
 40
10.0
  0
LINE
  5
A25
330
2
100
AcDbEntity
  8
L-CENTER
 48
8.0
100
AcDbLine
 10
335.4500884534714
 20
875.3309613390172
 30
0.0
 11
335.4500884534714
 21
918.5845934416573
 31
0.0
  0
ARC
  5
A26
330
2
100
AcDbEntity
  8
4
100
AcDbCircle
 10
318.4500884534714
 20
879.9577773903372
 30
0.0
 40
8.0
100
AcDbArc
 50
180.0
 51
270.0
  0
LINE
  5
A27
330
2
100
AcDbEntity
  8
4
100
AcDbLine
 10
336.4500884534714
 20
924.9577773903368
 30
0.0
 11
336.4500884534714
 21
926.9577773903377
 31
0.0
  0
LINE
  5
A28
330
2
100
AcDbEntity
  8
4
100
AcDbLine
 10
338.4500884534714
 20
912.9577773903368
 30
0.0
 11
338.4500884534714
 21
924.9577773903368
 31
0.0
  0
LINE
  5
A29
330
2
100
AcDbEntity
  8
4
100
AcDbLine
 10
323.1500884534717
 20
959.4387333903371
 30
0.0
 11
317.0451084534716
 21
959.4387333903371
 31
0.0
  0
LINE
  5
A2A
330
2
100
AcDbEntity
  8
4
100
AcDbLine
 10
317.0451084534716
 20
964.3313133903373
 30
0.0
 11
323.1500884534717
 21
964.3313133903373
 31
0.0
  0
LINE
  5
A2B
330
2
100
AcDbEntity
  8
4
100
AcDbLine
 10
323.1500884534717
 20
949.6237933903374
 30
0.0
 11
317.0451084534716
 21
949.6237933903374
 31
0.0
  0
LINE
  5
A2C
330
2
100
AcDbEntity
  8
4
100
AcDbLine
 10
317.0451084534716
 20
944.7312173903372
 30
0.0
 11
323.1500884534717
 21
944.7312173903372
 31
0.0
  0
LINE
  5
A2D
330
2
100
AcDbEntity
  8
4
100
AcDbLine
 10
325.6500884534717
 20
963.7312173903372
 30
0.0
 11
325.6500884534717
 21
945.3313133903373
 31
0.0
  0
LINE
  5
A2E
330
2
100
AcDbEntity
  8
4
100
AcDbLine
 10
323.1500884534717
 20
964.3313133903373
 30
0.0
 11
323.1500884534717
 21
944.7312173903372
 31
0.0
  0
LINE
  5
A2F
330
2
100
AcDbEntity
  8
4
100
AcDbLine
 10
325.6500884534717
 20
945.3313133903373
 30
0.0
 11
323.1500884534717
 21
945.3313133903373
 31
0.0
  0
LINE
  5
A30
330
2
100
AcDbEntity
  8
4
100
AcDbLine
 10
323.1500884534717
 20
963.7312173903372
 30
0.0
 11
325.6500884534717
 21
963.7312173903372
 31
0.0
  0
LINE
  5
A31
330
2
100
AcDbEntity
  8
4
100
AcDbLine
 10
325.6500884534712
 20
965.9577773903372
 30
0.0
 11
324.6500884534712
 21
965.9577773903372
 31
0.0
  0
LINE
  5
A32
330
2
100
AcDbEntity
  8
4
100
AcDbLine
 10
316.1500884534717
 20
961.8850253903372
 30
0.0
 11
316.1500884534717
 21
947.1775053903373
 31
0.0
  0
LINE
  5
A33
330
2
100
AcDbEntity
  8
L-CENTER
 48
8.0
100
AcDbLine
 10
311.4066804534718
 20
954.5312653903372
 30
0.0
 11
333.5285084534717
 21
954.5312653903372
 31
0.0
  0
ARC
  5
A34
330
2
100
AcDbEntity
  8
4
100
AcDbCircle
 10
319.9411044534718
 20
961.8850253903372
 30
0.0
 40
3.790928
100
AcDbArc
 50
139.8117439999993
 51
220.1882560000007
  0
ARC
  5
A35
330
2
100
AcDbEntity
  8
4
100
AcDbCircle
 10
330.0536524534714
 20
954.5312653903372
 30
0.0
 40
13.90362
100
AcDbArc
 50
159.3313819999991
 51
200.6676740000003
  0
ARC
  5
A36
330
2
100
AcDbEntity
  8
4
100
AcDbCircle
 10
319.9411044534718
 20
947.1775053903373
 30
0.0
 40
3.79102
100
AcDbArc
 50
139.8117440000003
 51
220.1858760000027
  0
LINE
  5
A37
330
2
100
AcDbEntity
  8
4
100
AcDbLine
 10
342.4500884534714
 20
926.9577773903368
 30
0.0
 11
325.6500884534721
 21
926.9577773903377
 31
0.0
  0
LINE
  5
A38
330
2
100
AcDbEntity
  8
4
100
AcDbLine
 10
457.4500884534714
 20
866.9577773903368
 30
0.0
 11
563.4500884534714
 21
866.9577773903377
 31
0.0
  0
LINE
  5
A39
330
2
100
AcDbEntity
  8
4
100
AcDbLine
 10
467.4500884534714
 20
882.9577773903372
 30
0.0
 11
553.4500884534714
 21
882.9577773903372
 31
0.0
  0
LINE
  5
A3A
330
2
100
AcDbEntity
  8
4
100
AcDbLine
 10
363.4500884534714
 20
912.9577773903372
 30
0.0
 11
453.4500884534714
 21
882.9577773903368
 31
0.0
  0
LINE
  5
A3B
330
2
100
AcDbEntity
  8
4
100
AcDbLine
 10
369.7746437738078
 20
912.9577773903372
 30
0.0
 11
452.8751288788953
 21
885.2576156886414
 31
0.0
  0
LINE
  5
A3C
330
2
100
AcDbEntity
  8
4
100
AcDbLine
 10
375.4500884534714
 20
879.9577773903372
 30
0.0
 11
375.4500884534714
 21
908.9577773903372
 31
0.0
  0
ARC
  5
A3D
330
2
100
AcDbEntity
  8
4
100
AcDbCircle
 10
367.4500884534714
 20
879.9577773903372
 30
0.0
 40
8.0
100
AcDbArc
 50
270.0
 51
0.0
  0
LINE
  5
A3E
330
2
100
AcDbEntity
  8
4
100
AcDbLine
 10
467.4500884534714
 20
885.2576156689995
 30
0.0
 11
476.6834756939174
 21
912.9577773903368
 31
0.0
  0
LINE
  5
A3F
330
2
100
AcDbEntity
  8
4
100
AcDbLine
 10
467.4500884534714
 20
882.9577773903372
 30
0.0
 11
477.4500884534714
 21
912.9577773903368
 31
0.0
  0
LINE
  5
A40
330
2
100
AcDbEntity
  8
4
100
AcDbLine
 10
467.4500884534714
 20
882.9577773903372
 30
0.0
 11
467.4500884534714
 21
885.2576156857951
 31
0.0
  0
LINE
  5
A41
330
2
100
AcDbEntity
  8
4
100
AcDbLine
 10
452.8751288788953
 20
885.2576156886414
 30
0.0
 11
467.4500884534714
 21
885.2576156857951
 31
0.0
  0
LINE
  5
A42
330
2
100
AcDbEntity
  8
4
100
AcDbLine
 10
457.4500884534714
 20
866.9577773903372
 30
0.0
 11
452.8751288788953
 21
885.257615688641
 31
0.0
  0
LINE
  5
A43
330
2
100
AcDbEntity
  8
4
100
AcDbLine
 10
563.4500884529743
 20
921.9577773903372
 30
0.0
 11
666.4500884534709
 21
921.9577773903377
 31
0.0
  0
LINE
  5
A44
330
2
100
AcDbEntity
  8
4
100
AcDbLine
 10
657.4500930632862
 20
912.9577773903377
 30
0.0
 11
567.4500884534718
 21
882.9577773903377
 31
0.0
  0
LINE
  5
A45
330
2
100
AcDbEntity
  8
4
100
AcDbLine
 10
651.1255374513994
 20
912.9577773903377
 30
0.0
 11
568.0250480224258
 21
885.2576156661528
 31
0.0
  0
LINE
  5
A46
330
2
100
AcDbEntity
  8
4
100
AcDbLine
 10
553.4500884534714
 20
885.2576156689995
 30
0.0
 11
544.2167012130253
 21
912.9577773903372
 31
0.0
  0
LINE
  5
A47
330
2
100
AcDbEntity
  8
4
100
AcDbLine
 10
553.4500884534714
 20
882.9577773903372
 30
0.0
 11
543.4500884534718
 21
912.9577773903368
 31
0.0
  0
LINE
  5
A48
330
2
100
AcDbEntity
  8
4
100
AcDbLine
 10
553.4500884534714
 20
882.9577773903372
 30
0.0
 11
553.4500884534714
 21
885.2576156689995
 31
0.0
  0
LINE
  5
A49
330
2
100
AcDbEntity
  8
4
100
AcDbLine
 10
553.4500884534714
 20
885.2576156689995
 30
0.0
 11
568.0250480224258
 21
885.2576156661528
 31
0.0
  0
LINE
  5
A4A
330
2
100
AcDbEntity
  8
4
100
AcDbLine
 10
563.4500884534714
 20
866.9577773903372
 30
0.0
 11
568.0250480224258
 21
885.2576156661528
 31
0.0
  0
LINE
  5
A4B
330
2
100
AcDbEntity
  8
4
100
AcDbLine
 10
561.4500884529743
 20
925.9577773903372
 30
0.0
 11
561.4500884529743
 21
923.9577773903372
 31
0.0
  0
ARC
  5
A4C
330
2
100
AcDbEntity
  8
4
100
AcDbCircle
 10
563.4500884529743
 20
923.9577773903372
 30
0.0
 40
2.0
100
AcDbArc
 50
180.0
 51
270.0
  0
CIRCLE
  5
A4D
330
2
100
AcDbEntity
  8
4
100
AcDbCircle
 10
685.4500884534714
 20
896.9577773903368
 30
0.0
 40
10.0
  0
LINE
  5
A4E
330
2
100
AcDbEntity
  8
4
100
AcDbLine
 10
645.4500884534723
 20
879.9577773903372
 30
0.0
 11
645.4500884534723
 21
908.9577760586137
 31
0.0
  0
LINE
  5
A4F
330
2
100
AcDbEntity
  8
L-CENTER
 48
8.0
100
AcDbLine
 10
685.4500884534714
 20
875.3309613390168
 30
0.0
 11
685.4500884534714
 21
918.5845934416568
 31
0.0
  0
LINE
  5
A50
330
2
100
AcDbEntity
  8
4
100
AcDbLine
 10
653.4500884534723
 20
871.9577773903368
 30
0.0
 11
702.4500884534714
 21
871.9577773903368
 31
0.0
  0
ARC
  5
A51
330
2
100
AcDbEntity
  8
4
100
AcDbCircle
 10
653.4500884534723
 20
879.9577773903372
 30
0.0
 40
8.0
100
AcDbArc
 50
180.0
 51
270.0
  0
LINE
  5
A52
330
2
100
AcDbEntity
  8
L-CENTER
 48
8.0
100
AcDbLine
 10
663.8232724021514
 20
896.9577773903368
 30
0.0
 11
707.0769045047914
 21
896.9577773903368
 31
0.0
  0
LINE
  5
A53
330
2
100
AcDbEntity
  8
4
100
AcDbLine
 10
695.2500884534716
 20
945.3313133903373
 30
0.0
 11
695.2500884534716
 21
963.7312173903372
 31
0.0
  0
LINE
  5
A54
330
2
100
AcDbEntity
  8
4
100
AcDbLine
 10
704.7500884534716
 20
947.1775053903373
 30
0.0
 11
704.7500884534716
 21
961.8850253903372
 31
0.0
  0
LINE
  5
A55
330
2
100
AcDbEntity
  8
4
100
AcDbLine
 10
697.7500884534716
 20
944.7312173903372
 30
0.0
 11
697.7500884534716
 21
964.3313133903373
 31
0.0
  0
ARC
  5
A56
330
2
100
AcDbEntity
  8
4
100
AcDbCircle
 10
700.9590764534714
 20
961.8850253903372
 30
0.0
 40
3.791112
100
AcDbArc
 50
319.814124
 51
40.18587599999998
  0
ARC
  5
A57
330
2
100
AcDbEntity
  8
4
100
AcDbCircle
 10
690.8465244534714
 20
954.5312653903372
 30
0.0
 40
13.90362
100
AcDbArc
 50
339.3313849999993
 51
20.6676779999991
  0
LINE
  5
A58
330
2
100
AcDbEntity
  8
4
100
AcDbLine
 10
697.7500884534716
 20
945.3313133903373
 30
0.0
 11
695.2500884534716
 21
945.3313133903373
 31
0.0
  0
LINE
  5
A59
330
2
100
AcDbEntity
  8
4
100
AcDbLine
 10
697.7500884534716
 20
949.6237933903374
 30
0.0
 11
703.8550724534716
 21
949.6237933903374
 31
0.0
  0
LINE
  5
A5A
330
2
100
AcDbEntity
  8
4
100
AcDbLine
 10
703.8550724534716
 20
944.7312173903372
 30
0.0
 11
697.7500884534716
 21
944.7312173903372
 31
0.0
  0
ARC
  5
A5B
330
2
100
AcDbEntity
  8
4
100
AcDbCircle
 10
700.9590764534714
 20
947.1775053903373
 30
0.0
 40
3.790928
100
AcDbArc
 50
319.8117439999993
 51
40.18825600000074
  0
LINE
  5
A5C
330
2
100
AcDbEntity
  8
4
100
AcDbLine
 10
697.7500884534716
 20
959.4387333903371
 30
0.0
 11
703.8550724534716
 21
959.4387333903371
 31
0.0
  0
LINE
  5
A5D
330
2
100
AcDbEntity
  8
4
100
AcDbLine
 10
703.8550724534716
 20
964.3313133903373
 30
0.0
 11
697.7500884534716
 21
964.3313133903373
 31
0.0
  0
LINE
  5
A5E
330
2
100
AcDbEntity
  8
4
100
AcDbLine
 10
695.2500884534716
 20
963.7312173903372
 30
0.0
 11
697.7500884534716
 21
963.7312173903372
 31
0.0
  0
LINE
  5
A5F
330
2
100
AcDbEntity
  8
4
100
AcDbLine
 10
684.4500884534714
 20
924.9577773903377
 30
0.0
 11
684.4500884534714
 21
926.9577773903372
 31
0.0
  0
LINE
  5
A60
330
2
100
AcDbEntity
  8
4
100
AcDbLine
 10
682.4500884534714
 20
912.9577773903377
 30
0.0
 11
682.4500884534714
 21
924.9577773903377
 31
0.0
  0
LINE
  5
A61
330
2
100
AcDbEntity
  8
4
100
AcDbLine
 10
668.4500884534705
 20
925.9577773903372
 30
0.0
 11
668.4500884534709
 21
923.9577773903377
 31
0.0
  0
ARC
  5
A62
330
2
100
AcDbEntity
  8
4
100
AcDbCircle
 10
666.4500884534709
 20
923.9577773903377
 30
0.0
 40
2.0
100
AcDbArc
 50
270.0
 51
0.0
  0
LINE
  5
A63
330
2
100
AcDbEntity
  8
4
100
AcDbLine
 10
668.4500884534709
 20
924.9577773903377
 30
0.0
 11
684.4500884534714
 21
924.9577773903377
 31
0.0
  0
LINE
  5
A64
330
2
100
AcDbEntity
  8
4
100
AcDbLine
 10
695.2500884534716
 20
926.9577773903372
 30
0.0
 11
678.4500884534714
 21
926.9577773903372
 31
0.0
  0
LINE
  5
A65
330
2
100
AcDbEntity
  8
4
100
AcDbLine
 10
359.2650430296944
 20
1083.357777390337
 30
0.0
 11
339.635133877247
 21
1083.357777390337
 31
0.0
  0
LINE
  5
A66
330
2
100
AcDbEntity
  8
4
100
AcDbLine
 10
359.2650430296944
 20
1085.857777390337
 30
0.0
 11
339.635133877247
 21
1085.857777390337
 31
0.0
  0
ARC
  5
A67
330
2
100
AcDbEntity
  8
4
100
AcDbCircle
 10
349.4500884534705
 20
1079.078612092878
 30
0.0
 40
13.77916529745958
100
AcDbArc
 50
69.13593563608119
 51
110.8640643639188
  0
LINE
  5
A68
330
2
100
AcDbEntity
  8
4
100
AcDbLine
 10
342.0888725213031
 20
1092.857777390337
 30
0.0
 11
356.8113043856383
 21
1092.857777390337
 31
0.0
  0
CIRCLE
  5
A69
330
2
100
AcDbEntity
  8
4
100
AcDbCircle
 10
354.4500884534714
 20
996.9577773903372
 30
0.0
 40
11.0
  0
LINE
  5
A6A
330
2
100
AcDbEntity
  8
4
100
AcDbLine
 10
318.4500884534714
 20
1121.957777390337
 30
0.0
 11
367.4500884534714
 21
1121.957777390337
 31
0.0
  0
LINE
  5
A6B
330
2
100
AcDbEntity
  8
L-CENTER
 48
8.0
100
AcDbLine
 10
313.8232724021514
 20
1096.957777390337
 30
0.0
 11
357.0769045047914
 21
1096.957777390337
 31
0.0
  0
LINE
  5
A6C
330
2
100
AcDbEntity
  8
4
100
AcDbLine
 10
342.4500884534714
 20
1067.957777390337
 30
0.0
 11
678.4500884534714
 21
1067.957777390338
 31
0.0
  0
LINE
  5
A6D
330
2
100
AcDbEntity
  8
4
100
AcDbLine
 10
336.4500884534714
 20
1068.957777390337
 30
0.0
 11
684.4500884534714
 21
1068.957777390338
 31
0.0
  0
LINE
  5
A6E
330
2
100
AcDbEntity
  8
4
100
AcDbLine
 10
338.4500884534714
 20
1070.957777390337
 30
0.0
 11
682.4500884534714
 21
1070.957777390338
 31
0.0
  0
LINE
  5
A6F
330
2
100
AcDbEntity
  8
4
100
AcDbLine
 10
339.4500884534714
 20
1083.357777390337
 30
0.0
 11
681.4500884534709
 21
1083.357777390337
 31
0.0
  0
LINE
  5
A70
330
2
100
AcDbEntity
  8
L-CENTER
 48
8.0
100
AcDbLine
 10
335.4500884534714
 20
1118.584593441657
 30
0.0
 11
335.4500884534714
 21
1075.330961339017
 31
0.0
  0
ARC
  5
A71
330
2
100
AcDbEntity
  8
4
100
AcDbCircle
 10
318.4500884534714
 20
1113.957777390337
 30
0.0
 40
8.0
100
AcDbArc
 50
90.0
 51
180.0
  0
LINE
  5
A72
330
2
100
AcDbEntity
  8
4
100
AcDbLine
 10
300.4500884534718
 20
991.9577773903372
 30
0.0
 11
230.4500884534714
 21
991.9577773903372
 31
0.0
  0
LINE
  5
A73
330
2
100
AcDbEntity
  8
4
100
AcDbLine
 10
308.4500884534718
 20
1014.957777390337
 30
0.0
 11
231.4500884534714
 21
1014.957777390337
 31
0.0
  0
LINE
  5
A74
330
2
100
AcDbEntity
  8
4
100
AcDbLine
 10
300.4500884534718
 20
1001.957777390337
 30
0.0
 11
230.4500884534714
 21
1001.957777390337
 31
0.0
  0
LINE
  5
A75
330
2
100
AcDbEntity
  8
4
100
AcDbLine
 10
308.4500884534718
 20
978.9577773903372
 30
0.0
 11
231.4500884534714
 21
978.9577773903372
 31
0.0
  0
LINE
  5
A76
330
2
100
AcDbEntity
  8
4
100
AcDbLine
 10
231.4500884534714
 20
1014.957777390337
 30
0.0
 11
230.4500884534714
 21
1013.957777390337
 31
0.0
  0
LINE
  5
A77
330
2
100
AcDbEntity
  8
4
100
AcDbLine
 10
230.4500884534714
 20
979.9577773903372
 30
0.0
 11
231.4500884534714
 21
978.9577773903372
 31
0.0
  0
LINE
  5
A78
330
2
100
AcDbEntity
  8
4
100
AcDbLine
 10
231.4500884534718
 20
991.9577773903372
 30
0.0
 11
231.4500884534718
 21
978.9577773903368
 31
0.0
  0
LINE
  5
A79
330
2
100
AcDbEntity
  8
4
100
AcDbLine
 10
230.4500884534714
 20
1013.957777390337
 30
0.0
 11
230.4500884534714
 21
979.9577773903372
 31
0.0
  0
LINE
  5
A7A
330
2
100
AcDbEntity
  8
4
100
AcDbLine
 10
231.4500884534718
 20
1014.957777390338
 30
0.0
 11
231.4500884534718
 21
1001.957777390337
 31
0.0
  0
LINE
  5
A7B
330
2
100
AcDbEntity
  8
4
100
AcDbLine
 10
316.1500884534717
 20
1032.030533390337
 30
0.0
 11
316.1500884534717
 21
1046.738053390337
 31
0.0
  0
ARC
  5
A7C
330
2
100
AcDbEntity
  8
4
100
AcDbCircle
 10
330.0536524534714
 20
1039.384293390337
 30
0.0
 40
13.90362
100
AcDbArc
 50
159.3323259999997
 51
200.6686180000009
  0
LINE
  5
A7D
330
2
100
AcDbEntity
  8
4
100
AcDbLine
 10
323.1500884534717
 20
1029.584241390337
 30
0.0
 11
323.1500884534717
 21
1049.184341390337
 31
0.0
  0
LINE
  5
A7E
330
2
100
AcDbEntity
  8
4
100
AcDbLine
 10
325.6500884534717
 20
1030.184341390337
 30
0.0
 11
325.6500884534717
 21
1048.584241390337
 31
0.0
  0
ARC
  5
A7F
330
2
100
AcDbEntity
  8
4
100
AcDbCircle
 10
300.4500884534718
 20
996.9577773903372
 30
0.0
 40
5.0
100
AcDbArc
 50
270.0
 51
90.0
  0
LINE
  5
A80
330
2
100
AcDbEntity
  8
4
100
AcDbLine
 10
317.0451084534716
 20
1029.584241390337
 30
0.0
 11
323.1500884534717
 21
1029.584241390337
 31
0.0
  0
LINE
  5
A81
330
2
100
AcDbEntity
  8
4
100
AcDbLine
 10
323.1500884534717
 20
1034.476821390337
 30
0.0
 11
317.0451084534716
 21
1034.476821390337
 31
0.0
  0
LINE
  5
A82
330
2
100
AcDbEntity
  8
4
100
AcDbLine
 10
323.1500884534717
 20
1030.184341390337
 30
0.0
 11
325.6500884534717
 21
1030.184341390337
 31
0.0
  0
LINE
  5
A83
330
2
100
AcDbEntity
  8
4
100
AcDbLine
 10
325.6500884534712
 20
1027.957777390337
 30
0.0
 11
324.6500884534712
 21
1027.957777390337
 31
0.0
  0
ARC
  5
A84
330
2
100
AcDbEntity
  8
4
100
AcDbCircle
 10
308.4500884534718
 20
1016.957777390337
 30
0.0
 40
2.0
100
AcDbArc
 50
270.0
 51
0.0
  0
LINE
  5
A85
330
2
100
AcDbEntity
  8
L-CENTER
 48
8.0
100
AcDbLine
 10
311.4066804534718
 20
1039.384293390337
 30
0.0
 11
333.5285084534717
 21
1039.384293390337
 31
0.0
  0
ARC
  5
A86
330
2
100
AcDbEntity
  8
4
100
AcDbCircle
 10
319.9411044534718
 20
1032.030533390337
 30
0.0
 40
3.79102
100
AcDbArc
 50
139.8141239999973
 51
220.1882559999997
  0
LINE
  5
A87
330
2
100
AcDbEntity
  8
4
100
AcDbLine
 10
324.6500884534712
 20
1016.957777390337
 30
0.0
 11
310.4500884534718
 21
1016.957777390337
 31
0.0
  0
LINE
  5
A88
330
2
100
AcDbEntity
  8
4
100
AcDbLine
 10
324.6500884534712
 20
976.9577773903372
 30
0.0
 11
310.4500884534718
 21
976.9577773903372
 31
0.0
  0
LINE
  5
A89
330
2
100
AcDbEntity
  8
4
100
AcDbLine
 10
310.4500884534718
 20
1016.957777390337
 30
0.0
 11
310.4500884534718
 21
976.9577773903372
 31
0.0
  0
ARC
  5
A8A
330
2
100
AcDbEntity
  8
4
100
AcDbCircle
 10
308.4500884534718
 20
976.9577773903372
 30
0.0
 40
2.0
100
AcDbArc
 50
0.0
 51
90.0
  0
ARC
  5
A8B
330
2
100
AcDbEntity
  8
4
100
AcDbCircle
 10
342.0888725213031
 20
1089.074163461278
 30
0.0
 40
3.783613929059507
100
AcDbArc
 50
49.57010315516856
 51
130.4298968448315
  0
LINE
  5
A8C
330
2
100
AcDbEntity
  8
4
100
AcDbLine
 10
339.635133877247
 20
1083.357777390337
 30
0.0
 11
339.635133877247
 21
1091.954250444486
 31
0.0
  0
LINE
  5
A8D
330
2
100
AcDbEntity
  8
4
100
AcDbLine
 10
344.5426111653587
 20
1091.954250444486
 30
0.0
 11
344.5426111653587
 21
1085.857777390337
 31
0.0
  0
LINE
  5
A8E
330
2
100
AcDbEntity
  8
4
100
AcDbLine
 10
338.4500884534714
 20
1068.957777390337
 30
0.0
 11
338.4500884534714
 21
1082.357777390337
 31
0.0
  0
LINE
  5
A8F
330
2
100
AcDbEntity
  8
4
100
AcDbLine
 10
336.4500884534714
 20
1066.957777390338
 30
0.0
 11
336.4500884534714
 21
1068.957777390337
 31
0.0
  0
LINE
  5
A90
330
2
100
AcDbEntity
  8
L-CENTER
 48
8.0
100
AcDbLine
 10
349.4500884534705
 20
1060.445430669246
 30
0.0
 11
349.4500884534705
 21
1095.725755644918
 31
0.0
  0
ARC
  5
A91
330
2
100
AcDbEntity
  8
4
100
AcDbCircle
 10
339.4500884534714
 20
1082.357777390337
 30
0.0
 40
1.0
100
AcDbArc
 50
90.0
 51
180.0
  0
ARC
  5
A92
330
2
100
AcDbEntity
  8
4
100
AcDbCircle
 10
339.4500884534714
 20
1082.357777390337
 30
0.0
 40
1.0
100
AcDbArc
 50
90.0
 51
180.0
  0
LINE
  5
A93
330
2
100
AcDbEntity
  8
4
100
AcDbLine
 10
317.0451084534716
 20
1049.184341390337
 30
0.0
 11
323.1500884534717
 21
1049.184341390337
 31
0.0
  0
LINE
  5
A94
330
2
100
AcDbEntity
  8
4
100
AcDbLine
 10
325.6500884534717
 20
1048.584241390337
 30
0.0
 11
323.1500884534717
 21
1048.584241390337
 31
0.0
  0
LINE
  5
A95
330
2
100
AcDbEntity
  8
4
100
AcDbLine
 10
323.1500884534717
 20
1044.291761390337
 30
0.0
 11
317.0451084534716
 21
1044.291761390337
 31
0.0
  0
ARC
  5
A96
330
2
100
AcDbEntity
  8
4
100
AcDbCircle
 10
319.9411044534718
 20
1046.738053390337
 30
0.0
 40
3.79102
100
AcDbArc
 50
139.8141239999973
 51
220.1882670000003
  0
ARC
  5
A97
330
2
100
AcDbEntity
  8
4
100
AcDbCircle
 10
335.4500884534714
 20
1096.957777390337
 30
0.0
 40
10.0
100
AcDbArc
 50
335.7951651985423
 51
294.7402089475321
  0
LINE
  5
A98
330
2
100
AcDbEntity
  8
4
100
AcDbLine
 10
342.4500884534714
 20
1066.957777390337
 30
0.0
 11
325.6500884534712
 21
1066.957777390338
 31
0.0
  0
ARC
  5
A9C
330
2
100
AcDbEntity
  8
4
100
AcDbCircle
 10
530.4500884534714
 20
996.9577773903372
 30
0.0
 40
5.0
100
AcDbArc
 50
270.0
 51
90.0
  0
LINE
  5
A9D
330
2
100
AcDbEntity
  8
4
100
AcDbLine
 10
457.4500884534714
 20
1126.957777390338
 30
0.0
 11
563.4500884534709
 21
1126.957777390338
 31
0.0
  0
LINE
  5
A9E
330
2
100
AcDbEntity
  8
4
100
AcDbLine
 10
553.4500884534709
 20
1110.957777390338
 30
0.0
 11
467.4500884534714
 21
1110.957777390338
 31
0.0
  0
LINE
  5
A9F
330
2
100
AcDbEntity
  8
4
100
AcDbLine
 10
467.9500884534714
 20
1127.957777390337
 30
0.0
 11
552.9500884534714
 21
1127.957777390337
 31
0.0
  0
LINE
  5
AA0
330
2
100
AcDbEntity
  8
4
100
AcDbLine
 10
457.4500884534714
 20
1126.957777390338
 30
0.0
 11
452.8751288845169
 21
1108.657939114522
 31
0.0
  0
ARC
  5
AA1
330
2
100
AcDbEntity
  8
4
100
AcDbCircle
 10
367.4500884534714
 20
1113.957777390337
 30
0.0
 40
8.0
100
AcDbArc
 50
0.0
 51
90.0
  0
LINE
  5
AA2
330
2
100
AcDbEntity
  8
4
100
AcDbLine
 10
376.9746398243292
 20
1083.357777390338
 30
0.0
 11
452.8751288845169
 21
1108.657939114522
 31
0.0
  0
LINE
  5
AA3
330
2
100
AcDbEntity
  8
4
100
AcDbLine
 10
370.6500842124428
 20
1083.357777390337
 30
0.0
 11
453.4500884534709
 21
1110.957777390337
 31
0.0
  0
CIRCLE
  5
AA4
330
2
100
AcDbEntity
  8
4
100
AcDbCircle
 10
412.4500884534714
 20
996.9577773903372
 30
0.0
 40
25.0
  0
CIRCLE
  5
AA5
330
2
100
AcDbEntity
  8
4
100
AcDbCircle
 10
412.4500884534714
 20
996.9577773903372
 30
0.0
 40
23.0
  0
LWPOLYLINE
  5
AA6
330
2
100
AcDbEntity
  8
4
100
AcDbPolyline
 90
        6
 70
     1
 43
0.0
 10
435.4500884534714
 20
996.9577773903372
 10
423.9500884534714
 20
1016.876361677379
 10
400.9500884534714
 20
1016.876361677379
 10
389.4500884534714
 20
996.9577773903372
 10
400.9500884534714
 20
977.0391931032952
 10
423.9500884534714
 20
977.0391931032952
  0
LINE
  5
AA7
330
2
100
AcDbEntity
  8
L-CENTER
 48
8.0
100
AcDbLine
 10
354.4500884534714
 20
977.4757192632894
 30
0.0
 11
354.4500884534714
 21
1016.439835517385
 31
0.0
  0
LINE
  5
AA8
330
2
100
AcDbEntity
  8
4
100
AcDbLine
 10
385.4500884534714
 20
1109.957777390338
 30
0.0
 11
435.4500884534714
 21
1109.957777390338
 31
0.0
  0
LINE
  5
AA9
330
2
100
AcDbEntity
  8
4
100
AcDbLine
 10
375.4500884534714
 20
1113.957777390337
 30
0.0
 11
375.4500884534714
 21
1084.957778722062
 31
0.0
  0
LINE
  5
AAA
330
2
100
AcDbEntity
  8
4
100
AcDbLine
 10
385.4500884534714
 20
1109.957777390338
 30
0.0
 11
385.4500884534714
 21
1088.291111884661
 31
0.0
  0
ARC
  5
AAB
330
2
100
AcDbEntity
  8
4
100
AcDbCircle
 10
356.8113043856383
 20
1089.074163461278
 30
0.0
 40
3.783613929059507
100
AcDbArc
 50
49.57010315516856
 51
130.4298968448315
  0
LINE
  5
AAC
330
2
100
AcDbEntity
  8
4
100
AcDbLine
 10
354.3575657415827
 20
1091.954250444486
 30
0.0
 11
354.3575657415827
 21
1085.857777390337
 31
0.0
  0
LINE
  5
AAD
330
2
100
AcDbEntity
  8
4
100
AcDbLine
 10
359.2650430296944
 20
1091.954250444486
 30
0.0
 11
359.2650430296944
 21
1083.357777390337
 31
0.0
  0
ARC
  5
AAE
330
2
100
AcDbEntity
  8
4
100
AcDbCircle
 10
429.9500884534705
 20
1079.078612092878
 30
0.0
 40
13.77916529745958
100
AcDbArc
 50
69.13593563608119
 51
110.8640643639188
  0
LINE
  5
AAF
330
2
100
AcDbEntity
  8
4
100
AcDbLine
 10
425.0426111653587
 20
1091.954250444486
 30
0.0
 11
425.0426111653587
 21
1085.857777390337
 31
0.0
  0
ARC
  5
AB0
330
2
100
AcDbEntity
  8
4
100
AcDbCircle
 10
437.3113043856383
 20
1089.074163461278
 30
0.0
 40
3.783613929059507
100
AcDbArc
 50
49.57010315516856
 51
130.4298968448315
  0
LINE
  5
AB1
330
2
100
AcDbEntity
  8
4
100
AcDbLine
 10
434.8575657415827
 20
1091.954250444486
 30
0.0
 11
434.8575657415827
 21
1085.857777390337
 31
0.0
  0
LINE
  5
AB2
330
2
100
AcDbEntity
  8
4
100
AcDbLine
 10
439.7650430296944
 20
1091.954250444486
 30
0.0
 11
439.7650430296944
 21
1083.357777390337
 31
0.0
  0
LINE
  5
AB3
330
2
100
AcDbEntity
  8
4
100
AcDbLine
 10
435.4500884534714
 20
1109.957777390338
 30
0.0
 11
435.4500884534714
 21
1104.957777697658
 31
0.0
  0
LINE
  5
AB4
330
2
100
AcDbEntity
  8
4
100
AcDbLine
 10
420.135133877247
 20
1083.357777390337
 30
0.0
 11
420.135133877247
 21
1091.954250444486
 31
0.0
  0
LINE
  5
AB5
330
2
100
AcDbEntity
  8
4
100
AcDbLine
 10
422.5888725213031
 20
1092.857777390337
 30
0.0
 11
437.3113043856383
 21
1092.857777390337
 31
0.0
  0
LINE
  5
AB6
330
2
100
AcDbEntity
  8
4
100
AcDbLine
 10
439.7650430296944
 20
1083.357777390337
 30
0.0
 11
420.135133877247
 21
1083.357777390337
 31
0.0
  0
LINE
  5
AB7
330
2
100
AcDbEntity
  8
4
100
AcDbLine
 10
439.7650430296944
 20
1085.857777390337
 30
0.0
 11
420.135133877247
 21
1085.857777390337
 31
0.0
  0
ARC
  5
AB8
330
2
100
AcDbEntity
  8
4
100
AcDbCircle
 10
422.5888725213031
 20
1089.074163461278
 30
0.0
 40
3.783613929059507
100
AcDbArc
 50
49.57010315516856
 51
130.4298968448315
  0
LINE
  5
AB9
330
2
100
AcDbEntity
  8
L-CENTER
 48
8.0
100
AcDbLine
 10
429.9500884534705
 20
1060.445430669246
 30
0.0
 11
429.9500884534705
 21
1095.725755644918
 31
0.0
  0
ARC
  5
ABA
330
2
100
AcDbEntity
  8
4
100
AcDbCircle
 10
490.4500884534714
 20
996.9577773903372
 30
0.0
 40
5.0
100
AcDbArc
 50
90.0
 51
270.0
  0
LINE
  5
ABB
330
2
100
AcDbEntity
  8
4
100
AcDbLine
 10
490.4500884534714
 20
991.9577773903372
 30
0.0
 11
530.4500884534714
 21
991.9577773903372
 31
0.0
  0
ARC
  5
ABC
330
2
100
AcDbEntity
  8
4
100
AcDbCircle
 10
510.4500884534714
 20
996.9577773903372
 30
0.0
 40
11.0
100
AcDbArc
 50
207.0356917894123
 51
332.9643082105878
  0
ARC
  5
ABD
330
2
100
AcDbEntity
  8
4
100
AcDbCircle
 10
510.4500884534714
 20
996.9577773903372
 30
0.0
 40
12.5
100
AcDbArc
 50
203.5781784782018
 51
336.4218215217981
  0
LINE
  5
ABE
330
2
100
AcDbEntity
  8
4
100
AcDbLine
 10
490.4500884534714
 20
1001.957777390337
 30
0.0
 11
530.4500884534714
 21
1001.957777390337
 31
0.0
  0
ARC
  5
ABF
330
2
100
AcDbEntity
  8
4
100
AcDbCircle
 10
510.4500884534714
 20
996.9577773903372
 30
0.0
 40
20.0
100
AcDbArc
 50
14.47751218592994
 51
165.5224878140701
  0
ARC
  5
AC0
330
2
100
AcDbEntity
  8
4
100
AcDbCircle
 10
510.4500884534714
 20
996.9577773903372
 30
0.0
 40
12.5
100
AcDbArc
 50
23.57817847820196
 51
156.4218215217982
  0
ARC
  5
AC1
330
2
100
AcDbEntity
  8
4
100
AcDbCircle
 10
510.4500884534714
 20
996.9577773903372
 30
0.0
 40
11.0
100
AcDbArc
 50
27.03569178941222
 51
152.9643082105877
  0
ARC
  5
AC2
330
2
100
AcDbEntity
  8
4
100
AcDbCircle
 10
510.4500884534714
 20
996.9577773903372
 30
0.0
 40
20.0
100
AcDbArc
 50
194.4775121859299
 51
345.5224878140701
  0
LINE
  5
AC3
330
2
100
AcDbEntity
  8
4
100
AcDbLine
 10
467.4500884534714
 20
1108.657939111675
 30
0.0
 11
476.6168093672827
 21
1083.357921390337
 31
0.0
  0
LINE
  5
AC4
330
2
100
AcDbEntity
  8
4
100
AcDbLine
 10
467.4500884534714
 20
1110.957777390338
 30
0.0
 11
467.4500884534714
 21
1108.657939111675
 31
0.0
  0
LINE
  5
AC5
330
2
100
AcDbEntity
  8
4
100
AcDbLine
 10
467.4500884534714
 20
1108.657939111675
 30
0.0
 11
452.8751288845169
 21
1108.657939114522
 31
0.0
  0
LINE
  5
AC6
330
2
100
AcDbEntity
  8
4
100
AcDbLine
 10
467.4500884534714
 20
1110.957777390338
 30
0.0
 11
477.4500884534714
 21
1083.357921390337
 31
0.0
  0
LINE
  5
AC7
330
2
100
AcDbEntity
  8
4
100
AcDbLine
 10
530.4500884534714
 20
1096.957777390338
 30
0.0
 11
530.4500884534714
 21
1083.357777390337
 31
0.0
  0
LINE
  5
AC8
330
2
100
AcDbEntity
  8
4
100
AcDbLine
 10
490.4500884534714
 20
1096.957777390338
 30
0.0
 11
490.4500884534714
 21
1083.357777390337
 31
0.0
  0
LINE
  5
AC9
330
2
100
AcDbEntity
  8
4
100
AcDbLine
 10
490.4500884534714
 20
1096.957777390338
 30
0.0
 11
530.4500884534714
 21
1096.957777390338
 31
0.0
  0
LINE
  5
AD0
330
2
100
AcDbEntity
  8
4
100
AcDbLine
 10
467.9500884534714
 20
1127.957777390337
 30
0.0
 11
467.9500884534714
 21
1126.957777390337
 31
0.0
  0
ARC
  5
AD4
330
2
100
AcDbEntity
  8
4
100
AcDbCircle
 10
653.4500884534723
 20
1113.957777390337
 30
0.0
 40
8.0
100
AcDbArc
 50
90.0
 51
180.0
  0
LINE
  5
AD5
330
2
100
AcDbEntity
  8
L-CENTER
 48
8.0
100
AcDbLine
 10
685.4500884534714
 20
1118.584593441657
 30
0.0
 11
685.4500884534714
 21
1075.330961339017
 31
0.0
  0
LINE
  5
AD6
330
2
100
AcDbEntity
  8
4
100
AcDbLine
 10
563.4500884534709
 20
1126.957777390338
 30
0.0
 11
568.0250480280474
 21
1108.657939092034
 31
0.0
  0
LINE
  5
AD7
330
2
100
AcDbEntity
  8
4
100
AcDbLine
 10
643.9255331331333
 20
1083.357777390338
 30
0.0
 11
568.0250480280474
 21
1108.657939092034
 31
0.0
  0
LINE
  5
AD8
330
2
100
AcDbEntity
  8
4
100
AcDbLine
 10
650.2500884534702
 20
1083.357777390337
 30
0.0
 11
567.4500884534709
 21
1110.957777390338
 31
0.0
  0
LINE
  5
AD9
330
2
100
AcDbEntity
  8
4
100
AcDbLine
 10
553.4500884534709
 20
1110.957777390338
 30
0.0
 11
553.4500884534709
 21
1108.65793909488
 31
0.0
  0
LINE
  5
ADA
330
2
100
AcDbEntity
  8
4
100
AcDbLine
 10
568.0250480280474
 20
1108.657939092034
 30
0.0
 11
553.4500884534709
 21
1108.65793909488
 31
0.0
  0
LINE
  5
ADB
330
2
100
AcDbEntity
  8
4
100
AcDbLine
 10
553.4500884534718
 20
1108.657939111675
 30
0.0
 11
544.2833675396605
 21
1083.357921390337
 31
0.0
  0
LINE
  5
ADC
330
2
100
AcDbEntity
  8
4
100
AcDbLine
 10
553.4500884534718
 20
1110.957777390338
 30
0.0
 11
543.4500884534714
 21
1083.357921390337
 31
0.0
  0
ARC
  5
ADD
330
2
100
AcDbEntity
  8
4
100
AcDbCircle
 10
598.3113043856397
 20
1089.074163461278
 30
0.0
 40
3.783613929059507
100
AcDbArc
 50
49.57010315517471
 51
130.4298968448253
  0
ARC
  5
ADE
330
2
100
AcDbEntity
  8
4
100
AcDbCircle
 10
590.9500884534723
 20
1079.078612092878
 30
0.0
 40
13.77916529745958
100
AcDbArc
 50
69.13593563608075
 51
110.8640643639193
  0
LINE
  5
ADF
330
2
100
AcDbEntity
  8
4
100
AcDbLine
 10
586.0426111653601
 20
1091.954250444486
 30
0.0
 11
586.0426111653601
 21
1085.857777390337
 31
0.0
  0
LINE
  5
AE0
330
2
100
AcDbEntity
  8
4
100
AcDbLine
 10
595.857565741584
 20
1091.954250444486
 30
0.0
 11
595.857565741584
 21
1085.857777390337
 31
0.0
  0
LINE
  5
AE1
330
2
100
AcDbEntity
  8
4
100
AcDbLine
 10
600.7650430296958
 20
1083.357777390337
 30
0.0
 11
600.7650430296958
 21
1091.954250444486
 31
0.0
  0
LINE
  5
AE2
330
2
100
AcDbEntity
  8
4
100
AcDbLine
 10
598.3113043856397
 20
1092.857777390337
 30
0.0
 11
583.5888725213044
 21
1092.857777390337
 31
0.0
  0
LINE
  5
AE3
330
2
100
AcDbEntity
  8
L-CENTER
 48
8.0
100
AcDbLine
 10
590.9500884534723
 20
1060.445430669246
 30
0.0
 11
590.9500884534723
 21
1095.725755644918
 31
0.0
  0
LINE
  5
AE4
330
2
100
AcDbEntity
  8
4
100
AcDbLine
 10
581.1351338772483
 20
1091.954250444486
 30
0.0
 11
581.1351338772483
 21
1083.357777390337
 31
0.0
  0
ARC
  5
AE5
330
2
100
AcDbEntity
  8
4
100
AcDbCircle
 10
583.5888725213044
 20
1089.074163461278
 30
0.0
 40
3.783613929059507
100
AcDbArc
 50
49.57010315516856
 51
130.4298968448315
  0
LINE
  5
AE6
330
2
100
AcDbEntity
  8
4
100
AcDbLine
 10
581.1351338772483
 20
1085.857777390337
 30
0.0
 11
600.7650430296958
 21
1085.857777390337
 31
0.0
  0
LINE
  5
AE7
330
2
100
AcDbEntity
  8
4
100
AcDbLine
 10
581.1351338772483
 20
1083.357777390337
 30
0.0
 11
600.7650430296958
 21
1083.357777390337
 31
0.0
  0
LINE
  5
AE8
330
2
100
AcDbEntity
  8
4
100
AcDbLine
 10
704.7500884534716
 20
1046.738053390337
 30
0.0
 11
704.7500884534716
 21
1032.030533390337
 31
0.0
  0
ARC
  5
AE9
330
2
100
AcDbEntity
  8
4
100
AcDbCircle
 10
690.8465244534714
 20
1039.384293390337
 30
0.0
 40
13.90362
100
AcDbArc
 50
339.3323220000009
 51
20.6686150000007
  0
LINE
  5
AEA
330
2
100
AcDbEntity
  8
4
100
AcDbLine
 10
695.2500884534716
 20
1048.584241390337
 30
0.0
 11
695.2500884534716
 21
1030.184341390337
 31
0.0
  0
LINE
  5
AEB
330
2
100
AcDbEntity
  8
4
100
AcDbLine
 10
697.7500884534716
 20
1049.184341390337
 30
0.0
 11
697.7500884534716
 21
1029.584241390337
 31
0.0
  0
CIRCLE
  5
AEC
330
2
100
AcDbEntity
  8
4
100
AcDbCircle
 10
666.4500884534714
 20
996.9577773903372
 30
0.0
 40
11.0
  0
LINE
  5
AED
330
2
100
AcDbEntity
  8
4
100
AcDbLine
 10
697.7500884534716
 20
1034.476821390337
 30
0.0
 11
703.8550724534716
 21
1034.476821390337
 31
0.0
  0
LINE
  5
AEE
330
2
100
AcDbEntity
  8
4
100
AcDbLine
 10
703.8550724534716
 20
1029.584241390337
 30
0.0
 11
697.7500884534716
 21
1029.584241390337
 31
0.0
  0
LINE
  5
AEF
330
2
100
AcDbEntity
  8
4
100
AcDbLine
 10
695.2500884534716
 20
1030.184341390337
 30
0.0
 11
697.7500884534716
 21
1030.184341390337
 31
0.0
  0
ARC
  5
AF0
330
2
100
AcDbEntity
  8
4
100
AcDbCircle
 10
700.9590764534714
 20
1032.030533390337
 30
0.0
 40
3.79102
100
AcDbArc
 50
319.8141239999973
 51
40.18825599999911
  0
LINE
  5
AF1
330
2
100
AcDbEntity
  8
L-CENTER
 48
8.0
100
AcDbLine
 10
666.4500884534714
 20
977.4757192632894
 30
0.0
 11
666.4500884534714
 21
1016.439835517385
 31
0.0
  0
ARC
  5
AF2
330
2
100
AcDbEntity
  8
4
100
AcDbCircle
 10
664.0888725213044
 20
1089.074163461278
 30
0.0
 40
3.783613929059507
100
AcDbArc
 50
49.57010315516856
 51
130.4298968448315
  0
LINE
  5
AF3
330
2
100
AcDbEntity
  8
4
100
AcDbLine
 10
661.6351338772483
 20
1085.857777390337
 30
0.0
 11
681.2650430296958
 21
1085.857777390337
 31
0.0
  0
LINE
  5
AF4
330
2
100
AcDbEntity
  8
4
100
AcDbLine
 10
661.6351338772483
 20
1083.357777390337
 30
0.0
 11
681.2650430296958
 21
1083.357777390337
 31
0.0
  0
LINE
  5
AF5
330
2
100
AcDbEntity
  8
4
100
AcDbLine
 10
678.8113043856397
 20
1092.857777390337
 30
0.0
 11
664.0888725213044
 21
1092.857777390337
 31
0.0
  0
LINE
  5
AF6
330
2
100
AcDbEntity
  8
L-CENTER
 48
8.0
100
AcDbLine
 10
663.8232724021514
 20
1096.957777390337
 30
0.0
 11
707.0769045047914
 21
1096.957777390337
 31
0.0
  0
LINE
  5
AF7
330
2
100
AcDbEntity
  8
4
100
AcDbLine
 10
661.6351338772483
 20
1091.954250444486
 30
0.0
 11
661.6351338772483
 21
1083.357777390337
 31
0.0
  0
LINE
  5
AF8
330
2
100
AcDbEntity
  8
4
100
AcDbLine
 10
645.4500884534723
 20
1113.957777390337
 30
0.0
 11
645.4500884534723
 21
1084.957777390337
 31
0.0
  0
LINE
  5
AF9
330
2
100
AcDbEntity
  8
4
100
AcDbLine
 10
703.8550724534716
 20
1049.184341390337
 30
0.0
 11
697.7500884534716
 21
1049.184341390337
 31
0.0
  0
LINE
  5
AFA
330
2
100
AcDbEntity
  8
4
100
AcDbLine
 10
697.7500884534716
 20
1048.584241390337
 30
0.0
 11
695.2500884534716
 21
1048.584241390337
 31
0.0
  0
ARC
  5
AFB
330
2
100
AcDbEntity
  8
4
100
AcDbCircle
 10
678.8113043856397
 20
1089.074163461278
 30
0.0
 40
3.783613929059507
100
AcDbArc
 50
49.57010315517471
 51
130.4298968448253
  0
LINE
  5
AFC
330
2
100
AcDbEntity
  8
4
100
AcDbLine
 10
676.357565741584
 20
1091.954250444486
 30
0.0
 11
676.357565741584
 21
1085.857777390337
 31
0.0
  0
LINE
  5
AFD
330
2
100
AcDbEntity
  8
4
100
AcDbLine
 10
681.2650430296958
 20
1083.357777390337
 30
0.0
 11
681.2650430296958
 21
1091.954250444486
 31
0.0
  0
LINE
  5
AFE
330
2
100
AcDbEntity
  8
4
100
AcDbLine
 10
666.5426111653601
 20
1091.954250444486
 30
0.0
 11
666.5426111653601
 21
1085.857777390337
 31
0.0
  0
ARC
  5
AFF
330
2
100
AcDbEntity
  8
4
100
AcDbCircle
 10
671.4500884534723
 20
1079.078612092878
 30
0.0
 40
13.77916529745958
100
AcDbArc
 50
69.13593563608075
 51
110.8640643639193
  0
LINE
  5
B00
330
2
100
AcDbEntity
  8
4
100
AcDbLine
 10
682.4500884534714
 20
1068.957777390338
 30
0.0
 11
682.4500884534714
 21
1082.357777390337
 31
0.0
  0
LINE
  5
B01
330
2
100
AcDbEntity
  8
4
100
AcDbLine
 10
684.4500884534714
 20
1066.957777390338
 30
0.0
 11
684.4500884534714
 21
1068.957777390338
 31
0.0
  0
LINE
  5
B02
330
2
100
AcDbEntity
  8
L-CENTER
 48
8.0
100
AcDbLine
 10
671.4500884534723
 20
1060.445430669246
 30
0.0
 11
671.4500884534723
 21
1095.725755644918
 31
0.0
  0
ARC
  5
B03
330
2
100
AcDbEntity
  8
4
100
AcDbCircle
 10
681.4500884534709
 20
1082.357777390337
 30
0.0
 40
1.0
100
AcDbArc
 50
0.0
 51
90.0
  0
ARC
  5
B04
330
2
100
AcDbEntity
  8
4
100
AcDbCircle
 10
681.4500884534709
 20
1082.357777390337
 30
0.0
 40
1.0
100
AcDbArc
 50
0.0
 51
90.0
  0
ARC
  5
B05
330
2
100
AcDbEntity
  8
4
100
AcDbCircle
 10
685.4500884534714
 20
1096.957777390337
 30
0.0
 40
10.0
100
AcDbArc
 50
245.2597910524679
 51
204.2048348014577
  0
LINE
  5
B06
330
2
100
AcDbEntity
  8
4
100
AcDbLine
 10
695.2500884534716
 20
1066.957777390338
 30
0.0
 11
678.4500884534714
 21
1066.957777390338
 31
0.0
  0
LINE
  5
B07
330
2
100
AcDbEntity
  8
4
100
AcDbLine
 10
697.7500884534716
 20
1044.291761390337
 30
0.0
 11
703.8550724534716
 21
1044.291761390337
 31
0.0
  0
ARC
  5
B08
330
2
100
AcDbEntity
  8
4
100
AcDbCircle
 10
700.9590764534714
 20
1046.738053390337
 30
0.0
 40
3.79102
100
AcDbArc
 50
319.814112
 51
40.18825599999911
  0
LINE
  5
B0A
330
2
100
AcDbEntity
  8
4
100
AcDbLine
 10
552.9500884534714
 20
1127.957777390337
 30
0.0
 11
552.9500884534714
 21
1126.957777390337
 31
0.0
  0
LINE
  5
B0F
330
2
100
AcDbEntity
  8
4
100
AcDbLine
 10
653.4500884534723
 20
1121.957777390337
 30
0.0
 11
702.4500884534714
 21
1121.957777390337
 31
0.0
  0
LINE
  5
B10
330
2
100
AcDbEntity
  8
4
100
AcDbLine
 10
710.4500884534714
 20
879.9577773903368
 30
0.0
 11
710.4500884534714
 21
1113.957777390337
 31
0.0
  0
CIRCLE
  5
B1D
330
2
100
AcDbEntity
  8
L-CENTER
 48
8.0
100
AcDbCircle
 10
1238.354940007335
 20
461.4291268072921
 30
0.0
 40
60.00000000000007
  0
LINE
  5
B6E
330
2
100
AcDbEntity
  8
4
100
AcDbLine
 10
1098.354940007335
 20
315.4291268072921
 30
0.0
 11
999.3549400073352
 21
315.4291268072921
 31
0.0
  0
LINE
  5
B6F
330
2
100
AcDbEntity
  8
4
100
AcDbLine
 10
998.3549400073352
 20
320.4291268072921
 30
0.0
 11
1088.354940007335
 21
320.4291268072921
 31
0.0
  0
LINE
  5
B70
330
2
100
AcDbEntity
  8
4
100
AcDbLine
 10
1098.354940007335
 20
257.4291268072921
 30
0.0
 11
999.3549400073352
 21
257.4291268072921
 31
0.0
  0
LINE
  5
B71
330
2
100
AcDbEntity
  8
4
100
AcDbLine
 10
1098.354940007335
 20
316.4291268072921
 30
0.0
 11
1098.354940007335
 21
256.4291268072921
 31
0.0
  0
LINE
  5
B72
330
2
100
AcDbEntity
  8
4
100
AcDbLine
 10
1107.354940007335
 20
328.9291268072921
 30
0.0
 11
1107.354940007335
 21
243.9291268072921
 31
0.0
  0
LINE
  5
B73
330
2
100
AcDbEntity
  8
4
100
AcDbLine
 10
1107.354940007335
 20
243.9291268072921
 30
0.0
 11
1108.354940007335
 21
243.9291268072921
 31
0.0
  0
LINE
  5
B74
330
2
100
AcDbEntity
  8
4
100
AcDbLine
 10
1107.354940007335
 20
256.4291268072921
 30
0.0
 11
1098.354940007335
 21
256.4291268072921
 31
0.0
  0
LINE
  5
B75
330
2
100
AcDbEntity
  8
4
100
AcDbLine
 10
1088.354940007335
 20
320.4291268072921
 30
0.0
 11
1088.354940007335
 21
315.4291268072921
 31
0.0
  0
LINE
  5
B76
330
2
100
AcDbEntity
  8
4
100
AcDbLine
 10
1107.354940007335
 20
328.9291268072921
 30
0.0
 11
1108.354940007335
 21
328.9291268072921
 31
0.0
  0
LINE
  5
B77
330
2
100
AcDbEntity
  8
4
100
AcDbLine
 10
1098.354940007335
 20
316.4291268072921
 30
0.0
 11
1107.354940007335
 21
316.4291268072921
 31
0.0
  0
LINE
  5
B78
330
2
100
AcDbEntity
  8
4
100
AcDbLine
 10
999.3549400073352
 20
315.4291268072921
 30
0.0
 11
999.3549400073352
 21
257.4291268072921
 31
0.0
  0
LINE
  5
B79
330
2
100
AcDbEntity
  8
4
100
AcDbLine
 10
998.3549400073352
 20
320.4291268072921
 30
0.0
 11
998.3549400073352
 21
258.4291268072921
 31
0.0
  0
LINE
  5
B7A
330
2
100
AcDbEntity
  8
4
100
AcDbLine
 10
999.3549400073352
 20
257.4291268072921
 30
0.0
 11
998.3549400073352
 21
258.4291268072921
 31
0.0
  0
LINE
  5
B7B
330
2
100
AcDbEntity
  8
4
100
AcDbLine
 10
998.3549400073352
 20
314.4291268072921
 30
0.0
 11
999.3549400073352
 21
315.4291268072921
 31
0.0
  0
LINE
  5
B7C
330
2
100
AcDbEntity
  8
4
100
AcDbLine
 10
999.3549400073352
 20
315.4291268072921
 30
0.0
 11
998.3549400073352
 21
314.4291268072921
 31
0.0
  0
LINE
  5
B95
330
2
100
AcDbEntity
  8
4
100
AcDbLine
 10
517.9500884534709
 20
757.9577773903372
 30
0.0
 11
539.4500884534709
 21
757.9577773903372
 31
0.0
  0
LINE
  5
B96
330
2
100
AcDbEntity
  8
4
100
AcDbLine
 10
482.4500884534714
 20
756.9577773903372
 30
0.0
 11
538.4500884534709
 21
756.9577773903372
 31
0.0
  0
LINE
  5
B97
330
2
100
AcDbEntity
  8
4
100
AcDbLine
 10
540.4500884534709
 20
856.9577773903372
 30
0.0
 11
480.4500884534709
 21
856.9577773903372
 31
0.0
  0
LINE
  5
B98
330
2
100
AcDbEntity
  8
4
100
AcDbLine
 10
467.9500884534714
 20
865.9577773903372
 30
0.0
 11
552.9500884534714
 21
865.9577773903372
 31
0.0
  0
LINE
  5
B99
330
2
100
AcDbEntity
  8
4
100
AcDbLine
 10
481.4500884534714
 20
855.9577773903372
 30
0.0
 11
481.4500884534714
 21
757.9577773903372
 31
0.0
  0
LINE
  5
B9A
330
2
100
AcDbEntity
  8
4
100
AcDbLine
 10
502.9500884534709
 20
756.9577773903372
 30
0.0
 11
502.9500884534709
 21
839.4577773903372
 31
0.0
  0
LINE
  5
B9B
330
2
100
AcDbEntity
  8
4
100
AcDbLine
 10
517.9500884534709
 20
756.9577773903372
 30
0.0
 11
517.9500884534709
 21
839.4577773903372
 31
0.0
  0
LINE
  5
B9C
330
2
100
AcDbEntity
  8
4
100
AcDbLine
 10
480.4500884534709
 20
856.9577773903372
 30
0.0
 11
480.4500884534714
 21
856.9577773903372
 31
0.0
  0
ARC
  5
B9D
330
2
100
AcDbEntity
  8
4
100
AcDbCircle
 10
480.4500884534714
 20
855.9577773903368
 30
0.0
 40
1.0
100
AcDbArc
 50
0.0
 51
90.0
  0
LINE
  5
B9E
330
2
100
AcDbEntity
  8
4
100
AcDbLine
 10
480.4500884534709
 20
865.9577773903372
 30
0.0
 11
480.4500884534709
 21
856.9577773903372
 31
0.0
  0
LINE
  5
B9F
330
2
100
AcDbEntity
  8
4
100
AcDbLine
 10
467.9500884534714
 20
865.9577773903372
 30
0.0
 11
467.9500884534714
 21
866.9577773903372
 31
0.0
  0
ARC
  5
BA0
330
2
100
AcDbEntity
  8
4
100
AcDbCircle
 10
510.4500884534709
 20
839.4577773903368
 30
0.0
 40
7.5
100
AcDbArc
 50
0.0
 51
180.0
  0
LINE
  5
BA1
330
2
100
AcDbEntity
  8
4
100
AcDbLine
 10
481.4500884534714
 20
757.9577773903372
 30
0.0
 11
502.9500884534714
 21
757.9577773903372
 31
0.0
  0
LINE
  5
BA2
330
2
100
AcDbEntity
  8
4
100
AcDbLine
 10
481.4500884534714
 20
757.9577773903372
 30
0.0
 11
482.4500884534714
 21
756.9577773903372
 31
0.0
  0
LINE
  5
BA3
330
2
100
AcDbEntity
  8
4
100
AcDbLine
 10
539.4500884534709
 20
855.9577773903372
 30
0.0
 11
539.4500884534709
 21
757.9577773903372
 31
0.0
  0
LINE
  5
BA4
330
2
100
AcDbEntity
  8
4
100
AcDbLine
 10
552.9500884534714
 20
865.9577773903372
 30
0.0
 11
552.9500884534714
 21
866.9577773903372
 31
0.0
  0
ARC
  5
BA5
330
2
100
AcDbEntity
  8
4
100
AcDbCircle
 10
540.4500884534709
 20
855.9577773903368
 30
0.0
 40
1.0
100
AcDbArc
 50
90.0
 51
180.0
  0
LINE
  5
BA6
330
2
100
AcDbEntity
  8
4
100
AcDbLine
 10
540.4500884534709
 20
856.9577773903372
 30
0.0
 11
540.4500884534709
 21
856.9577773903372
 31
0.0
  0
LINE
  5
BA7
330
2
100
AcDbEntity
  8
4
100
AcDbLine
 10
540.4500884534709
 20
865.9577773903372
 30
0.0
 11
540.4500884534709
 21
856.9577773903372
 31
0.0
  0
LINE
  5
BA8
330
2
100
AcDbEntity
  8
4
100
AcDbLine
 10
539.4500884534709
 20
757.9577773903372
 30
0.0
 11
538.4500884534709
 21
756.9577773903372
 31
0.0
  0
LINE
  5
BAA
330
2
100
AcDbEntity
  8
4
100
AcDbLine
 10
508.1803846833977
 20
320.4291268072921
 30
0.0
 11
523.1803846833977
 21
320.4291268072921
 31
0.0
  0
LINE
  5
BAB
330
2
100
AcDbEntity
  8
4
100
AcDbLine
 10
508.1803846833977
 20
310.4291268072921
 30
0.0
 11
523.1803846833977
 21
310.4291268072921
 31
0.0
  0
ARC
  5
BAC
330
2
100
AcDbEntity
  8
4
100
AcDbCircle
 10
515.6803846833977
 20
286.4291268072921
 30
0.0
 40
29.000004
100
AcDbArc
 50
104.9882323664781
 51
75.01176900000004
  0
LINE
  5
BAD
330
2
100
AcDbEntity
  8
4
100
AcDbLine
 10
508.1803846833977
 20
320.4291268072921
 30
0.0
 11
508.1803846833977
 21
310.4291268072921
 31
0.0
  0
LINE
  5
BAE
330
2
100
AcDbEntity
  8
4
100
AcDbLine
 10
523.1803846833977
 20
310.4291268072921
 30
0.0
 11
523.1803846833977
 21
320.4291268072921
 31
0.0
  0
CIRCLE
  5
BB0
330
2
100
AcDbEntity
  8
4
100
AcDbCircle
 10
515.6803846833977
 20
286.4291268072921
 30
0.0
 40
42.5
  0
CIRCLE
  5
BDD
330
2
100
AcDbEntity
  8
4
100
AcDbCircle
 10
1238.354940007335
 20
461.4291268072921
 30
0.0
 40
47.0
  0
ENDSEC
  0
SECTION
  2
OBJECTS
  0
DICTIONARY
  5
9
330
0
100
AcDbDictionary
281
     1
  3
ACAD_CIP_PREVIOUS_PRODUCT_INFO
350
9EA
  3
ACAD_COLOR
350
9CC
  3
ACAD_DETAILVIEWSTYLE
350
9E5
  3
ACAD_GROUP
350
23
  3
ACAD_LAYOUT
350
D
  3
ACAD_MATERIAL
350
99A
  3
ACAD_MLEADERSTYLE
350
9E1
  3
ACAD_MLINESTYLE
350
24
  3
ACAD_PLOTSETTINGS
350
25
  3
ACAD_PLOTSTYLENAME
350
8
  3
ACAD_SCALELIST
350
9CF
  3
ACAD_SECTIONVIEWSTYLE
350
9E3
  3
ACAD_TABLESTYLE
350
9CD
  3
ACAD_VISUALSTYLE
350
9B3
  3
ACDBHEADERROUNDTRIPXREC
350
BF2
  3
AcDbVariableDictionary
350
95F
  3
DWGPROPS
350
BF5
  0
DICTIONARY
  5
BF6
330
1D
100
AcDbDictionary
280
     1
281
     1
  3
ACAD_XREC_ROUNDTRIP
360
BF7
  0
DICTIONARY
  5
9FA
330
14
100
AcDbDictionary
280
     1
281
     1
  3
ACAD_LAYERSTATES
360
9FB
  0
DICTIONARY
  5
9EB
330
6
100
AcDbDictionary
280
     1
281
     1
  3
ADSK_XREC_LAYER_RECONCILED
360
9EC
  0
DICTIONARY
  5
9ED
330
2C
100
AcDbDictionary
280
     1
281
     1
  3
ADSK_XREC_LAYER_RECONCILED
360
9EE
  0
DICTIONARY
  5
9EF
330
26
100
AcDbDictionary
280
     1
281
     1
  3
ADSK_XREC_LAYER_RECONCILED
360
9F0
  0
DICTIONARY
  5
9F1
330
3E
100
AcDbDictionary
280
     1
281
     1
  3
ADSK_XREC_LAYER_RECONCILED
360
9F2
  0
DICTIONARY
  5
9F3
330
2E
100
AcDbDictionary
280
     1
281
     1
  3
ADSK_XREC_LAYER_RECONCILED
360
9F4
  0
DICTIONARY
  5
9F5
330
45
100
AcDbDictionary
280
     1
281
     1
  3
ADSK_XREC_LAYER_RECONCILED
360
9F6
  0
DICTIONARY
  5
32C
330
32B
100
AcDbDictionary
280
     1
281
     1
  3
ADSK_XREC_LAYER_RECONCILED
360
32E
  0
DICTIONARY
  5
B18
330
2
100
AcDbDictionary
280
     1
281
     1
  3
ACAD_SORTENTS
360
B19
  0
XRECORD
  5
9EA
102
{ACAD_REACTORS
330
9
102
}
330
9
100
AcDbXrecord
280
     1
300
ACD
300
2014
300
ACD_F_S
  0
DICTIONARY
  5
9CC
102
{ACAD_REACTORS
330
9
102
}
330
9
100
AcDbDictionary
281
     1
  0
DICTIONARY
  5
9E5
102
{ACAD_REACTORS
330
9
102
}
330
9
100
AcDbDictionary
281
     1
  3
Imperial24
350
9E6
  0
DICTIONARY
  5
23
102
{ACAD_REACTORS
330
9
102
}
330
9
100
AcDbDictionary
281
     1
  0
DICTIONARY
  5
D
102
{ACAD_REACTORS
330
9
102
}
330
9
100
AcDbDictionary
281
     1
  3
Model
350
C
  3
ﾚｲｱｳﾄ1
350
13
  0
DICTIONARY
  5
99A
102
{ACAD_REACTORS
330
9
102
}
330
9
100
AcDbDictionary
281
     1
  3
ByBlock
350
9A3
  3
ByLayer
350
99B
  3
Global
350
9AB
  0
DICTIONARY
  5
9E1
102
{ACAD_REACTORS
330
9
102
}
330
9
100
AcDbDictionary
281
     1
  3
Standard
350
9E2
  0
DICTIONARY
  5
24
102
{ACAD_REACTORS
330
9
102
}
330
9
100
AcDbDictionary
281
     1
  3
STANDARD
350
28
  0
DICTIONARY
  5
25
102
{ACAD_REACTORS
330
9
102
}
330
9
100
AcDbDictionary
281
     1
  0
ACDBDICTIONARYWDFLT
  5
8
102
{ACAD_REACTORS
330
9
102
}
330
9
100
AcDbDictionary
281
     1
  3
Normal
350
7
100
AcDbDictionaryWithDefault
340
7
  0
DICTIONARY
  5
9CF
102
{ACAD_REACTORS
330
9
102
}
330
9
100
AcDbDictionary
281
     1
  3
A0
350
9D0
  3
A1
350
9D1
  3
A2
350
9D2
  3
A3
350
9D3
  3
A4
350
9D4
  3
A5
350
9D5
  3
A6
350
9D6
  3
A7
350
9D7
  3
A8
350
9D8
  3
A9
350
9D9
  3
B0
350
9DA
  3
B1
350
9DB
  3
B2
350
9DC
  3
B3
350
9DD
  3
B4
350
9DE
  3
B5
350
9DF
  3
B6
350
9E0
  0
DICTIONARY
  5
9E3
102
{ACAD_REACTORS
330
9
102
}
330
9
100
AcDbDictionary
281
     1
  3
Imperial24
350
9E4
  0
DICTIONARY
  5
9CD
102
{ACAD_REACTORS
330
9
102
}
330
9
100
AcDbDictionary
281
     1
  3
Standard
350
9CE
  0
DICTIONARY
  5
9B3
102
{ACAD_REACTORS
330
9
102
}
330
9
100
AcDbDictionary
281
     1
  3
2dWireframe
350
9B9
  3
Basic
350
9B8
  3
Brighten
350
9BF
  3
ColorChange
350
9C3
  3
Conceptual
350
9BC
  3
Dim
350
9BE
  3
EdgeColorOff
350
9CB
  3
Facepattern
350
9C2
  3
Flat
350
9B4
  3
FlatWithEdges
350
9B5
  3
Gouraud
350
9B6
  3
GouraudWithEdges
350
9B7
  3
Hidden
350
9BB
  3
JitterOff
350
9C9
  3
Linepattern
350
9C1
  3
OverhangOff
350
9CA
  3
Realistic
350
9BD
  3
Shaded
350
9C8
  3
Shaded with edges
350
9C7
  3
Shades of Gray
350
9C4
  3
Sketchy
350
9C5
  3
Thicken
350
9C0
  3
Wireframe
350
9BA
  3
X-Ray
350
9C6
  0
DICTIONARY
  5
BF2
102
{ACAD_REACTORS
330
9
102
}
330
9
100
AcDbDictionary
281
     1
  3
COLORDICT
350
BF3
  3
MATERIALDICT
350
BF4
  0
DICTIONARY
  5
95F
102
{ACAD_REACTORS
330
9
102
}
330
9
100
AcDbDictionary
281
     1
  3
CANNOSCALE
350
A0B
  3
CMLEADERSTYLE
350
A07
  3
CTABLESTYLE
350
A06
  3
CVIEWDETAILSTYLE
350
A08
  3
CVIEWSECTIONSTYLE
350
A09
  3
DIMASSOC
350
961
  3
HIDETEXT
350
960
  3
LAYEREVAL
350
A0D
  3
LAYERNOTIFY
350
A0E
  3
LIGHTINGUNITS
350
A0C
  3
MSLTSCALE
350
A0A
  3
XCLIPFRAME
350
B11
  0
XRECORD
  5
BF5
102
{ACAD_REACTORS
330
9
102
}
330
9
100
AcDbXrecord
280
     1
  1
DWGPROPS COOKIE
  2

  3

  4

  6

  7

  8
sg-d04
  9

300
=
301
=
302
=
303
=
304
=
305
=
306
=
307
=
308
=
309
=
 40
0.0
 41
2457345.443211678
 42
2457871.456968032
  1

 90
        0
  0
XRECORD
  5
BF7
102
{ACAD_REACTORS
330
BF6
102
}
330
BF6
100
AcDbXrecord
280
     1
102
VTR_0.000_0.000_1.000_1.000_VISUALSTYLE
340
9B9
102
VTR_0.000_0.000_1.000_1.000_GRIDDISPLAY
 70
     3
102
VTR_0.000_0.000_1.000_1.000_GRIDMAJOR
 70
     5
102
VTR_0.000_0.000_1.000_1.000_DEFAULTLIGHTING
280
     1
102
VTR_0.000_0.000_1.000_1.000_DEFAULTLIGHTINGTYPE
 70
     1
102
VTR_0.000_0.000_1.000_1.000_BRIGHTNESS
141
0.0
102
VTR_0.000_0.000_1.000_1.000_CONTRAST
142
0.0
  0
DICTIONARY
  5
9FB
102
{ACAD_REACTORS
330
9FA
102
}
330
9FA
100
AcDbDictionary
281
     1
  0
XRECORD
  5
9EC
102
{ACAD_REACTORS
330
9EB
102
}
330
9EB
100
AcDbXrecord
280
     1
290
     1
  0
XRECORD
  5
9EE
102
{ACAD_REACTORS
330
9ED
102
}
330
9ED
100
AcDbXrecord
280
     1
290
     1
  0
XRECORD
  5
9F0
102
{ACAD_REACTORS
330
9EF
102
}
330
9EF
100
AcDbXrecord
280
     1
290
     1
  0
XRECORD
  5
9F2
102
{ACAD_REACTORS
330
9F1
102
}
330
9F1
100
AcDbXrecord
280
     1
290
     1
  0
XRECORD
  5
9F4
102
{ACAD_REACTORS
330
9F3
102
}
330
9F3
100
AcDbXrecord
280
     1
290
     1
  0
XRECORD
  5
9F6
102
{ACAD_REACTORS
330
9F5
102
}
330
9F5
100
AcDbXrecord
280
     1
290
     1
  0
XRECORD
  5
32E
102
{ACAD_REACTORS
330
32C
102
}
330
32C
100
AcDbXrecord
280
     1
290
     1
  0
SORTENTSTABLE
  5
B19
102
{ACAD_REACTORS
330
B18
102
}
330
B18
100
AcDbSortentsTable
330
2
331
0
  5
B28
331
C7
  5
C8
331
C8
  5
C9
331
C9
  5
CA
331
CA
  5
CB
331
CB
  5
CC
331
CC
  5
CD
331
CD
  5
CE
331
CE
  5
CF
331
CF
  5
D0
331
D0
  5
D1
331
D1
  5
D2
331
D2
  5
D4
331
D3
  5
D6
331
D4
  5
D7
331
D5
  5
D8
331
D6
  5
D9
331
D7
  5
DA
331
DB
  5
DE
331
DD
  5
E0
331
DE
  5
E1
331
DF
  5
E2
331
E0
  5
E3
331
E1
  5
E4
331
E2
  5
E5
331
E3
  5
E6
331
E8
  5
EB
331
E9
  5
ED
331
ED
  5
F0
331
EE
  5
F1
331
EF
  5
F2
331
F0
  5
F3
331
F1
  5
F5
331
F3
  5
F6
331
F4
  5
F7
331
F5
  5
F8
331
FA
  5
FD
331
FB
  5
FE
331
FC
  5
FF
331
FD
  5
100
331
FE
  5
101
331
FF
  5
102
331
100
  5
103
331
101
  5
104
331
102
  5
105
331
103
  5
106
331
104
  5
107
331
105
  5
108
331
106
  5
109
331
107
  5
10A
331
108
  5
10B
331
109
  5
10C
331
10A
  5
10D
331
10B
  5
10E
331
10C
  5
10F
331
10D
  5
110
331
10E
  5
111
331
10F
  5
112
331
110
  5
113
331
111
  5
116
331
112
  5
117
331
113
  5
118
331
114
  5
119
331
11B
  5
120
331
11C
  5
121
331
11D
  5
122
331
11E
  5
123
331
11F
  5
124
331
120
  5
125
331
121
  5
126
331
122
  5
127
331
123
  5
128
331
124
  5
129
331
125
  5
12A
331
126
  5
12B
331
127
  5
12C
331
128
  5
12D
331
129
  5
12E
331
12A
  5
12F
331
12B
  5
130
331
12C
  5
131
331
12D
  5
132
331
12E
  5
133
331
12F
  5
134
331
130
  5
135
331
131
  5
136
331
132
  5
137
331
133
  5
138
331
134
  5
139
331
135
  5
13A
331
136
  5
13B
331
137
  5
13C
331
138
  5
13D
331
139
  5
13E
331
13A
  5
13F
331
13B
  5
140
331
13C
  5
141
331
13D
  5
142
331
13E
  5
143
331
13F
  5
144
331
140
  5
145
331
141
  5
146
331
142
  5
147
331
143
  5
148
331
144
  5
149
331
145
  5
14A
331
146
  5
14B
331
147
  5
14C
331
148
  5
14D
331
149
  5
14E
331
14A
  5
14F
331
14B
  5
150
331
14C
  5
151
331
14D
  5
152
331
14E
  5
153
331
14F
  5
154
331
150
  5
155
331
151
  5
156
331
152
  5
157
331
153
  5
158
331
154
  5
159
331
155
  5
15A
331
156
  5
15B
331
158
  5
15D
331
159
  5
15E
331
15A
  5
15F
331
15B
  5
160
331
15C
  5
161
331
15D
  5
162
331
15E
  5
163
331
15F
  5
164
331
160
  5
165
331
161
  5
166
331
162
  5
167
331
163
  5
168
331
164
  5
169
331
165
  5
16A
331
166
  5
16B
331
167
  5
16D
331
168
  5
16E
331
169
  5
16F
331
16B
  5
170
331
16C
  5
171
331
16D
  5
172
331
16E
  5
173
331
16F
  5
174
331
170
  5
175
331
171
  5
176
331
172
  5
177
331
173
  5
178
331
174
  5
179
331
175
  5
17A
331
176
  5
17B
331
177
  5
17C
331
178
  5
17D
331
179
  5
17E
331
17A
  5
17F
331
17B
  5
180
331
17C
  5
181
331
17D
  5
182
331
17E
  5
183
331
17F
  5
184
331
180
  5
185
331
181
  5
186
331
183
  5
188
331
184
  5
189
331
185
  5
18A
331
186
  5
18B
331
187
  5
18C
331
188
  5
18D
331
189
  5
18E
331
18A
  5
18F
331
18B
  5
190
331
18C
  5
191
331
18D
  5
192
331
18E
  5
193
331
18F
  5
194
331
190
  5
195
331
191
  5
196
331
192
  5
197
331
193
  5
198
331
194
  5
199
331
195
  5
19A
331
196
  5
19B
331
197
  5
19C
331
198
  5
19D
331
199
  5
19E
331
19A
  5
19F
331
19C
  5
1A1
331
19D
  5
1A2
331
19E
  5
1A3
331
19F
  5
1A4
331
1A0
  5
1A5
331
1A1
  5
1A6
331
1A3
  5
1A8
331
1A4
  5
1A9
331
1A5
  5
1AA
331
1A6
  5
1AB
331
1A7
  5
1AC
331
1A8
  5
1AD
331
1A9
  5
1AE
331
1AA
  5
1AF
331
1B3
  5
1B8
331
1B4
  5
1B9
331
1B5
  5
1BA
331
1B6
  5
1BB
331
1B7
  5
1BC
331
1B8
  5
1BD
331
1B9
  5
1BE
331
1BA
  5
1BF
331
1BB
  5
1C0
331
1BC
  5
1C1
331
1BD
  5
1C2
331
1BE
  5
1C3
331
1BF
  5
1C4
331
1C0
  5
1C5
331
1C1
  5
1C6
331
1C2
  5
1C7
331
1C3
  5
1C8
331
1C4
  5
1C9
331
1C5
  5
1CA
331
1C6
  5
1CB
331
1C7
  5
1CC
331
1C8
  5
1CD
331
1C9
  5
1CE
331
1CA
  5
1CF
331
1CB
  5
1D0
331
1CC
  5
1D1
331
1CD
  5
1D2
331
1CE
  5
1D3
331
1CF
  5
1D4
331
1D0
  5
1D5
331
1D1
  5
1D6
331
1D2
  5
1D7
331
1D3
  5
1D8
331
1D4
  5
1D9
331
1D5
  5
1DA
331
1D6
  5
1DB
331
1D7
  5
1DC
331
1D8
  5
1DD
331
1D9
  5
1DE
331
1DA
  5
1DF
331
1DB
  5
1E0
331
1DC
  5
1E1
331
1DD
  5
1E3
331
1DE
  5
1E4
331
1DF
  5
1E5
331
1E1
  5
1E6
331
1E2
  5
1E7
331
1E3
  5
1E8
331
1E4
  5
1E9
331
1E5
  5
1EA
331
1E6
  5
1EB
331
1E7
  5
1EC
331
1E8
  5
1ED
331
1E9
  5
1EE
331
1EA
  5
1EF
331
1EB
  5
1F0
331
1EC
  5
1F1
331
1ED
  5
1F2
331
1EE
  5
1F3
331
1EF
  5
1F4
331
1F0
  5
1F5
331
1F1
  5
1F6
331
1F2
  5
1F7
331
1F3
  5
1F8
331
1F4
  5
1F9
331
1F5
  5
1FA
331
1F6
  5
1FB
331
1F7
  5
1FC
331
1F8
  5
1FD
331
1F9
  5
1FE
331
1FA
  5
1FF
331
1FB
  5
200
331
1FC
  5
201
331
1FD
  5
202
331
1FE
  5
203
331
1FF
  5
204
331
200
  5
205
331
201
  5
206
331
202
  5
207
331
203
  5
208
331
204
  5
209
331
205
  5
20A
331
206
  5
20B
331
207
  5
20C
331
208
  5
20D
331
209
  5
20E
331
20A
  5
20F
331
20B
  5
210
331
20C
  5
219
331
20D
  5
21A
331
20E
  5
21B
331
264
  5
269
331
266
  5
26B
331
26F
  5
274
331
270
  5
275
331
271
  5
276
331
272
  5
277
331
273
  5
278
331
279
  5
27E
331
36B
  5
370
331
36C
  5
373
331
36D
  5
37C
331
36E
  5
37D
331
36F
  5
37E
331
37A
  5
381
331
37B
  5
382
331
37C
  5
383
331
386
  5
38D
331
387
  5
38E
331
388
  5
38F
331
389
  5
390
331
38A
  5
391
331
38B
  5
392
331
38C
  5
393
331
38D
  5
394
331
38E
  5
395
331
38F
  5
396
331
390
  5
397
331
391
  5
398
331
392
  5
399
331
393
  5
39A
331
394
  5
39B
331
395
  5
39C
331
396
  5
39D
331
397
  5
39E
331
398
  5
3A0
331
399
  5
3A1
331
39A
  5
3A2
331
39C
  5
3A3
331
39D
  5
3AF
331
39E
  5
3B0
331
39F
  5
3B1
331
3AB
  5
3B2
331
3AC
  5
3B3
331
3AD
  5
3B4
331
3AE
  5
3B5
331
3AF
  5
3B6
331
3B0
  5
3B7
331
3B1
  5
3B8
331
3B2
  5
3B9
331
3B3
  5
3BA
331
3B4
  5
3BB
331
3B5
  5
3BC
331
3B6
  5
3BD
331
3B7
  5
3C2
331
3B8
  5
3C3
331
3B9
  5
3C4
331
3BE
  5
3C5
331
3BF
  5
3C6
331
3C0
  5
3CB
331
3C1
  5
3CC
331
3C2
  5
3CD
331
3C7
  5
3CE
331
3C8
  5
3CF
331
3C9
  5
3D0
331
3CA
  5
3D1
331
3CB
  5
3D2
331
3CC
  5
3D3
331
3CD
  5
3D4
331
3CE
  5
3D5
331
3CF
  5
3D6
331
3D0
  5
3D7
331
3D1
  5
3D8
331
3D2
  5
3D9
331
3D3
  5
3DA
331
3D4
  5
3DB
331
3D5
  5
3DC
331
3D6
  5
3DD
331
3D7
  5
3DE
331
3D8
  5
3DF
331
3D9
  5
3E0
331
3DA
  5
3E1
331
3DB
  5
3E2
331
3DC
  5
3E3
331
3DD
  5
3E4
331
3DE
  5
3E5
331
3DF
  5
3E6
331
3E0
  5
3E7
331
3E1
  5
3E8
331
3E2
  5
3E9
331
3E3
  5
3EA
331
3E4
  5
3EB
331
3E5
  5
3EC
331
3E6
  5
3ED
331
3E7
  5
3EE
331
3E8
  5
3EF
331
3E9
  5
3F0
331
3EA
  5
3F1
331
3EB
  5
3F2
331
3EC
  5
3F3
331
3ED
  5
3F4
331
3EE
  5
3F5
331
3EF
  5
3F6
331
3F0
  5
3F7
331
3F1
  5
3F8
331
3F2
  5
3FB
331
3F3
  5
3FC
331
3F4
  5
3FD
331
3F7
  5
3FE
331
3F8
  5
3FF
331
3F9
  5
403
331
3FA
  5
404
331
3FB
  5
405
331
3FF
  5
406
331
400
  5
407
331
401
  5
408
331
402
  5
409
331
403
  5
40E
331
404
  5
40F
331
405
  5
410
331
40A
  5
411
331
40B
  5
412
331
40C
  5
413
331
40D
  5
414
331
40E
  5
416
331
40F
  5
417
331
410
  5
418
331
411
  5
419
331
412
  5
41A
331
414
  5
41C
331
415
  5
41D
331
416
  5
41E
331
417
  5
41F
331
418
  5
420
331
41A
  5
421
331
41B
  5
422
331
41C
  5
423
331
41D
  5
424
331
41E
  5
425
331
41F
  5
426
331
420
  5
427
331
421
  5
428
331
422
  5
429
331
423
  5
42A
331
424
  5
42B
331
425
  5
42C
331
426
  5
42D
331
427
  5
42E
331
428
  5
42F
331
429
  5
430
331
42A
  5
431
331
42B
  5
432
331
42C
  5
433
331
42D
  5
434
331
42E
  5
435
331
42F
  5
436
331
430
  5
437
331
431
  5
438
331
432
  5
439
331
433
  5
43A
331
434
  5
43B
331
435
  5
43C
331
436
  5
43D
331
437
  5
43E
331
438
  5
43F
331
439
  5
440
331
43A
  5
441
331
43B
  5
442
331
43C
  5
443
331
43D
  5
444
331
43E
  5
445
331
43F
  5
446
331
440
  5
447
331
441
  5
448
331
442
  5
449
331
443
  5
44A
331
444
  5
44B
331
445
  5
44C
331
446
  5
44D
331
447
  5
44E
331
448
  5
44F
331
449
  5
450
331
44A
  5
451
331
44B
  5
452
331
44C
  5
453
331
44D
  5
454
331
44E
  5
455
331
44F
  5
456
331
450
  5
457
331
451
  5
458
331
452
  5
459
331
453
  5
45A
331
454
  5
45B
331
455
  5
45C
331
456
  5
45D
331
457
  5
45E
331
458
  5
45F
331
459
  5
460
331
45A
  5
461
331
45B
  5
462
331
45C
  5
463
331
45D
  5
464
331
45E
  5
465
331
45F
  5
466
331
460
  5
467
331
461
  5
468
331
462
  5
469
331
463
  5
46A
331
464
  5
46B
331
465
  5
46C
331
466
  5
46D
331
467
  5
46E
331
468
  5
46F
331
469
  5
470
331
46A
  5
471
331
46B
  5
472
331
46C
  5
473
331
46D
  5
474
331
46E
  5
475
331
46F
  5
476
331
470
  5
477
331
471
  5
479
331
472
  5
47A
331
473
  5
47C
331
478
  5
482
331
47B
  5
551
331
47C
  5
552
331
543
  5
553
331
54A
  5
557
331
54B
  5
A17
331
54C
  5
A18
331
54F
  5
A19
331
A10
  5
A1A
331
A11
  5
A1B
331
A12
  5
A1C
331
A13
  5
A1D
331
A14
  5
A1E
331
A15
  5
A1F
331
A16
  5
A20
331
A17
  5
A21
331
A18
  5
A22
331
A19
  5
A23
331
A1A
  5
A24
331
A1B
  5
A25
331
A1C
  5
A26
331
A1D
  5
A27
331
A1E
  5
A28
331
A1F
  5
A29
331
A20
  5
A2A
331
A21
  5
A2B
331
A22
  5
A2C
331
A23
  5
A2D
331
A24
  5
A2E
331
A25
  5
A2F
331
A26
  5
A30
331
A27
  5
A31
331
A28
  5
A32
331
A29
  5
A33
331
A2A
  5
A34
331
A2B
  5
A35
331
A2C
  5
A36
331
A2D
  5
A37
331
A2E
  5
A38
331
A2F
  5
A39
331
A30
  5
A3A
331
A31
  5
A3B
331
A32
  5
A3C
331
A33
  5
A3D
331
A34
  5
A3E
331
A35
  5
A3F
331
A36
  5
A40
331
A37
  5
A41
331
A38
  5
A42
331
A39
  5
A43
331
A3A
  5
A44
331
A3B
  5
A45
331
A3C
  5
A46
331
A3D
  5
A47
331
A3E
  5
A48
331
A3F
  5
A49
331
A40
  5
A4A
331
A41
  5
A4B
331
A42
  5
A4C
331
A43
  5
A4D
331
A44
  5
A4E
331
A45
  5
A4F
331
A46
  5
A50
331
A47
  5
A51
331
A48
  5
A52
331
A49
  5
A53
331
A4A
  5
A54
331
A4B
  5
A55
331
A4C
  5
A56
331
A4D
  5
A57
331
A4E
  5
A58
331
A4F
  5
A59
331
A50
  5
A5A
331
A51
  5
A5B
331
A52
  5
A5C
331
A53
  5
A5D
331
A54
  5
A5E
331
A55
  5
A5F
331
A56
  5
A60
331
A57
  5
A61
331
A58
  5
A62
331
A59
  5
A63
331
A5A
  5
A64
331
A5B
  5
A65
331
A5C
  5
A66
331
A5D
  5
A67
331
A5E
  5
A68
331
A5F
  5
A69
331
A60
  5
A6A
331
A61
  5
A6B
331
A62
  5
A6C
331
A63
  5
A6D
331
A64
  5
A6E
331
A65
  5
A6F
331
A66
  5
A70
331
A67
  5
A71
331
A68
  5
A72
331
A69
  5
A73
331
A6A
  5
A74
331
A6B
  5
A75
331
A6C
  5
A76
331
A6D
  5
A77
331
A6E
  5
A78
331
A6F
  5
A79
331
A70
  5
A7A
331
A71
  5
A7B
331
A72
  5
A7C
331
A73
  5
A7D
331
A74
  5
A7E
331
A75
  5
A7F
331
A76
  5
A80
331
A77
  5
A81
331
A78
  5
A82
331
A79
  5
A83
331
A7A
  5
A84
331
A7B
  5
A85
331
A7C
  5
A86
331
A7D
  5
A87
331
A7E
  5
A88
331
A7F
  5
A89
331
A80
  5
A8A
331
A81
  5
A8B
331
A82
  5
A8C
331
A83
  5
A8D
331
A84
  5
A8E
331
A85
  5
A8F
331
A86
  5
A90
331
A87
  5
A91
331
A88
  5
A92
331
A89
  5
A93
331
A8A
  5
A94
331
A8B
  5
A95
331
A8C
  5
A96
331
A8D
  5
A97
331
A8E
  5
A98
331
A8F
  5
A99
331
A90
  5
A9A
331
A91
  5
A9B
331
A92
  5
A9C
331
A93
  5
A9D
331
A94
  5
A9E
331
A95
  5
A9F
331
A96
  5
AA3
331
A97
  5
AA4
331
A98
  5
AA5
331
A9C
  5
AA6
331
A9D
  5
AA7
331
A9E
  5
AA8
331
A9F
  5
AA9
331
AA0
  5
AAA
331
AA1
  5
AAB
331
AA2
  5
AAC
331
AA3
  5
AAD
331
AA4
  5
AAE
331
AA5
  5
AAF
331
AA6
  5
AB0
331
AA7
  5
AB1
331
AA8
  5
AB2
331
AA9
  5
AB3
331
AAA
  5
AB4
331
AAB
  5
AB5
331
AAC
  5
AB6
331
AAD
  5
AB7
331
AAE
  5
AB8
331
AAF
  5
AB9
331
AB0
  5
ABA
331
AB1
  5
ABB
331
AB2
  5
ABC
331
AB3
  5
ABD
331
AB4
  5
ABE
331
AB5
  5
ABF
331
AB6
  5
AC0
331
AB7
  5
AC1
331
AB8
  5
AC2
331
AB9
  5
AC3
331
ABA
  5
AC4
331
ABB
  5
AC5
331
ABC
  5
AC6
331
ABD
  5
AC7
331
ABE
  5
AC8
331
ABF
  5
AC9
331
AC0
  5
ACA
331
AC1
  5
ACB
331
AC2
  5
ACC
331
AC3
  5
ACD
331
AC4
  5
ACE
331
AC5
  5
ACF
331
AC6
  5
AD0
331
AC7
  5
AD7
331
AC8
  5
ADB
331
AC9
  5
ADC
331
AD0
  5
ADD
331
AD4
  5
ADE
331
AD5
  5
ADF
331
AD6
  5
AE0
331
AD7
  5
AE1
331
AD8
  5
AE2
331
AD9
  5
AE3
331
ADA
  5
AE4
331
ADB
  5
AE5
331
ADC
  5
AE6
331
ADD
  5
AE7
331
ADE
  5
AE8
331
ADF
  5
AE9
331
AE0
  5
AEA
331
AE1
  5
AEB
331
AE2
  5
AEC
331
AE3
  5
AED
331
AE4
  5
AEE
331
AE5
  5
AEF
331
AE6
  5
AF0
331
AE7
  5
AF1
331
AE8
  5
AF2
331
AE9
  5
AF3
331
AEA
  5
AF4
331
AEB
  5
AF5
331
AEC
  5
AF6
331
AED
  5
AF7
331
AEE
  5
AF8
331
AEF
  5
AF9
331
AF0
  5
AFA
331
AF1
  5
AFB
331
AF2
  5
AFC
331
AF3
  5
AFD
331
AF4
  5
AFE
331
AF5
  5
AFF
331
AF6
  5
B00
331
AF7
  5
B01
331
AF8
  5
B02
331
AF9
  5
B03
331
AFA
  5
B04
331
AFB
  5
B05
331
AFC
  5
B06
331
AFD
  5
B07
331
AFE
  5
B08
331
AFF
  5
B09
331
B00
  5
B0A
331
B01
  5
B0B
331
B02
  5
B0C
331
B03
  5
B0D
331
B04
  5
B0E
331
B05
  5
B0F
331
B06
  5
B12
331
B07
  5
B1F
331
B08
  5
B20
331
B0A
  5
B21
331
B0F
  5
B23
331
B10
  5
B25
331
B1D
  5
B27
331
B6E
  5
B71
331
B6F
  5
B72
331
B70
  5
B73
331
B71
  5
B74
331
B72
  5
B75
331
B73
  5
B76
331
B74
  5
B77
331
B75
  5
B78
331
B76
  5
B79
331
B77
  5
B7A
331
B78
  5
B7B
331
B79
  5
B7C
331
B7A
  5
B7E
331
B7B
  5
B7F
331
B7C
  5
B80
331
B95
  5
B98
331
B96
  5
B99
331
B97
  5
B9A
331
B98
  5
B9B
331
B99
  5
B9C
331
B9A
  5
B9D
331
B9B
  5
B9E
331
B9C
  5
B9F
331
B9D
  5
BA0
331
B9E
  5
BA1
331
B9F
  5
BA2
331
BA0
  5
BA3
331
BA1
  5
BA4
331
BA2
  5
BA5
331
BA3
  5
BA6
331
BA4
  5
BA7
331
BA5
  5
BA8
331
BA6
  5
BAA
331
BA7
  5
BAB
331
BA8
  5
BAC
331
BAA
  5
BAD
331
BAB
  5
BAE
331
BAC
  5
BB0
331
BAD
  5
BB3
331
BAE
  5
BB4
331
BB0
  5
BB5
331
BDD
  5
BE0
  0
ACDBDETAILVIEWSTYLE
  5
9E6
102
{ACAD_REACTORS
330
9E5
102
}
102
{ACAD_XDICTIONARY
360
A03
102
}
330
9E5
100
AcDbModelDocViewStyle
 70
     0
  3
Imperial24
290
     0
100
AcDbDetailViewStyle
 70
     0
 71
     0
 90
        3
 71
     1
340
16
 40
0.24
340
0
 40
0.24
300

 40
0.36
280
     3
 71
     2
340
A
 90
       25
 71
     3
340
16
 40
0.24
 90
        1
 40
0.75
 90
        1
300
%<\AcVar ViewType \f "%tc1">% %<\AcVar ViewDetailId>%\PSCALE %<\AcVar ViewScale \f "%sn">%
 71
     4
340
A
 90
       25
340
A
 90
       25
280
     0
  0
LAYOUT
  5
C
102
{ACAD_REACTORS
330
D
102
}
330
D
100
AcDbPlotSettings
  1

  2
Bullzip PDF Printer.pc3
  4
A3
  6

 40
0.2
 41
0.0
 42
0.0
 43
0.0
 44
420.2
 45
297.1
 46
25.0
 47
12.0
 48
89.99999984133319
 49
20.0
140
1617.999996341333
141
1109.999997456667
142
1.0
143
4.0
 70
 11936
 72
     1
 73
     0
 74
     4
  7
monochrome.ctb
 75
     0
147
1.0
148
-89.99999984133319
149
-20.0
100
AcDbLayout
  1
Model
 70
     1
 71
     0
 10
0.0
 20
0.0
 11
12.0
 21
9.0
 12
0.0
 22
0.0
 32
0.0
 14
112.4530808199549
 24
41.95577084395705
 34
0.0
 15
1375.369348321046
 25
1135.699488123992
 35
0.0
146
0.0
 13
0.0
 23
0.0
 33
0.0
 16
1.0
 26
0.0
 36
0.0
 17
0.0
 27
1.0
 37
0.0
 76
     0
330
2
331
998
1001
ACAD_PSEXT
1000
Bullzip PDF Printer.pc3
1000
Bullzip PDF Printer
1000
BULLZIP
1000
Bullzip PDF Printer 10.1.0.1871
1070
     0
  0
LAYOUT
  5
13
102
{ACAD_REACTORS
330
D
102
}
330
D
100
AcDbPlotSettings
  1

  2
SR-LP8300F
  4

  6

 40
0.0
 41
0.0
 42
0.0
 43
0.0
 44
0.0
 45
0.0
 46
0.0
 47
0.0
 48
0.0
 49
0.0
140
0.0
141
0.0
142
1.0
143
1.0
 70
   688
 72
     0
 73
     0
 74
     5
  7
monochrome.ctb
 75
    16
147
1.0
148
0.0
149
0.0
100
AcDbLayout
  1
ﾚｲｱｳﾄ1
 70
     1
 71
     1
 10
0.0
 20
0.0
 11
12.0
 21
9.0
 12
0.0
 22
0.0
 32
0.0
 14
1.000000000000000E+20
 24
1.000000000000000E+20
 34
1.000000000000000E+20
 15
-1.000000000000000E+20
 25
-1.000000000000000E+20
 35
-1.000000000000000E+20
146
0.0
 13
0.0
 23
0.0
 33
0.0
 16
1.0
 26
0.0
 36
0.0
 17
0.0
 27
1.0
 37
0.0
 76
     0
330
E
  0
MATERIAL
  5
9A3
102
{ACAD_REACTORS
330
99A
102
}
102
{ACAD_XDICTIONARY
360
BF9
102
}
330
99A
100
AcDbMaterial
  1
ByBlock
 72
     0
 73
     2
 43
0.0208333333333333
 43
0.0
 43
0.0
 43
0.0
 43
0.0
 43
0.0208333333333333
 43
0.0
 43
0.0
 43
0.0
 43
0.0
 43
1.0
 43
0.0
 43
0.0
 43
0.0
 43
0.0
 43
1.0
 77
     0
 78
     2
 47
0.0208333333333333
 47
0.0
 47
0.0
 47
0.0
 47
0.0
 47
0.0208333333333333
 47
0.0
 47
0.0
 47
0.0
 47
0.0
 47
1.0
 47
0.0
 47
0.0
 47
0.0
 47
0.0
 47
1.0
171
     0
172
     2
 49
0.0208333333333333
 49
0.0
 49
0.0
 49
0.0
 49
0.0
 49
0.0208333333333333
 49
0.0
 49
0.0
 49
0.0
 49
0.0
 49
1.0
 49
0.0
 49
0.0
 49
0.0
 49
0.0
 49
1.0
175
     0
176
     2
142
0.0208333333333333
142
0.0
142
0.0
142
0.0
142
0.0
142
0.0208333333333333
142
0.0
142
0.0
142
0.0
142
0.0
142
1.0
142
0.0
142
0.0
142
0.0
142
0.0
142
1.0
179
     0
270
     2
144
0.0208333333333333
144
0.0
144
0.0
144
0.0
144
0.0
144
0.0208333333333333
144
0.0
144
0.0
144
0.0
144
0.0
144
1.0
144
0.0
144
0.0
144
0.0
144
0.0
144
1.0
274
     2
147
0.0208333333333333
147
0.0
147
0.0
147
0.0
147
0.0
147
0.0208333333333333
147
0.0
147
0.0
147
0.0
147
0.0
147
1.0
147
0.0
147
0.0
147
0.0
147
0.0
147
1.0
  0
MATERIAL
  5
99B
102
{ACAD_REACTORS
330
99A
102
}
102
{ACAD_XDICTIONARY
360
BFB
102
}
330
99A
100
AcDbMaterial
  1
ByLayer
 72
     0
 73
     2
 43
0.0208333333333333
 43
0.0
 43
0.0
 43
0.0
 43
0.0
 43
0.0208333333333333
 43
0.0
 43
0.0
 43
0.0
 43
0.0
 43
1.0
 43
0.0
 43
0.0
 43
0.0
 43
0.0
 43
1.0
 77
     0
 78
     2
 47
0.0208333333333333
 47
0.0
 47
0.0
 47
0.0
 47
0.0
 47
0.0208333333333333
 47
0.0
 47
0.0
 47
0.0
 47
0.0
 47
1.0
 47
0.0
 47
0.0
 47
0.0
 47
0.0
 47
1.0
171
     0
172
     2
 49
0.0208333333333333
 49
0.0
 49
0.0
 49
0.0
 49
0.0
 49
0.0208333333333333
 49
0.0
 49
0.0
 49
0.0
 49
0.0
 49
1.0
 49
0.0
 49
0.0
 49
0.0
 49
0.0
 49
1.0
175
     0
176
     2
142
0.0208333333333333
142
0.0
142
0.0
142
0.0
142
0.0
142
0.0208333333333333
142
0.0
142
0.0
142
0.0
142
0.0
142
1.0
142
0.0
142
0.0
142
0.0
142
0.0
142
1.0
179
     0
270
     2
144
0.0208333333333333
144
0.0
144
0.0
144
0.0
144
0.0
144
0.0208333333333333
144
0.0
144
0.0
144
0.0
144
0.0
144
1.0
144
0.0
144
0.0
144
0.0
144
0.0
144
1.0
274
     2
147
0.0208333333333333
147
0.0
147
0.0
147
0.0
147
0.0
147
0.0208333333333333
147
0.0
147
0.0
147
0.0
147
0.0
147
1.0
147
0.0
147
0.0
147
0.0
147
0.0
147
1.0
  0
MATERIAL
  5
9AB
102
{ACAD_REACTORS
330
99A
102
}
102
{ACAD_XDICTIONARY
360
BFD
102
}
330
99A
100
AcDbMaterial
  1
Global
 72
     0
 73
     2
 43
0.0208333333333333
 43
0.0
 43
0.0
 43
0.0
 43
0.0
 43
0.0208333333333333
 43
0.0
 43
0.0
 43
0.0
 43
0.0
 43
1.0
 43
0.0
 43
0.0
 43
0.0
 43
0.0
 43
1.0
 77
     0
 78
     2
 47
0.0208333333333333
 47
0.0
 47
0.0
 47
0.0
 47
0.0
 47
0.0208333333333333
 47
0.0
 47
0.0
 47
0.0
 47
0.0
 47
1.0
 47
0.0
 47
0.0
 47
0.0
 47
0.0
 47
1.0
171
     0
172
     2
 49
0.0208333333333333
 49
0.0
 49
0.0
 49
0.0
 49
0.0
 49
0.0208333333333333
 49
0.0
 49
0.0
 49
0.0
 49
0.0
 49
1.0
 49
0.0
 49
0.0
 49
0.0
 49
0.0
 49
1.0
175
     0
176
     2
142
0.0208333333333333
142
0.0
142
0.0
142
0.0
142
0.0
142
0.0208333333333333
142
0.0
142
0.0
142
0.0
142
0.0
142
1.0
142
0.0
142
0.0
142
0.0
142
0.0
142
1.0
179
     0
270
     2
144
0.0208333333333333
144
0.0
144
0.0
144
0.0
144
0.0
144
0.0208333333333333
144
0.0
144
0.0
144
0.0
144
0.0
144
1.0
144
0.0
144
0.0
144
0.0
144
0.0
144
1.0
274
     2
147
0.0208333333333333
147
0.0
147
0.0
147
0.0
147
0.0
147
0.0208333333333333
147
0.0
147
0.0
147
0.0
147
0.0
147
1.0
147
0.0
147
0.0
147
0.0
147
0.0
147
1.0
1001
ACAD
1070
    -1
1070
     3
1070
     0
1000

1071
        0
  0
MLEADERSTYLE
  5
9E2
102
{ACAD_REACTORS
330
9E1
102
}
102
{ACAD_XDICTIONARY
360
BFF
102
}
330
9E1
100
AcDbMLeaderStyle
170
     2
171
     1
172
     0
 90
        2
 40
0.0
 41
0.0
173
     1
 91
-1056964608
340
19
 92
       -2
290
     1
 42
0.09
291
     1
 43
0.36
  3
Standard
341
0
 44
0.18
300

342
16
174
     1
178
     6
175
     1
176
     0
 93
-1056964608
 45
0.18
292
     0
297
     0
 46
0.18
343
0
 94
-1056964608
 47
1.0
 49
1.0
140
1.0
293
     1
141
0.0
294
     1
177
     0
142
1.0
295
     1
296
     0
143
0.125
1001
ACAD_MLEADERVER
1070
     2
  0
MLINESTYLE
  5
28
102
{ACAD_REACTORS
330
24
102
}
330
24
100
AcDbMlineStyle
  2
STANDARD
 70
     0
  3

 62
     0
 51
90.0
 52
90.0
 71
     2
 49
0.5
 62
   256
  6
BYLAYER
 49
-0.5
 62
   256
  6
BYLAYER
  0
ACDBPLACEHOLDER
  5
7
102
{ACAD_REACTORS
330
8
102
}
330
8
  0
SCALE
  5
9D0
102
{ACAD_REACTORS
330
9CF
102
}
330
9CF
100
AcDbScale
 70
     0
300
1:1
140
1.0
141
1.0
290
     1
  0
SCALE
  5
9D1
102
{ACAD_REACTORS
330
9CF
102
}
330
9CF
100
AcDbScale
 70
     0
300
1/128" = 1'-0"
140
0.0078125
141
12.0
290
     0
  0
SCALE
  5
9D2
102
{ACAD_REACTORS
330
9CF
102
}
330
9CF
100
AcDbScale
 70
     0
300
1/64" = 1'-0"
140
0.015625
141
12.0
290
     0
  0
SCALE
  5
9D3
102
{ACAD_REACTORS
330
9CF
102
}
330
9CF
100
AcDbScale
 70
     0
300
1/32" = 1'-0"
140
0.03125
141
12.0
290
     0
  0
SCALE
  5
9D4
102
{ACAD_REACTORS
330
9CF
102
}
330
9CF
100
AcDbScale
 70
     0
300
1/16" = 1'-0"
140
0.0625
141
12.0
290
     0
  0
SCALE
  5
9D5
102
{ACAD_REACTORS
330
9CF
102
}
330
9CF
100
AcDbScale
 70
     0
300
3/32" = 1'-0"
140
0.09375
141
12.0
290
     0
  0
SCALE
  5
9D6
102
{ACAD_REACTORS
330
9CF
102
}
330
9CF
100
AcDbScale
 70
     0
300
1/8" = 1'-0"
140
0.125
141
12.0
290
     0
  0
SCALE
  5
9D7
102
{ACAD_REACTORS
330
9CF
102
}
330
9CF
100
AcDbScale
 70
     0
300
3/16" = 1'-0"
140
0.1875
141
12.0
290
     0
  0
SCALE
  5
9D8
102
{ACAD_REACTORS
330
9CF
102
}
330
9CF
100
AcDbScale
 70
     0
300
1/4" = 1'-0"
140
0.25
141
12.0
290
     0
  0
SCALE
  5
9D9
102
{ACAD_REACTORS
330
9CF
102
}
330
9CF
100
AcDbScale
 70
     0
300
3/8" = 1'-0"
140
0.375
141
12.0
290
     0
  0
SCALE
  5
9DA
102
{ACAD_REACTORS
330
9CF
102
}
330
9CF
100
AcDbScale
 70
     0
300
1/2" = 1'-0"
140
0.5
141
12.0
290
     0
  0
SCALE
  5
9DB
102
{ACAD_REACTORS
330
9CF
102
}
330
9CF
100
AcDbScale
 70
     0
300
3/4" = 1'-0"
140
0.75
141
12.0
290
     0
  0
SCALE
  5
9DC
102
{ACAD_REACTORS
330
9CF
102
}
330
9CF
100
AcDbScale
 70
     0
300
1" = 1'-0"
140
1.0
141
12.0
290
     0
  0
SCALE
  5
9DD
102
{ACAD_REACTORS
330
9CF
102
}
330
9CF
100
AcDbScale
 70
     0
300
1-1/2" = 1'-0"
140
1.5
141
12.0
290
     0
  0
SCALE
  5
9DE
102
{ACAD_REACTORS
330
9CF
102
}
330
9CF
100
AcDbScale
 70
     0
300
3" = 1'-0"
140
3.0
141
12.0
290
     0
  0
SCALE
  5
9DF
102
{ACAD_REACTORS
330
9CF
102
}
330
9CF
100
AcDbScale
 70
     0
300
6" = 1'-0"
140
6.0
141
12.0
290
     0
  0
SCALE
  5
9E0
102
{ACAD_REACTORS
330
9CF
102
}
330
9CF
100
AcDbScale
 70
     0
300
1'-0" = 1'-0"
140
12.0
141
12.0
290
     0
  0
ACDBSECTIONVIEWSTYLE
  5
9E4
102
{ACAD_REACTORS
330
9E3
102
}
102
{ACAD_XDICTIONARY
360
A01
102
}
330
9E3
100
AcDbModelDocViewStyle
 70
     0
  3
Imperial24
290
     0
100
AcDbSectionViewStyle
 70
     0
 71
     0
 90
       78
 71
     1
340
16
 40
0.24
340
0
340
0
 40
0.24
300
I, O, Q, S, X, Z
 40
0.48
 90
        3
 40
0.18
 90
        1
 71
     2
340
A
 90
       25
340
A
 90
       50
 40
0.24
 40
0.0
 40
0.24
 71
     3
340
16
 40
0.24
 90
        1
 40
0.75
 90
        1
300
%<\AcVar ViewType \f "%tc1">% %<\AcVar ViewSectionStartId>%-%<\AcVar ViewSectionEndId>%\PSCALE %<\AcVar ViewScale \f "%sn">%
 71
     4
300
ANSI31
 40
1.0
 90
        0
290
     0
290
     0
 90
        6
 40
0.0
 40
1.570796326794897
 40
0.2617993877991494
 40
1.308996938995747
 40
-0.2617993877991494
 40
1.832595714594046
  0
TABLESTYLE
  5
9CE
102
{ACAD_REACTORS
330
9CD
102
}
330
9CD
100
AcDbTableStyle
  3
Standard
 70
     0
 71
     0
 40
0.06
 41
0.06
280
     0
281
     0
  7
STANDARD
140
0.18
170
     2
 62
     0
 63
   257
283
     0
274
    -2
284
     1
 64
     0
275
    -2
285
     1
 65
     0
276
    -2
286
     1
 66
     0
277
    -2
287
     1
 67
     0
278
    -2
288
     1
 68
     0
279
    -2
289
     1
 69
     0
  7
STANDARD
140
0.25
170
     5
 62
     0
 63
   257
283
     0
274
    -2
284
     1
 64
     0
275
    -2
285
     1
 65
     0
276
    -2
286
     1
 66
     0
277
    -2
287
     1
 67
     0
278
    -2
288
     1
 68
     0
279
    -2
289
     1
 69
     0
  7
STANDARD
140
0.18
170
     5
 62
     0
 63
   257
283
     0
274
    -2
284
     1
 64
     0
275
    -2
285
     1
 65
     0
276
    -2
286
     1
 66
     0
277
    -2
287
     1
 67
     0
278
    -2
288
     1
 68
     0
279
    -2
289
     1
 69
     0
  0
VISUALSTYLE
  5
9B9
102
{ACAD_REACTORS
330
9B3
102
}
102
{ACAD_XDICTIONARY
360
C02
102
}
330
9B3
100
AcDbVisualStyle
  2
2dWireframe
 70
     4
 71
     0
 72
     2
 73
     0
 90
        0
 40
0.6
 41
30.0
 62
     5
 63
     7
 74
     1
 91
        4
 64
     7
 65
   257
 75
     1
175
     1
 42
1.0
 92
        0
 66
   257
 43
1.0
 76
     1
 77
     6
 78
     2
 67
     7
 79
     5
170
     0
171
     0
290
     0
174
     0
 93
        1
 44
0.0
173
     0
291
     0
 45
0.0
1001
ACAD
1000
AcDbSavedByObjectVersion
1070
     0
  0
VISUALSTYLE
  5
9B8
102
{ACAD_REACTORS
330
9B3
102
}
102
{ACAD_XDICTIONARY
360
C04
102
}
330
9B3
100
AcDbVisualStyle
  2
Basic
 70
     7
 71
     1
 72
     0
 73
     1
 90
        0
 40
0.6
 41
30.0
 62
     5
 63
     7
 74
     0
 91
        4
 64
     7
 65
   257
 75
     1
175
     1
 42
1.0
 92
        8
 66
     7
 43
1.0
 76
     1
 77
     6
 78
     2
 67
     7
 79
     5
170
     0
171
     0
290
     0
174
     0
 93
        1
 44
0.0
173
     0
291
     1
 45
0.0
1001
ACAD
1000
AcDbSavedByObjectVersion
1070
     0
  0
VISUALSTYLE
  5
9BF
102
{ACAD_REACTORS
330
9B3
102
}
102
{ACAD_XDICTIONARY
360
C06
102
}
330
9B3
100
AcDbVisualStyle
  2
Brighten
 70
    12
 71
     2
 72
     2
 73
     0
 90
        0
 40
0.6
 41
30.0
 62
     5
 63
     7
 74
     1
 91
        4
 64
     7
 65
   257
 75
     1
175
     1
 42
1.0
 92
        8
 66
     7
 43
1.0
 76
     1
 77
     6
 78
     2
 67
     7
 79
     5
170
     0
171
     0
290
     0
174
     0
 93
        1
 44
50.0
173
     0
291
     1
 45
0.0
1001
ACAD
1000
AcDbSavedByObjectVersion
1070
     0
  0
VISUALSTYLE
  5
9C3
102
{ACAD_REACTORS
330
9B3
102
}
102
{ACAD_XDICTIONARY
360
C08
102
}
330
9B3
100
AcDbVisualStyle
  2
ColorChange
 70
    16
 71
     2
 72
     2
 73
     3
 90
        0
 40
0.6
 41
30.0
 62
     5
 63
     8
 74
     1
 91
        4
 64
     7
 65
   257
 75
     1
175
     1
 42
1.0
 92
        8
 66
     8
 43
1.0
 76
     1
 77
     6
 78
     2
 67
     7
 79
     5
170
     0
171
     0
290
     0
174
     0
 93
        1
 44
0.0
173
     0
291
     1
 45
0.0
1001
ACAD
1000
AcDbSavedByObjectVersion
1070
     0
  0
VISUALSTYLE
  5
9BC
102
{ACAD_REACTORS
330
9B3
102
}
102
{ACAD_XDICTIONARY
360
C0A
102
}
330
9B3
100
AcDbVisualStyle
  2
Conceptual
 70
     9
 71
     3
 72
     2
 73
     0
 90
        0
 40
0.6
 41
30.0
 62
     5
 63
     7
 74
     2
 91
        2
 64
     7
 65
   257
 75
     1
175
     1
 42
179.0
 92
        8
 66
     7
 43
1.0
 76
     1
 77
     6
 78
     2
 67
     7
 79
     3
170
     0
171
     0
290
     0
174
     0
 93
        1
 44
0.0
173
     0
291
     0
 45
0.0
1001
ACAD
1000
AcDbSavedByObjectVersion
1070
     0
  0
VISUALSTYLE
  5
9BE
102
{ACAD_REACTORS
330
9B3
102
}
102
{ACAD_XDICTIONARY
360
C0C
102
}
330
9B3
100
AcDbVisualStyle
  2
Dim
 70
    11
 71
     2
 72
     2
 73
     0
 90
        0
 40
0.6
 41
30.0
 62
     5
 63
     7
 74
     1
 91
        4
 64
     7
 65
   257
 75
     1
175
     1
 42
1.0
 92
        8
 66
     7
 43
1.0
 76
     1
 77
     6
 78
     2
 67
     7
 79
     5
170
     0
171
     0
290
     0
174
     0
 93
        1
 44
-50.0
173
     0
291
     1
 45
0.0
1001
ACAD
1000
AcDbSavedByObjectVersion
1070
     0
  0
VISUALSTYLE
  5
9CB
102
{ACAD_REACTORS
330
9B3
102
}
102
{ACAD_XDICTIONARY
360
C0E
102
}
330
9B3
100
AcDbVisualStyle
  2
EdgeColorOff
 70
    22
 71
     2
 72
     2
 73
     0
 90
        0
 40
0.6
 41
30.0
 62
     5
 63
     7
 74
     1
 91
        4
 64
     7
 65
   257
 75
     1
175
     1
 42
1.0
 92
        8
 66
     7
 43
1.0
 76
     1
 77
     6
 78
     2
 67
     7
 79
     5
170
     0
171
     0
290
     0
174
     0
 93
        1
 44
0.0
173
     0
291
     1
 45
0.0
1001
ACAD
1000
AcDbSavedByObjectVersion
1070
     0
  0
VISUALSTYLE
  5
9C2
102
{ACAD_REACTORS
330
9B3
102
}
102
{ACAD_XDICTIONARY
360
C10
102
}
330
9B3
100
AcDbVisualStyle
  2
Facepattern
 70
    15
 71
     2
 72
     2
 73
     0
 90
        0
 40
0.6
 41
30.0
 62
     5
 63
     7
 74
     1
 91
        4
 64
     7
 65
   257
 75
     1
175
     1
 42
1.0
 92
        8
 66
     7
 43
1.0
 76
     1
 77
     6
 78
     2
 67
     7
 79
     5
170
     0
171
     0
290
     0
174
     0
 93
        1
 44
0.0
173
     0
291
     1
 45
0.0
1001
ACAD
1000
AcDbSavedByObjectVersion
1070
     0
  0
VISUALSTYLE
  5
9B4
102
{ACAD_REACTORS
330
9B3
102
}
102
{ACAD_XDICTIONARY
360
C12
102
}
330
9B3
100
AcDbVisualStyle
  2
Flat
 70
     0
 71
     2
 72
     1
 73
     1
 90
        2
 40
0.6
 41
30.0
 62
     5
 63
     7
 74
     0
 91
        0
 64
     7
 65
   257
 75
     1
175
     1
 42
1.0
 92
        8
 66
     7
 43
1.0
 76
     1
 77
     6
 78
     2
 67
     7
 79
     5
170
     0
171
     0
290
     0
174
     0
 93
       13
 44
0.0
173
     0
291
     1
 45
0.0
1001
ACAD
1000
AcDbSavedByObjectVersion
1070
     0
  0
VISUALSTYLE
  5
9B5
102
{ACAD_REACTORS
330
9B3
102
}
102
{ACAD_XDICTIONARY
360
C14
102
}
330
9B3
100
AcDbVisualStyle
  2
FlatWithEdges
 70
     1
 71
     2
 72
     1
 73
     1
 90
        2
 40
0.6
 41
30.0
 62
     5
 63
     7
 74
     1
 91
        0
 64
     7
 65
   257
 75
     1
175
     1
 42
1.0
 92
        0
 66
   257
 43
1.0
 76
     1
 77
     6
 78
     2
 67
     7
 79
     5
170
     0
171
     0
290
     0
174
     0
 93
       13
 44
0.0
173
     0
291
     1
 45
0.0
1001
ACAD
1000
AcDbSavedByObjectVersion
1070
     0
  0
VISUALSTYLE
  5
9B6
102
{ACAD_REACTORS
330
9B3
102
}
102
{ACAD_XDICTIONARY
360
C16
102
}
330
9B3
100
AcDbVisualStyle
  2
Gouraud
 70
     2
 71
     2
 72
     2
 73
     1
 90
        2
 40
0.6
 41
30.0
 62
     5
 63
     7
 74
     0
 91
        0
 64
     7
 65
   257
 75
     1
175
     1
 42
1.0
 92
        0
 66
     7
 43
1.0
 76
     1
 77
     6
 78
     2
 67
     7
 79
     5
170
     0
171
     0
290
     0
174
     0
 93
       13
 44
0.0
173
     0
291
     1
 45
0.0
1001
ACAD
1000
AcDbSavedByObjectVersion
1070
     0
  0
VISUALSTYLE
  5
9B7
102
{ACAD_REACTORS
330
9B3
102
}
102
{ACAD_XDICTIONARY
360
C18
102
}
330
9B3
100
AcDbVisualStyle
  2
GouraudWithEdges
 70
     3
 71
     2
 72
     2
 73
     1
 90
        2
 40
0.6
 41
30.0
 62
     5
 63
     7
 74
     1
 91
        0
 64
     7
 65
   257
 75
     1
175
     1
 42
1.0
 92
        0
 66
   257
 43
1.0
 76
     1
 77
     6
 78
     2
 67
     7
 79
     5
170
     0
171
     0
290
     0
174
     0
 93
       13
 44
0.0
173
     0
291
     1
 45
0.0
1001
ACAD
1000
AcDbSavedByObjectVersion
1070
     0
  0
VISUALSTYLE
  5
9BB
102
{ACAD_REACTORS
330
9B3
102
}
102
{ACAD_XDICTIONARY
360
C1A
102
}
330
9B3
100
AcDbVisualStyle
  2
Hidden
 70
     6
 71
     1
 72
     2
 73
     2
 90
        0
 40
0.6
 41
30.0
 62
     5
 63
     7
 74
     2
 91
        2
 64
     7
 65
   257
 75
     2
175
     1
 42
40.0
 92
        0
 66
   257
 43
1.0
 76
     1
 77
     6
 78
     2
 67
     7
 79
     3
170
     0
171
     0
290
     0
174
     0
 93
        1
 44
0.0
173
     0
291
     0
 45
0.0
1001
ACAD
1000
AcDbSavedByObjectVersion
1070
     0
  0
VISUALSTYLE
  5
9C9
102
{ACAD_REACTORS
330
9B3
102
}
102
{ACAD_XDICTIONARY
360
C1C
102
}
330
9B3
100
AcDbVisualStyle
  2
JitterOff
 70
    20
 71
     2
 72
     2
 73
     0
 90
        0
 40
0.6
 41
30.0
 62
     5
 63
     7
 74
     1
 91
        4
 64
     7
 65
   257
 75
     1
175
     1
 42
1.0
 92
       10
 66
     7
 43
1.0
 76
     1
 77
     6
 78
     2
 67
     7
 79
     5
170
     0
171
     0
290
     0
174
     0
 93
        1
 44
0.0
173
     0
291
     1
 45
0.0
1001
ACAD
1000
AcDbSavedByObjectVersion
1070
     0
  0
VISUALSTYLE
  5
9C1
102
{ACAD_REACTORS
330
9B3
102
}
102
{ACAD_XDICTIONARY
360
C1E
102
}
330
9B3
100
AcDbVisualStyle
  2
Linepattern
 70
    14
 71
     2
 72
     2
 73
     0
 90
        0
 40
0.6
 41
30.0
 62
     5
 63
     7
 74
     1
 91
        4
 64
     7
 65
   257
 75
     7
175
     7
 42
1.0
 92
        8
 66
     7
 43
1.0
 76
     1
 77
     6
 78
     2
 67
     7
 79
     5
170
     0
171
     0
290
     0
174
     0
 93
        1
 44
0.0
173
     0
291
     1
 45
0.0
1001
ACAD
1000
AcDbSavedByObjectVersion
1070
     0
  0
VISUALSTYLE
  5
9CA
102
{ACAD_REACTORS
330
9B3
102
}
102
{ACAD_XDICTIONARY
360
C20
102
}
330
9B3
100
AcDbVisualStyle
  2
OverhangOff
 70
    21
 71
     2
 72
     2
 73
     0
 90
        0
 40
0.6
 41
30.0
 62
     5
 63
     7
 74
     1
 91
        4
 64
     7
 65
   257
 75
     1
175
     1
 42
1.0
 92
        9
 66
     7
 43
1.0
 76
     1
 77
     6
 78
     2
 67
     7
 79
     5
170
     0
171
     0
290
     0
174
     0
 93
        1
 44
0.0
173
     0
291
     1
 45
0.0
1001
ACAD
1000
AcDbSavedByObjectVersion
1070
     0
  0
VISUALSTYLE
  5
9BD
102
{ACAD_REACTORS
330
9B3
102
}
102
{ACAD_XDICTIONARY
360
C22
102
}
330
9B3
100
AcDbVisualStyle
  2
Realistic
 70
     8
 71
     2
 72
     3
 73
     0
 90
        2
 40
0.6
 41
30.0
 62
     5
 63
     7
 74
     0
 91
        0
 64
     7
 65
   257
 75
     1
175
     1
 42
1.0
 92
        8
 66
   257
 43
1.0
 76
     1
 77
     6
 78
     2
 67
     7
 79
     3
170
     0
171
     0
290
     0
174
     0
 93
       13
 44
0.0
173
     0
291
     0
 45
0.0
1001
ACAD
1000
AcDbSavedByObjectVersion
1070
     0
  0
VISUALSTYLE
  5
9C8
102
{ACAD_REACTORS
330
9B3
102
}
102
{ACAD_XDICTIONARY
360
C24
102
}
330
9B3
100
AcDbVisualStyle
  2
Shaded
 70
    27
 71
     2
 72
     2
 73
     1
 90
        2
 40
0.6
 41
30.0
 62
     5
 63
     7
 74
     0
 91
        4
 64
     7
 65
   257
 75
     1
175
     1
 42
1.0
 92
        8
 66
   257
 43
1.0
 76
     1
 77
     6
 78
     2
 67
     8
 79
     3
170
     0
171
     0
290
     0
174
     0
 93
        5
 44
0.0
173
     0
291
     0
 45
0.0
1001
ACAD
1000
AcDbSavedByObjectVersion
1070
     0
  0
VISUALSTYLE
  5
9C7
102
{ACAD_REACTORS
330
9B3
102
}
102
{ACAD_XDICTIONARY
360
C26
102
}
330
9B3
100
AcDbVisualStyle
  2
Shaded with edges
 70
    26
 71
     2
 72
     2
 73
     1
 90
        2
 40
0.6
 41
30.0
 62
     5
 63
     7
 74
     1
 91
       10
 64
     7
 65
   257
 75
     2
175
     1
 42
1.0
 92
        8
 66
   257
 43
1.0
 76
     1
 77
     6
 78
     2
 67
     7
 79
     3
170
     0
171
     0
290
     0
174
     0
 93
        5
 44
0.0
173
     0
291
     0
 45
0.0
1001
ACAD
1000
AcDbSavedByObjectVersion
1070
     0
  0
VISUALSTYLE
  5
9C4
102
{ACAD_REACTORS
330
9B3
102
}
102
{ACAD_XDICTIONARY
360
C28
102
}
330
9B3
100
AcDbVisualStyle
  2
Shades of Gray
 70
    23
 71
     2
 72
     2
 73
     3
 90
        0
 40
0.6
 41
30.0
 62
     5
 63
     7
 74
     2
 91
        2
 64
     7
 65
     7
 75
     1
175
     1
 42
40.0
 92
        8
 66
     7
 43
1.0
 76
     1
 77
     6
 78
     2
 67
     7
 79
     3
170
     0
171
     0
290
     0
174
     0
 93
        1
 44
0.0
173
     0
291
     0
 45
0.0
1001
ACAD
1000
AcDbSavedByObjectVersion
1070
     0
  0
VISUALSTYLE
  5
9C5
102
{ACAD_REACTORS
330
9B3
102
}
102
{ACAD_XDICTIONARY
360
C2A
102
}
330
9B3
100
AcDbVisualStyle
  2
Sketchy
 70
    24
 71
     1
 72
     2
 73
     2
 90
        0
 40
0.6
 41
30.0
 62
     5
 63
     7
 74
     2
 91
        2
 64
     7
 65
     7
 75
     1
175
     1
 42
40.0
 92
       11
 66
     7
 43
1.0
 76
     1
 77
     6
 78
     2
 67
     7
 79
     6
170
     0
171
     0
290
     0
174
     0
 93
        1
 44
0.0
173
     0
291
     0
 45
0.0
1001
ACAD
1000
AcDbSavedByObjectVersion
1070
     0
  0
VISUALSTYLE
  5
9C0
102
{ACAD_REACTORS
330
9B3
102
}
102
{ACAD_XDICTIONARY
360
C2C
102
}
330
9B3
100
AcDbVisualStyle
  2
Thicken
 70
    13
 71
     2
 72
     2
 73
     0
 90
        0
 40
0.6
 41
30.0
 62
     5
 63
     7
 74
     1
 91
        4
 64
     7
 65
   257
 75
     1
175
     1
 42
1.0
 92
       12
 66
     7
 43
1.0
 76
     1
 77
     6
 78
     2
 67
     7
 79
     5
170
     0
171
     0
290
     0
174
     0
 93
        1
 44
0.0
173
     0
291
     1
 45
0.0
1001
ACAD
1000
AcDbSavedByObjectVersion
1070
     0
  0
VISUALSTYLE
  5
9BA
102
{ACAD_REACTORS
330
9B3
102
}
102
{ACAD_XDICTIONARY
360
C2E
102
}
330
9B3
100
AcDbVisualStyle
  2
Wireframe
 70
     5
 71
     0
 72
     2
 73
     0
 90
        0
 40
0.6
 41
30.0
 62
     5
 63
     7
 74
     1
 91
        4
 64
     7
 65
   257
 75
     1
175
     1
 42
1.0
 92
        0
 66
   257
 43
1.0
 76
     1
 77
     6
 78
     2
 67
     7
 79
     3
170
     0
171
     0
290
     0
174
     0
 93
        1
 44
0.0
173
     0
291
     0
 45
0.0
1001
ACAD
1000
AcDbSavedByObjectVersion
1070
     0
  0
VISUALSTYLE
  5
9C6
102
{ACAD_REACTORS
330
9B3
102
}
102
{ACAD_XDICTIONARY
360
C30
102
}
330
9B3
100
AcDbVisualStyle
  2
X-Ray
 70
    25
 71
     2
 72
     2
 73
     1
 90
        1
 40
0.5
 41
30.0
 62
     5
 63
     7
 74
     1
 91
        0
 64
     7
 65
   257
 75
     1
175
     1
 42
1.0
 92
        8
 66
     7
 43
1.0
 76
     1
 77
     6
 78
     2
 67
     7
 79
     3
170
     0
171
     0
290
     0
174
     0
 93
       13
 44
0.0
173
     0
291
     0
 45
0.0
1001
ACAD
1000
AcDbSavedByObjectVersion
1070
     0
  0
XRECORD
  5
BF3
102
{ACAD_REACTORS
330
BF2
102
}
330
BF2
100
AcDbXrecord
280
     1
340
9CC
  0
XRECORD
  5
BF4
102
{ACAD_REACTORS
330
BF2
102
}
330
BF2
100
AcDbXrecord
280
     1
340
99A
  0
DICTIONARYVAR
  5
A0B
102
{ACAD_REACTORS
330
95F
102
}
330
95F
100
DictionaryVariables
280
     0
  1
1:1
  0
DICTIONARYVAR
  5
A07
102
{ACAD_REACTORS
330
95F
102
}
330
95F
100
DictionaryVariables
280
     0
  1
Standard
  0
DICTIONARYVAR
  5
A06
102
{ACAD_REACTORS
330
95F
102
}
330
95F
100
DictionaryVariables
280
     0
  1
Standard
  0
DICTIONARYVAR
  5
A08
102
{ACAD_REACTORS
330
95F
102
}
330
95F
100
DictionaryVariables
280
     0
  1
Imperial24
  0
DICTIONARYVAR
  5
A09
102
{ACAD_REACTORS
330
95F
102
}
330
95F
100
DictionaryVariables
280
     0
  1
Imperial24
  0
DICTIONARYVAR
  5
961
102
{ACAD_REACTORS
330
95F
102
}
330
95F
100
DictionaryVariables
280
     0
  1
0
  0
DICTIONARYVAR
  5
960
102
{ACAD_REACTORS
330
95F
102
}
330
95F
100
DictionaryVariables
280
     0
  1
1
  0
DICTIONARYVAR
  5
A0D
102
{ACAD_REACTORS
330
95F
102
}
330
95F
100
DictionaryVariables
280
     0
  1
1
  0
DICTIONARYVAR
  5
A0E
102
{ACAD_REACTORS
330
95F
102
}
330
95F
100
DictionaryVariables
280
     0
  1
15
  0
DICTIONARYVAR
  5
A0C
102
{ACAD_REACTORS
330
95F
102
}
330
95F
100
DictionaryVariables
280
     0
  1
0
  0
DICTIONARYVAR
  5
A0A
102
{ACAD_REACTORS
330
95F
102
}
330
95F
100
DictionaryVariables
280
     0
  1
0
  0
DICTIONARYVAR
  5
B11
102
{ACAD_REACTORS
330
95F
102
}
330
95F
100
DictionaryVariables
280
     0
  1
0
  0
DICTIONARY
  5
A03
330
9E6
100
AcDbDictionary
280
     1
281
     1
  3
ACAD_XREC_ROUNDTRIP
360
BF8
  0
DICTIONARY
  5
BF9
330
9A3
100
AcDbDictionary
280
     1
281
     1
  3
ACAD_XREC_ROUNDTRIP
360
BFA
  0
DICTIONARY
  5
BFB
330
99B
100
AcDbDictionary
280
     1
281
     1
  3
ACAD_XREC_ROUNDTRIP
360
BFC
  0
DICTIONARY
  5
BFD
330
9AB
100
AcDbDictionary
280
     1
281
     1
  3
ACAD_XREC_ROUNDTRIP
360
BFE
  0
DICTIONARY
  5
BFF
330
9E2
100
AcDbDictionary
280
     1
281
     1
  3
ACAD_XREC_ROUNDTRIP
360
C00
  0
DICTIONARY
  5
A01
330
9E4
100
AcDbDictionary
280
     1
281
     1
  3
ACAD_XREC_ROUNDTRIP
360
C01
  0
DICTIONARY
  5
C02
330
9B9
100
AcDbDictionary
280
     1
281
     1
  3
ACAD_XREC_ROUNDTRIP
360
C03
  0
DICTIONARY
  5
C04
330
9B8
100
AcDbDictionary
280
     1
281
     1
  3
ACAD_XREC_ROUNDTRIP
360
C05
  0
DICTIONARY
  5
C06
330
9BF
100
AcDbDictionary
280
     1
281
     1
  3
ACAD_XREC_ROUNDTRIP
360
C07
  0
DICTIONARY
  5
C08
330
9C3
100
AcDbDictionary
280
     1
281
     1
  3
ACAD_XREC_ROUNDTRIP
360
C09
  0
DICTIONARY
  5
C0A
330
9BC
100
AcDbDictionary
280
     1
281
     1
  3
ACAD_XREC_ROUNDTRIP
360
C0B
  0
DICTIONARY
  5
C0C
330
9BE
100
AcDbDictionary
280
     1
281
     1
  3
ACAD_XREC_ROUNDTRIP
360
C0D
  0
DICTIONARY
  5
C0E
330
9CB
100
AcDbDictionary
280
     1
281
     1
  3
ACAD_XREC_ROUNDTRIP
360
C0F
  0
DICTIONARY
  5
C10
330
9C2
100
AcDbDictionary
280
     1
281
     1
  3
ACAD_XREC_ROUNDTRIP
360
C11
  0
DICTIONARY
  5
C12
330
9B4
100
AcDbDictionary
280
     1
281
     1
  3
ACAD_XREC_ROUNDTRIP
360
C13
  0
DICTIONARY
  5
C14
330
9B5
100
AcDbDictionary
280
     1
281
     1
  3
ACAD_XREC_ROUNDTRIP
360
C15
  0
DICTIONARY
  5
C16
330
9B6
100
AcDbDictionary
280
     1
281
     1
  3
ACAD_XREC_ROUNDTRIP
360
C17
  0
DICTIONARY
  5
C18
330
9B7
100
AcDbDictionary
280
     1
281
     1
  3
ACAD_XREC_ROUNDTRIP
360
C19
  0
DICTIONARY
  5
C1A
330
9BB
100
AcDbDictionary
280
     1
281
     1
  3
ACAD_XREC_ROUNDTRIP
360
C1B
  0
DICTIONARY
  5
C1C
330
9C9
100
AcDbDictionary
280
     1
281
     1
  3
ACAD_XREC_ROUNDTRIP
360
C1D
  0
DICTIONARY
  5
C1E
330
9C1
100
AcDbDictionary
280
     1
281
     1
  3
ACAD_XREC_ROUNDTRIP
360
C1F
  0
DICTIONARY
  5
C20
330
9CA
100
AcDbDictionary
280
     1
281
     1
  3
ACAD_XREC_ROUNDTRIP
360
C21
  0
DICTIONARY
  5
C22
330
9BD
100
AcDbDictionary
280
     1
281
     1
  3
ACAD_XREC_ROUNDTRIP
360
C23
  0
DICTIONARY
  5
C24
330
9C8
100
AcDbDictionary
280
     1
281
     1
  3
ACAD_XREC_ROUNDTRIP
360
C25
  0
DICTIONARY
  5
C26
330
9C7
100
AcDbDictionary
280
     1
281
     1
  3
ACAD_XREC_ROUNDTRIP
360
C27
  0
DICTIONARY
  5
C28
330
9C4
100
AcDbDictionary
280
     1
281
     1
  3
ACAD_XREC_ROUNDTRIP
360
C29
  0
DICTIONARY
  5
C2A
330
9C5
100
AcDbDictionary
280
     1
281
     1
  3
ACAD_XREC_ROUNDTRIP
360
C2B
  0
DICTIONARY
  5
C2C
330
9C0
100
AcDbDictionary
280
     1
281
     1
  3
ACAD_XREC_ROUNDTRIP
360
C2D
  0
DICTIONARY
  5
C2E
330
9BA
100
AcDbDictionary
280
     1
281
     1
  3
ACAD_XREC_ROUNDTRIP
360
C2F
  0
DICTIONARY
  5
C30
330
9C6
100
AcDbDictionary
280
     1
281
     1
  3
ACAD_XREC_ROUNDTRIP
360
C31
  0
XRECORD
  5
BF8
102
{ACAD_REACTORS
330
A03
102
}
330
A03
100
AcDbXrecord
280
     1
102
DISPLAYNAME
  1
Imperial24
102
FLAGS
 90
        0
  0
XRECORD
  5
BFA
102
{ACAD_REACTORS
330
BF9
102
}
330
BF9
100
AcDbXrecord
280
     1
102
MATERIAL
148
0.0
149
0.0
149
0.0
 93
        0
 94
      127
282
     0
 72
     0
 77
     0
171
     0
175
     0
179
     0
273
     0
  0
XRECORD
  5
BFC
102
{ACAD_REACTORS
330
BFB
102
}
330
BFB
100
AcDbXrecord
280
     1
102
MATERIAL
148
0.0
149
0.0
149
0.0
 93
        0
 94
      127
282
     0
 72
     0
 77
     0
171
     0
175
     0
179
     0
273
     0
  0
XRECORD
  5
BFE
102
{ACAD_REACTORS
330
BFD
102
}
330
BFD
100
AcDbXrecord
280
     1
102
MATERIAL
148
0.0
149
0.0
149
0.0
 93
        0
 94
      127
282
     0
 72
     0
 77
     0
171
     0
175
     0
179
     0
273
     0
  0
XRECORD
  5
C00
102
{ACAD_REACTORS
330
BFF
102
}
330
BFF
100
AcDbXrecord
280
     1
102
ACAD_ROUNDTRIP_2012_MLEADER_STYLE
298
     1
  0
XRECORD
  5
C01
102
{ACAD_REACTORS
330
A01
102
}
330
A01
100
AcDbXrecord
280
     1
102
DISPLAYNAME
  1
Imperial24
102
FLAGS
 90
        0
  0
XRECORD
  5
C03
102
{ACAD_REACTORS
330
C02
102
}
330
C02
100
AcDbXrecord
280
     1
102
RTVSPropertyOp0
 70
     1
102
RTVSPropertyOp1
 70
     1
102
RTVSPropertyOp2
 70
     1
102
RTVSPropertyOp3
 70
     1
102
RTVSPropertyOp4
 70
     1
102
RTVSPropertyOp5
 70
     1
102
RTVSPropertyOp6
 70
     1
102
RTVSPropertyOp7
 70
     1
102
RTVSPropertyOp8
 70
     1
102
RTVSPropertyOp9
 70
     1
102
RTVSPropertyOp10
 70
     1
102
RTVSPropertyOp11
 70
     1
102
RTVSPropertyOp12
 70
     1
102
RTVSPropertyOp13
 70
     1
102
RTVSPropertyOp14
 70
     1
102
RTVSPropertyOp15
 70
     1
102
RTVSPropertyOp16
 70
     1
102
RTVSPropertyOp17
 70
     1
102
RTVSPropertyOp18
 70
     1
102
RTVSPropertyOp19
 70
     1
102
RTVSPropertyOp20
 70
     1
102
RTVSPropertyOp21
 70
     1
102
RTVSPropertyOp22
 70
     1
102
RTVSPropertyOp23
 70
     1
102
RTVSPropertyOp24
 70
     1
102
RTVSPropertyOp25
 70
     1
102
RTVSPropertyOp26
 70
     1
102
RTVSPropertyOp27
 70
     1
102
RTVSPropertyOp28
 70
     1
102
RTVSPropertyOp29
 70
     1
102
RTVSPropertyOp30
 70
     1
102
RTVSPropertyOp31
 70
     1
102
RTVSPropertyOp32
 70
     1
102
RTVSPropertyOp33
 70
     1
102
RTVSPropertyOp34
 70
     1
102
RTVSPropertyOp35
 70
     1
102
RTVSPropertyOp36
 70
     1
102
RTVSPropertyOp37
 70
     1
102
RTVSPropertyOp38
 70
     1
102
RTVSPropertyOp39
 70
     1
102
RTVSPropertyOp40
 70
     1
102
RTVSPropertyOp41
 70
     1
102
RTVSPropertyOp42
 70
     1
102
RTVSPropertyOp43
 70
     1
102
RTVSPropertyOp44
 70
     1
102
RTVSPropertyOp45
 70
     1
102
RTVSPropertyOp46
 70
     1
102
RTVSPropertyOp47
 70
     1
102
RTVSPropertyOp48
 70
     1
102
RTVSPropertyOp49
 70
     1
102
RTVSPropertyOp50
 70
     1
102
RTVSPropertyOp51
 70
     0
102
RTVSPropertyOp52
 70
     0
102
RTVSPropertyOp53
 70
     1
102
RTVSPropertyOp54
 70
     1
102
RTVSPropertyOp55
 70
     1
102
RTVSPropertyOp56
 70
     1
102
RTVSPropertyOp57
 70
     1
102
RTVSPost2010Prop28
280
     1
102
RTVSPost2010PropOp28
 70
     1
102
RTVSPost2010Prop29
280
     1
102
RTVSPost2010PropOp29
 70
     1
102
RTVSPost2010Prop30
280
     0
102
RTVSPost2010PropOp30
 70
     1
102
RTVSPost2010Prop31
280
     0
102
RTVSPost2010PropOp31
 70
     1
102
RTVSPost2010Prop32
280
     0
102
RTVSPost2010PropOp32
 70
     1
102
RTVSPost2010Prop33
280
     0
102
RTVSPost2010PropOp33
 70
     1
102
RTVSPost2010Prop34
280
     0
102
RTVSPost2010PropOp34
 70
     1
102
RTVSPost2010Prop35
280
     0
102
RTVSPost2010PropOp35
 70
     1
102
RTVSPost2010Prop36
280
     0
102
RTVSPost2010PropOp36
 70
     1
102
RTVSPost2010Prop37
 90
       50
102
RTVSPost2010PropOp37
 70
     1
102
RTVSPost2010Prop38
140
0.0
102
RTVSPost2010PropOp38
 70
     1
102
RTVSPost2010Prop39
140
1.0
102
RTVSPost2010PropOp39
 70
     1
102
RTVSPost2010Prop40
 90
        0
102
RTVSPost2010PropOp40
 70
     1
102
RTVSPost2010Prop41ColorIndex
 90
       18
102
RTVSPost2010Prop41ColorRGB
 90
        0
102
RTVSPost2010PropOp41
 70
     1
102
RTVSPost2010Prop42
 90
       50
102
RTVSPost2010PropOp42
 70
     1
102
RTVSPost2010Prop43
 90
        3
102
RTVSPost2010PropOp43
 70
     1
102
RTVSPost2010Prop44ColorIndex
 90
        5
102
RTVSPost2010Prop44ColorRGB
 90
      255
102
RTVSPost2010PropOp44
 70
     1
102
RTVSPost2010Prop45
280
     0
102
RTVSPost2010PropOp45
 70
     1
102
RTVSPost2010Prop46
 90
       50
102
RTVSPost2010PropOp46
 70
     1
102
RTVSPost2010Prop47
 90
       50
102
RTVSPost2010PropOp47
 70
     1
102
RTVSPost2010Prop48
 90
       50
102
RTVSPost2010PropOp48
 70
     1
102
RTVSPost2010Prop49
280
     0
102
RTVSPost2010PropOp49
 70
     1
102
RTVSPost2010Prop50
 90
       50
102
RTVSPost2010PropOp50
 70
     1
102
RTVSPost2010Prop51ColorIndex
 90
      256
102
RTVSPost2010Prop51ColorRGB
 90
-16777216
102
RTVSPost2010PropOp51
 70
     0
102
RTVSPost2010Prop52
140
1.0
102
RTVSPost2010PropOp52
 70
     0
102
RTVSPost2010Prop53
 90
        2
102
RTVSPost2010PropOp53
 70
     1
102
RTVSPost2010Prop54
  1
strokes_ogs.tif
102
RTVSPost2010PropOp54
 70
     1
102
RTVSPost2010Prop55
280
     0
102
RTVSPost2010PropOp55
 70
     1
102
RTVSPost2010Prop56
140
1.0
102
RTVSPost2010PropOp56
 70
     1
102
RTVSPost2010Prop57
140
1.0
102
RTVSPost2010PropOp57
 70
     1
  0
XRECORD
  5
C05
102
{ACAD_REACTORS
330
C04
102
}
330
C04
100
AcDbXrecord
280
     1
102
RTVSPropertyOp0
 70
     1
102
RTVSPropertyOp1
 70
     1
102
RTVSPropertyOp2
 70
     1
102
RTVSPropertyOp3
 70
     1
102
RTVSPropertyOp4
 70
     1
102
RTVSPropertyOp5
 70
     1
102
RTVSPropertyOp6
 70
     1
102
RTVSPropertyOp7
 70
     1
102
RTVSPropertyOp8
 70
     1
102
RTVSPropertyOp9
 70
     1
102
RTVSPropertyOp10
 70
     1
102
RTVSPropertyOp11
 70
     1
102
RTVSPropertyOp12
 70
     1
102
RTVSPropertyOp13
 70
     1
102
RTVSPropertyOp14
 70
     1
102
RTVSPropertyOp15
 70
     1
102
RTVSPropertyOp16
 70
     1
102
RTVSPropertyOp17
 70
     1
102
RTVSPropertyOp18
 70
     1
102
RTVSPropertyOp19
 70
     1
102
RTVSPropertyOp20
 70
     1
102
RTVSPropertyOp21
 70
     1
102
RTVSPropertyOp22
 70
     1
102
RTVSPropertyOp23
 70
     1
102
RTVSPropertyOp24
 70
     1
102
RTVSPropertyOp25
 70
     1
102
RTVSPropertyOp26
 70
     1
102
RTVSPropertyOp27
 70
     1
102
RTVSPropertyOp28
 70
     1
102
RTVSPropertyOp29
 70
     1
102
RTVSPropertyOp30
 70
     1
102
RTVSPropertyOp31
 70
     1
102
RTVSPropertyOp32
 70
     1
102
RTVSPropertyOp33
 70
     1
102
RTVSPropertyOp34
 70
     1
102
RTVSPropertyOp35
 70
     1
102
RTVSPropertyOp36
 70
     1
102
RTVSPropertyOp37
 70
     1
102
RTVSPropertyOp38
 70
     1
102
RTVSPropertyOp39
 70
     1
102
RTVSPropertyOp40
 70
     1
102
RTVSPropertyOp41
 70
     1
102
RTVSPropertyOp42
 70
     1
102
RTVSPropertyOp43
 70
     1
102
RTVSPropertyOp44
 70
     1
102
RTVSPropertyOp45
 70
     1
102
RTVSPropertyOp46
 70
     1
102
RTVSPropertyOp47
 70
     1
102
RTVSPropertyOp48
 70
     1
102
RTVSPropertyOp49
 70
     1
102
RTVSPropertyOp50
 70
     1
102
RTVSPropertyOp51
 70
     0
102
RTVSPropertyOp52
 70
     0
102
RTVSPropertyOp53
 70
     1
102
RTVSPropertyOp54
 70
     1
102
RTVSPropertyOp55
 70
     1
102
RTVSPropertyOp56
 70
     1
102
RTVSPropertyOp57
 70
     1
102
RTVSPost2010Prop28
280
     0
102
RTVSPost2010PropOp28
 70
     1
102
RTVSPost2010Prop29
280
     1
102
RTVSPost2010PropOp29
 70
     1
102
RTVSPost2010Prop30
280
     1
102
RTVSPost2010PropOp30
 70
     1
102
RTVSPost2010Prop31
280
     0
102
RTVSPost2010PropOp31
 70
     1
102
RTVSPost2010Prop32
280
     0
102
RTVSPost2010PropOp32
 70
     1
102
RTVSPost2010Prop33
280
     0
102
RTVSPost2010PropOp33
 70
     1
102
RTVSPost2010Prop34
280
     0
102
RTVSPost2010PropOp34
 70
     1
102
RTVSPost2010Prop35
280
     0
102
RTVSPost2010PropOp35
 70
     1
102
RTVSPost2010Prop36
280
     0
102
RTVSPost2010PropOp36
 70
     1
102
RTVSPost2010Prop37
 90
       50
102
RTVSPost2010PropOp37
 70
     1
102
RTVSPost2010Prop38
140
0.0
102
RTVSPost2010PropOp38
 70
     1
102
RTVSPost2010Prop39
140
1.0
102
RTVSPost2010PropOp39
 70
     1
102
RTVSPost2010Prop40
 90
        0
102
RTVSPost2010PropOp40
 70
     1
102
RTVSPost2010Prop41ColorIndex
 90
       18
102
RTVSPost2010Prop41ColorRGB
 90
        0
102
RTVSPost2010PropOp41
 70
     1
102
RTVSPost2010Prop42
 90
       50
102
RTVSPost2010PropOp42
 70
     1
102
RTVSPost2010Prop43
 90
        3
102
RTVSPost2010PropOp43
 70
     1
102
RTVSPost2010Prop44ColorIndex
 90
        5
102
RTVSPost2010Prop44ColorRGB
 90
      255
102
RTVSPost2010PropOp44
 70
     1
102
RTVSPost2010Prop45
280
     0
102
RTVSPost2010PropOp45
 70
     1
102
RTVSPost2010Prop46
 90
       50
102
RTVSPost2010PropOp46
 70
     1
102
RTVSPost2010Prop47
 90
       50
102
RTVSPost2010PropOp47
 70
     1
102
RTVSPost2010Prop48
 90
       50
102
RTVSPost2010PropOp48
 70
     1
102
RTVSPost2010Prop49
280
     0
102
RTVSPost2010PropOp49
 70
     1
102
RTVSPost2010Prop50
 90
       50
102
RTVSPost2010PropOp50
 70
     1
102
RTVSPost2010Prop51ColorIndex
 90
      256
102
RTVSPost2010Prop51ColorRGB
 90
-16777216
102
RTVSPost2010PropOp51
 70
     0
102
RTVSPost2010Prop52
140
1.0
102
RTVSPost2010PropOp52
 70
     0
102
RTVSPost2010Prop53
 90
        2
102
RTVSPost2010PropOp53
 70
     1
102
RTVSPost2010Prop54
  1
strokes_ogs.tif
102
RTVSPost2010PropOp54
 70
     1
102
RTVSPost2010Prop55
280
     0
102
RTVSPost2010PropOp55
 70
     1
102
RTVSPost2010Prop56
140
1.0
102
RTVSPost2010PropOp56
 70
     1
102
RTVSPost2010Prop57
140
1.0
102
RTVSPost2010PropOp57
 70
     1
  0
XRECORD
  5
C07
102
{ACAD_REACTORS
330
C06
102
}
330
C06
100
AcDbXrecord
280
     1
102
RTVSPropertyOp0
 70
     1
102
RTVSPropertyOp1
 70
     1
102
RTVSPropertyOp2
 70
     1
102
RTVSPropertyOp3
 70
     1
102
RTVSPropertyOp4
 70
     1
102
RTVSPropertyOp5
 70
     1
102
RTVSPropertyOp6
 70
     1
102
RTVSPropertyOp7
 70
     1
102
RTVSPropertyOp8
 70
     1
102
RTVSPropertyOp9
 70
     1
102
RTVSPropertyOp10
 70
     1
102
RTVSPropertyOp11
 70
     1
102
RTVSPropertyOp12
 70
     1
102
RTVSPropertyOp13
 70
     1
102
RTVSPropertyOp14
 70
     1
102
RTVSPropertyOp15
 70
     1
102
RTVSPropertyOp16
 70
     1
102
RTVSPropertyOp17
 70
     1
102
RTVSPropertyOp18
 70
     1
102
RTVSPropertyOp19
 70
     1
102
RTVSPropertyOp20
 70
     1
102
RTVSPropertyOp21
 70
     1
102
RTVSPropertyOp22
 70
     1
102
RTVSPropertyOp23
 70
     1
102
RTVSPropertyOp24
 70
     1
102
RTVSPropertyOp25
 70
     1
102
RTVSPropertyOp26
 70
     1
102
RTVSPropertyOp27
 70
     1
102
RTVSPropertyOp28
 70
     1
102
RTVSPropertyOp29
 70
     1
102
RTVSPropertyOp30
 70
     1
102
RTVSPropertyOp31
 70
     1
102
RTVSPropertyOp32
 70
     1
102
RTVSPropertyOp33
 70
     1
102
RTVSPropertyOp34
 70
     1
102
RTVSPropertyOp35
 70
     1
102
RTVSPropertyOp36
 70
     1
102
RTVSPropertyOp37
 70
     1
102
RTVSPropertyOp38
 70
     1
102
RTVSPropertyOp39
 70
     1
102
RTVSPropertyOp40
 70
     1
102
RTVSPropertyOp41
 70
     1
102
RTVSPropertyOp42
 70
     1
102
RTVSPropertyOp43
 70
     1
102
RTVSPropertyOp44
 70
     1
102
RTVSPropertyOp45
 70
     1
102
RTVSPropertyOp46
 70
     1
102
RTVSPropertyOp47
 70
     1
102
RTVSPropertyOp48
 70
     1
102
RTVSPropertyOp49
 70
     1
102
RTVSPropertyOp50
 70
     1
102
RTVSPropertyOp51
 70
     0
102
RTVSPropertyOp52
 70
     0
102
RTVSPropertyOp53
 70
     1
102
RTVSPropertyOp54
 70
     1
102
RTVSPropertyOp55
 70
     1
102
RTVSPropertyOp56
 70
     1
102
RTVSPropertyOp57
 70
     1
102
RTVSPost2010Prop28
280
     0
102
RTVSPost2010PropOp28
 70
     1
102
RTVSPost2010Prop29
280
     1
102
RTVSPost2010PropOp29
 70
     1
102
RTVSPost2010Prop30
280
     1
102
RTVSPost2010PropOp30
 70
     1
102
RTVSPost2010Prop31
280
     0
102
RTVSPost2010PropOp31
 70
     1
102
RTVSPost2010Prop32
280
     0
102
RTVSPost2010PropOp32
 70
     1
102
RTVSPost2010Prop33
280
     0
102
RTVSPost2010PropOp33
 70
     1
102
RTVSPost2010Prop34
280
     0
102
RTVSPost2010PropOp34
 70
     1
102
RTVSPost2010Prop35
280
     0
102
RTVSPost2010PropOp35
 70
     1
102
RTVSPost2010Prop36
280
     0
102
RTVSPost2010PropOp36
 70
     1
102
RTVSPost2010Prop37
 90
       50
102
RTVSPost2010PropOp37
 70
     1
102
RTVSPost2010Prop38
140
0.0
102
RTVSPost2010PropOp38
 70
     1
102
RTVSPost2010Prop39
140
1.0
102
RTVSPost2010PropOp39
 70
     1
102
RTVSPost2010Prop40
 90
        0
102
RTVSPost2010PropOp40
 70
     1
102
RTVSPost2010Prop41ColorIndex
 90
       18
102
RTVSPost2010Prop41ColorRGB
 90
        0
102
RTVSPost2010PropOp41
 70
     1
102
RTVSPost2010Prop42
 90
       50
102
RTVSPost2010PropOp42
 70
     1
102
RTVSPost2010Prop43
 90
        3
102
RTVSPost2010PropOp43
 70
     1
102
RTVSPost2010Prop44ColorIndex
 90
        5
102
RTVSPost2010Prop44ColorRGB
 90
      255
102
RTVSPost2010PropOp44
 70
     1
102
RTVSPost2010Prop45
280
     0
102
RTVSPost2010PropOp45
 70
     1
102
RTVSPost2010Prop46
 90
       50
102
RTVSPost2010PropOp46
 70
     1
102
RTVSPost2010Prop47
 90
       50
102
RTVSPost2010PropOp47
 70
     1
102
RTVSPost2010Prop48
 90
       50
102
RTVSPost2010PropOp48
 70
     1
102
RTVSPost2010Prop49
280
     0
102
RTVSPost2010PropOp49
 70
     1
102
RTVSPost2010Prop50
 90
       50
102
RTVSPost2010PropOp50
 70
     1
102
RTVSPost2010Prop51ColorIndex
 90
      256
102
RTVSPost2010Prop51ColorRGB
 90
-16777216
102
RTVSPost2010PropOp51
 70
     0
102
RTVSPost2010Prop52
140
1.0
102
RTVSPost2010PropOp52
 70
     0
102
RTVSPost2010Prop53
 90
        2
102
RTVSPost2010PropOp53
 70
     1
102
RTVSPost2010Prop54
  1
strokes_ogs.tif
102
RTVSPost2010PropOp54
 70
     1
102
RTVSPost2010Prop55
280
     0
102
RTVSPost2010PropOp55
 70
     1
102
RTVSPost2010Prop56
140
1.0
102
RTVSPost2010PropOp56
 70
     1
102
RTVSPost2010Prop57
140
1.0
102
RTVSPost2010PropOp57
 70
     1
  0
XRECORD
  5
C09
102
{ACAD_REACTORS
330
C08
102
}
330
C08
100
AcDbXrecord
280
     1
102
RTVSPropertyOp0
 70
     1
102
RTVSPropertyOp1
 70
     1
102
RTVSPropertyOp2
 70
     1
102
RTVSPropertyOp3
 70
     1
102
RTVSPropertyOp4
 70
     1
102
RTVSPropertyOp5
 70
     1
102
RTVSPropertyOp6
 70
     1
102
RTVSPropertyOp7
 70
     1
102
RTVSPropertyOp8
 70
     1
102
RTVSPropertyOp9
 70
     1
102
RTVSPropertyOp10
 70
     1
102
RTVSPropertyOp11
 70
     1
102
RTVSPropertyOp12
 70
     1
102
RTVSPropertyOp13
 70
     1
102
RTVSPropertyOp14
 70
     1
102
RTVSPropertyOp15
 70
     1
102
RTVSPropertyOp16
 70
     1
102
RTVSPropertyOp17
 70
     1
102
RTVSPropertyOp18
 70
     1
102
RTVSPropertyOp19
 70
     1
102
RTVSPropertyOp20
 70
     1
102
RTVSPropertyOp21
 70
     1
102
RTVSPropertyOp22
 70
     1
102
RTVSPropertyOp23
 70
     1
102
RTVSPropertyOp24
 70
     1
102
RTVSPropertyOp25
 70
     1
102
RTVSPropertyOp26
 70
     1
102
RTVSPropertyOp27
 70
     1
102
RTVSPropertyOp28
 70
     1
102
RTVSPropertyOp29
 70
     1
102
RTVSPropertyOp30
 70
     1
102
RTVSPropertyOp31
 70
     1
102
RTVSPropertyOp32
 70
     1
102
RTVSPropertyOp33
 70
     1
102
RTVSPropertyOp34
 70
     1
102
RTVSPropertyOp35
 70
     1
102
RTVSPropertyOp36
 70
     1
102
RTVSPropertyOp37
 70
     1
102
RTVSPropertyOp38
 70
     1
102
RTVSPropertyOp39
 70
     1
102
RTVSPropertyOp40
 70
     1
102
RTVSPropertyOp41
 70
     1
102
RTVSPropertyOp42
 70
     1
102
RTVSPropertyOp43
 70
     1
102
RTVSPropertyOp44
 70
     1
102
RTVSPropertyOp45
 70
     1
102
RTVSPropertyOp46
 70
     1
102
RTVSPropertyOp47
 70
     1
102
RTVSPropertyOp48
 70
     1
102
RTVSPropertyOp49
 70
     1
102
RTVSPropertyOp50
 70
     1
102
RTVSPropertyOp51
 70
     0
102
RTVSPropertyOp52
 70
     0
102
RTVSPropertyOp53
 70
     1
102
RTVSPropertyOp54
 70
     1
102
RTVSPropertyOp55
 70
     1
102
RTVSPropertyOp56
 70
     1
102
RTVSPropertyOp57
 70
     1
102
RTVSPost2010Prop28
280
     0
102
RTVSPost2010PropOp28
 70
     1
102
RTVSPost2010Prop29
280
     1
102
RTVSPost2010PropOp29
 70
     1
102
RTVSPost2010Prop30
280
     1
102
RTVSPost2010PropOp30
 70
     1
102
RTVSPost2010Prop31
280
     0
102
RTVSPost2010PropOp31
 70
     1
102
RTVSPost2010Prop32
280
     0
102
RTVSPost2010PropOp32
 70
     1
102
RTVSPost2010Prop33
280
     0
102
RTVSPost2010PropOp33
 70
     1
102
RTVSPost2010Prop34
280
     0
102
RTVSPost2010PropOp34
 70
     1
102
RTVSPost2010Prop35
280
     0
102
RTVSPost2010PropOp35
 70
     1
102
RTVSPost2010Prop36
280
     0
102
RTVSPost2010PropOp36
 70
     1
102
RTVSPost2010Prop37
 90
       50
102
RTVSPost2010PropOp37
 70
     1
102
RTVSPost2010Prop38
140
0.0
102
RTVSPost2010PropOp38
 70
     1
102
RTVSPost2010Prop39
140
1.0
102
RTVSPost2010PropOp39
 70
     1
102
RTVSPost2010Prop40
 90
        0
102
RTVSPost2010PropOp40
 70
     1
102
RTVSPost2010Prop41ColorIndex
 90
       18
102
RTVSPost2010Prop41ColorRGB
 90
        0
102
RTVSPost2010PropOp41
 70
     1
102
RTVSPost2010Prop42
 90
       50
102
RTVSPost2010PropOp42
 70
     1
102
RTVSPost2010Prop43
 90
        3
102
RTVSPost2010PropOp43
 70
     1
102
RTVSPost2010Prop44ColorIndex
 90
        5
102
RTVSPost2010Prop44ColorRGB
 90
      255
102
RTVSPost2010PropOp44
 70
     1
102
RTVSPost2010Prop45
280
     0
102
RTVSPost2010PropOp45
 70
     1
102
RTVSPost2010Prop46
 90
       50
102
RTVSPost2010PropOp46
 70
     1
102
RTVSPost2010Prop47
 90
       50
102
RTVSPost2010PropOp47
 70
     1
102
RTVSPost2010Prop48
 90
       50
102
RTVSPost2010PropOp48
 70
     1
102
RTVSPost2010Prop49
280
     0
102
RTVSPost2010PropOp49
 70
     1
102
RTVSPost2010Prop50
 90
       50
102
RTVSPost2010PropOp50
 70
     1
102
RTVSPost2010Prop51ColorIndex
 90
      256
102
RTVSPost2010Prop51ColorRGB
 90
-16777216
102
RTVSPost2010PropOp51
 70
     0
102
RTVSPost2010Prop52
140
1.0
102
RTVSPost2010PropOp52
 70
     0
102
RTVSPost2010Prop53
 90
        2
102
RTVSPost2010PropOp53
 70
     1
102
RTVSPost2010Prop54
  1
strokes_ogs.tif
102
RTVSPost2010PropOp54
 70
     1
102
RTVSPost2010Prop55
280
     0
102
RTVSPost2010PropOp55
 70
     1
102
RTVSPost2010Prop56
140
1.0
102
RTVSPost2010PropOp56
 70
     1
102
RTVSPost2010Prop57
140
1.0
102
RTVSPost2010PropOp57
 70
     1
  0
XRECORD
  5
C0B
102
{ACAD_REACTORS
330
C0A
102
}
330
C0A
100
AcDbXrecord
280
     1
102
RTVSPropertyOp0
 70
     1
102
RTVSPropertyOp1
 70
     1
102
RTVSPropertyOp2
 70
     1
102
RTVSPropertyOp3
 70
     1
102
RTVSPropertyOp4
 70
     1
102
RTVSPropertyOp5
 70
     1
102
RTVSPropertyOp6
 70
     1
102
RTVSPropertyOp7
 70
     1
102
RTVSPropertyOp8
 70
     1
102
RTVSPropertyOp9
 70
     1
102
RTVSPropertyOp10
 70
     1
102
RTVSPropertyOp11
 70
     1
102
RTVSPropertyOp12
 70
     1
102
RTVSPropertyOp13
 70
     1
102
RTVSPropertyOp14
 70
     1
102
RTVSPropertyOp15
 70
     1
102
RTVSPropertyOp16
 70
     1
102
RTVSPropertyOp17
 70
     1
102
RTVSPropertyOp18
 70
     1
102
RTVSPropertyOp19
 70
     1
102
RTVSPropertyOp20
 70
     1
102
RTVSPropertyOp21
 70
     1
102
RTVSPropertyOp22
 70
     1
102
RTVSPropertyOp23
 70
     1
102
RTVSPropertyOp24
 70
     1
102
RTVSPropertyOp25
 70
     1
102
RTVSPropertyOp26
 70
     1
102
RTVSPropertyOp27
 70
     1
102
RTVSPropertyOp28
 70
     1
102
RTVSPropertyOp29
 70
     1
102
RTVSPropertyOp30
 70
     1
102
RTVSPropertyOp31
 70
     1
102
RTVSPropertyOp32
 70
     1
102
RTVSPropertyOp33
 70
     1
102
RTVSPropertyOp34
 70
     1
102
RTVSPropertyOp35
 70
     1
102
RTVSPropertyOp36
 70
     1
102
RTVSPropertyOp37
 70
     1
102
RTVSPropertyOp38
 70
     1
102
RTVSPropertyOp39
 70
     1
102
RTVSPropertyOp40
 70
     1
102
RTVSPropertyOp41
 70
     1
102
RTVSPropertyOp42
 70
     1
102
RTVSPropertyOp43
 70
     1
102
RTVSPropertyOp44
 70
     1
102
RTVSPropertyOp45
 70
     1
102
RTVSPropertyOp46
 70
     1
102
RTVSPropertyOp47
 70
     1
102
RTVSPropertyOp48
 70
     1
102
RTVSPropertyOp49
 70
     1
102
RTVSPropertyOp50
 70
     1
102
RTVSPropertyOp51
 70
     0
102
RTVSPropertyOp52
 70
     0
102
RTVSPropertyOp53
 70
     1
102
RTVSPropertyOp54
 70
     1
102
RTVSPropertyOp55
 70
     1
102
RTVSPropertyOp56
 70
     1
102
RTVSPropertyOp57
 70
     1
102
RTVSPost2010Prop28
280
     0
102
RTVSPost2010PropOp28
 70
     1
102
RTVSPost2010Prop29
280
     1
102
RTVSPost2010PropOp29
 70
     1
102
RTVSPost2010Prop30
280
     1
102
RTVSPost2010PropOp30
 70
     1
102
RTVSPost2010Prop31
280
     0
102
RTVSPost2010PropOp31
 70
     1
102
RTVSPost2010Prop32
280
     0
102
RTVSPost2010PropOp32
 70
     1
102
RTVSPost2010Prop33
280
     0
102
RTVSPost2010PropOp33
 70
     1
102
RTVSPost2010Prop34
280
     0
102
RTVSPost2010PropOp34
 70
     1
102
RTVSPost2010Prop35
280
     0
102
RTVSPost2010PropOp35
 70
     1
102
RTVSPost2010Prop36
280
     0
102
RTVSPost2010PropOp36
 70
     1
102
RTVSPost2010Prop37
 90
       50
102
RTVSPost2010PropOp37
 70
     1
102
RTVSPost2010Prop38
140
0.0
102
RTVSPost2010PropOp38
 70
     1
102
RTVSPost2010Prop39
140
1.0
102
RTVSPost2010PropOp39
 70
     1
102
RTVSPost2010Prop40
 90
        0
102
RTVSPost2010PropOp40
 70
     1
102
RTVSPost2010Prop41ColorIndex
 90
       18
102
RTVSPost2010Prop41ColorRGB
 90
        0
102
RTVSPost2010PropOp41
 70
     1
102
RTVSPost2010Prop42
 90
       50
102
RTVSPost2010PropOp42
 70
     1
102
RTVSPost2010Prop43
 90
        3
102
RTVSPost2010PropOp43
 70
     1
102
RTVSPost2010Prop44ColorIndex
 90
        5
102
RTVSPost2010Prop44ColorRGB
 90
      255
102
RTVSPost2010PropOp44
 70
     1
102
RTVSPost2010Prop45
280
     0
102
RTVSPost2010PropOp45
 70
     1
102
RTVSPost2010Prop46
 90
       50
102
RTVSPost2010PropOp46
 70
     1
102
RTVSPost2010Prop47
 90
       50
102
RTVSPost2010PropOp47
 70
     1
102
RTVSPost2010Prop48
 90
       50
102
RTVSPost2010PropOp48
 70
     1
102
RTVSPost2010Prop49
280
     0
102
RTVSPost2010PropOp49
 70
     1
102
RTVSPost2010Prop50
 90
       50
102
RTVSPost2010PropOp50
 70
     1
102
RTVSPost2010Prop51ColorIndex
 90
      256
102
RTVSPost2010Prop51ColorRGB
 90
-16777216
102
RTVSPost2010PropOp51
 70
     0
102
RTVSPost2010Prop52
140
1.0
102
RTVSPost2010PropOp52
 70
     0
102
RTVSPost2010Prop53
 90
        2
102
RTVSPost2010PropOp53
 70
     1
102
RTVSPost2010Prop54
  1
strokes_ogs.tif
102
RTVSPost2010PropOp54
 70
     1
102
RTVSPost2010Prop55
280
     0
102
RTVSPost2010PropOp55
 70
     1
102
RTVSPost2010Prop56
140
1.0
102
RTVSPost2010PropOp56
 70
     1
102
RTVSPost2010Prop57
140
1.0
102
RTVSPost2010PropOp57
 70
     1
  0
XRECORD
  5
C0D
102
{ACAD_REACTORS
330
C0C
102
}
330
C0C
100
AcDbXrecord
280
     1
102
RTVSPropertyOp0
 70
     1
102
RTVSPropertyOp1
 70
     1
102
RTVSPropertyOp2
 70
     1
102
RTVSPropertyOp3
 70
     1
102
RTVSPropertyOp4
 70
     1
102
RTVSPropertyOp5
 70
     1
102
RTVSPropertyOp6
 70
     1
102
RTVSPropertyOp7
 70
     1
102
RTVSPropertyOp8
 70
     1
102
RTVSPropertyOp9
 70
     1
102
RTVSPropertyOp10
 70
     1
102
RTVSPropertyOp11
 70
     1
102
RTVSPropertyOp12
 70
     1
102
RTVSPropertyOp13
 70
     1
102
RTVSPropertyOp14
 70
     1
102
RTVSPropertyOp15
 70
     1
102
RTVSPropertyOp16
 70
     1
102
RTVSPropertyOp17
 70
     1
102
RTVSPropertyOp18
 70
     1
102
RTVSPropertyOp19
 70
     1
102
RTVSPropertyOp20
 70
     1
102
RTVSPropertyOp21
 70
     1
102
RTVSPropertyOp22
 70
     1
102
RTVSPropertyOp23
 70
     1
102
RTVSPropertyOp24
 70
     1
102
RTVSPropertyOp25
 70
     1
102
RTVSPropertyOp26
 70
     1
102
RTVSPropertyOp27
 70
     1
102
RTVSPropertyOp28
 70
     1
102
RTVSPropertyOp29
 70
     1
102
RTVSPropertyOp30
 70
     1
102
RTVSPropertyOp31
 70
     1
102
RTVSPropertyOp32
 70
     1
102
RTVSPropertyOp33
 70
     1
102
RTVSPropertyOp34
 70
     1
102
RTVSPropertyOp35
 70
     1
102
RTVSPropertyOp36
 70
     1
102
RTVSPropertyOp37
 70
     1
102
RTVSPropertyOp38
 70
     1
102
RTVSPropertyOp39
 70
     1
102
RTVSPropertyOp40
 70
     1
102
RTVSPropertyOp41
 70
     1
102
RTVSPropertyOp42
 70
     1
102
RTVSPropertyOp43
 70
     1
102
RTVSPropertyOp44
 70
     1
102
RTVSPropertyOp45
 70
     1
102
RTVSPropertyOp46
 70
     1
102
RTVSPropertyOp47
 70
     1
102
RTVSPropertyOp48
 70
     1
102
RTVSPropertyOp49
 70
     1
102
RTVSPropertyOp50
 70
     1
102
RTVSPropertyOp51
 70
     0
102
RTVSPropertyOp52
 70
     0
102
RTVSPropertyOp53
 70
     1
102
RTVSPropertyOp54
 70
     1
102
RTVSPropertyOp55
 70
     1
102
RTVSPropertyOp56
 70
     1
102
RTVSPropertyOp57
 70
     1
102
RTVSPost2010Prop28
280
     0
102
RTVSPost2010PropOp28
 70
     1
102
RTVSPost2010Prop29
280
     1
102
RTVSPost2010PropOp29
 70
     1
102
RTVSPost2010Prop30
280
     1
102
RTVSPost2010PropOp30
 70
     1
102
RTVSPost2010Prop31
280
     0
102
RTVSPost2010PropOp31
 70
     1
102
RTVSPost2010Prop32
280
     0
102
RTVSPost2010PropOp32
 70
     1
102
RTVSPost2010Prop33
280
     0
102
RTVSPost2010PropOp33
 70
     1
102
RTVSPost2010Prop34
280
     0
102
RTVSPost2010PropOp34
 70
     1
102
RTVSPost2010Prop35
280
     0
102
RTVSPost2010PropOp35
 70
     1
102
RTVSPost2010Prop36
280
     0
102
RTVSPost2010PropOp36
 70
     1
102
RTVSPost2010Prop37
 90
       50
102
RTVSPost2010PropOp37
 70
     1
102
RTVSPost2010Prop38
140
0.0
102
RTVSPost2010PropOp38
 70
     1
102
RTVSPost2010Prop39
140
1.0
102
RTVSPost2010PropOp39
 70
     1
102
RTVSPost2010Prop40
 90
        0
102
RTVSPost2010PropOp40
 70
     1
102
RTVSPost2010Prop41ColorIndex
 90
       18
102
RTVSPost2010Prop41ColorRGB
 90
        0
102
RTVSPost2010PropOp41
 70
     1
102
RTVSPost2010Prop42
 90
       50
102
RTVSPost2010PropOp42
 70
     1
102
RTVSPost2010Prop43
 90
        3
102
RTVSPost2010PropOp43
 70
     1
102
RTVSPost2010Prop44ColorIndex
 90
        5
102
RTVSPost2010Prop44ColorRGB
 90
      255
102
RTVSPost2010PropOp44
 70
     1
102
RTVSPost2010Prop45
280
     0
102
RTVSPost2010PropOp45
 70
     1
102
RTVSPost2010Prop46
 90
       50
102
RTVSPost2010PropOp46
 70
     1
102
RTVSPost2010Prop47
 90
       50
102
RTVSPost2010PropOp47
 70
     1
102
RTVSPost2010Prop48
 90
       50
102
RTVSPost2010PropOp48
 70
     1
102
RTVSPost2010Prop49
280
     0
102
RTVSPost2010PropOp49
 70
     1
102
RTVSPost2010Prop50
 90
       50
102
RTVSPost2010PropOp50
 70
     1
102
RTVSPost2010Prop51ColorIndex
 90
      256
102
RTVSPost2010Prop51ColorRGB
 90
-16777216
102
RTVSPost2010PropOp51
 70
     0
102
RTVSPost2010Prop52
140
1.0
102
RTVSPost2010PropOp52
 70
     0
102
RTVSPost2010Prop53
 90
        2
102
RTVSPost2010PropOp53
 70
     1
102
RTVSPost2010Prop54
  1
strokes_ogs.tif
102
RTVSPost2010PropOp54
 70
     1
102
RTVSPost2010Prop55
280
     0
102
RTVSPost2010PropOp55
 70
     1
102
RTVSPost2010Prop56
140
1.0
102
RTVSPost2010PropOp56
 70
     1
102
RTVSPost2010Prop57
140
1.0
102
RTVSPost2010PropOp57
 70
     1
  0
XRECORD
  5
C0F
102
{ACAD_REACTORS
330
C0E
102
}
330
C0E
100
AcDbXrecord
280
     1
102
RTVSPropertyOp0
 70
     0
102
RTVSPropertyOp1
 70
     0
102
RTVSPropertyOp2
 70
     0
102
RTVSPropertyOp3
 70
     0
102
RTVSPropertyOp4
 70
     0
102
RTVSPropertyOp5
 70
     0
102
RTVSPropertyOp6
 70
     0
102
RTVSPropertyOp7
 70
     0
102
RTVSPropertyOp8
 70
     0
102
RTVSPropertyOp9
 70
     0
102
RTVSPropertyOp10
 70
     0
102
RTVSPropertyOp11
 70
     0
102
RTVSPropertyOp12
 70
     0
102
RTVSPropertyOp13
 70
     0
102
RTVSPropertyOp14
 70
     2
102
RTVSPropertyOp15
 70
     0
102
RTVSPropertyOp16
 70
     0
102
RTVSPropertyOp17
 70
     0
102
RTVSPropertyOp18
 70
     0
102
RTVSPropertyOp19
 70
     0
102
RTVSPropertyOp20
 70
     0
102
RTVSPropertyOp21
 70
     0
102
RTVSPropertyOp22
 70
     0
102
RTVSPropertyOp23
 70
     0
102
RTVSPropertyOp24
 70
     0
102
RTVSPropertyOp25
 70
     0
102
RTVSPropertyOp26
 70
     0
102
RTVSPropertyOp27
 70
     0
102
RTVSPropertyOp28
 70
     0
102
RTVSPropertyOp29
 70
     0
102
RTVSPropertyOp30
 70
     0
102
RTVSPropertyOp31
 70
     0
102
RTVSPropertyOp32
 70
     0
102
RTVSPropertyOp33
 70
     0
102
RTVSPropertyOp34
 70
     0
102
RTVSPropertyOp35
 70
     0
102
RTVSPropertyOp36
 70
     0
102
RTVSPropertyOp37
 70
     0
102
RTVSPropertyOp38
 70
     0
102
RTVSPropertyOp39
 70
     0
102
RTVSPropertyOp40
 70
     0
102
RTVSPropertyOp41
 70
     0
102
RTVSPropertyOp42
 70
     0
102
RTVSPropertyOp43
 70
     0
102
RTVSPropertyOp44
 70
     0
102
RTVSPropertyOp45
 70
     0
102
RTVSPropertyOp46
 70
     0
102
RTVSPropertyOp47
 70
     0
102
RTVSPropertyOp48
 70
     0
102
RTVSPropertyOp49
 70
     0
102
RTVSPropertyOp50
 70
     0
102
RTVSPropertyOp51
 70
     0
102
RTVSPropertyOp52
 70
     0
102
RTVSPropertyOp53
 70
     0
102
RTVSPropertyOp54
 70
     0
102
RTVSPropertyOp55
 70
     0
102
RTVSPropertyOp56
 70
     0
102
RTVSPropertyOp57
 70
     0
102
RTVSPost2010Prop28
280
     0
102
RTVSPost2010PropOp28
 70
     0
102
RTVSPost2010Prop29
280
     1
102
RTVSPost2010PropOp29
 70
     0
102
RTVSPost2010Prop30
280
     1
102
RTVSPost2010PropOp30
 70
     0
102
RTVSPost2010Prop31
280
     0
102
RTVSPost2010PropOp31
 70
     0
102
RTVSPost2010Prop32
280
     0
102
RTVSPost2010PropOp32
 70
     0
102
RTVSPost2010Prop33
280
     0
102
RTVSPost2010PropOp33
 70
     0
102
RTVSPost2010Prop34
280
     0
102
RTVSPost2010PropOp34
 70
     0
102
RTVSPost2010Prop35
280
     0
102
RTVSPost2010PropOp35
 70
     0
102
RTVSPost2010Prop36
280
     0
102
RTVSPost2010PropOp36
 70
     0
102
RTVSPost2010Prop37
 90
       50
102
RTVSPost2010PropOp37
 70
     0
102
RTVSPost2010Prop38
140
0.0
102
RTVSPost2010PropOp38
 70
     0
102
RTVSPost2010Prop39
140
1.0
102
RTVSPost2010PropOp39
 70
     0
102
RTVSPost2010Prop40
 90
        0
102
RTVSPost2010PropOp40
 70
     0
102
RTVSPost2010Prop41ColorIndex
 90
       18
102
RTVSPost2010Prop41ColorRGB
 90
        0
102
RTVSPost2010PropOp41
 70
     0
102
RTVSPost2010Prop42
 90
       50
102
RTVSPost2010PropOp42
 70
     0
102
RTVSPost2010Prop43
 90
        3
102
RTVSPost2010PropOp43
 70
     0
102
RTVSPost2010Prop44ColorIndex
 90
        5
102
RTVSPost2010Prop44ColorRGB
 90
      255
102
RTVSPost2010PropOp44
 70
     0
102
RTVSPost2010Prop45
280
     0
102
RTVSPost2010PropOp45
 70
     0
102
RTVSPost2010Prop46
 90
       50
102
RTVSPost2010PropOp46
 70
     0
102
RTVSPost2010Prop47
 90
       50
102
RTVSPost2010PropOp47
 70
     0
102
RTVSPost2010Prop48
 90
       50
102
RTVSPost2010PropOp48
 70
     0
102
RTVSPost2010Prop49
280
     0
102
RTVSPost2010PropOp49
 70
     0
102
RTVSPost2010Prop50
 90
       50
102
RTVSPost2010PropOp50
 70
     0
102
RTVSPost2010Prop51ColorIndex
 90
      256
102
RTVSPost2010Prop51ColorRGB
 90
-16777216
102
RTVSPost2010PropOp51
 70
     0
102
RTVSPost2010Prop52
140
1.0
102
RTVSPost2010PropOp52
 70
     0
102
RTVSPost2010Prop53
 90
        2
102
RTVSPost2010PropOp53
 70
     0
102
RTVSPost2010Prop54
  1
strokes_ogs.tif
102
RTVSPost2010PropOp54
 70
     0
102
RTVSPost2010Prop55
280
     0
102
RTVSPost2010PropOp55
 70
     0
102
RTVSPost2010Prop56
140
1.0
102
RTVSPost2010PropOp56
 70
     0
102
RTVSPost2010Prop57
140
1.0
102
RTVSPost2010PropOp57
 70
     0
  0
XRECORD
  5
C11
102
{ACAD_REACTORS
330
C10
102
}
330
C10
100
AcDbXrecord
280
     1
102
RTVSPropertyOp0
 70
     1
102
RTVSPropertyOp1
 70
     1
102
RTVSPropertyOp2
 70
     1
102
RTVSPropertyOp3
 70
     1
102
RTVSPropertyOp4
 70
     1
102
RTVSPropertyOp5
 70
     1
102
RTVSPropertyOp6
 70
     1
102
RTVSPropertyOp7
 70
     1
102
RTVSPropertyOp8
 70
     1
102
RTVSPropertyOp9
 70
     1
102
RTVSPropertyOp10
 70
     1
102
RTVSPropertyOp11
 70
     1
102
RTVSPropertyOp12
 70
     1
102
RTVSPropertyOp13
 70
     1
102
RTVSPropertyOp14
 70
     1
102
RTVSPropertyOp15
 70
     1
102
RTVSPropertyOp16
 70
     1
102
RTVSPropertyOp17
 70
     1
102
RTVSPropertyOp18
 70
     1
102
RTVSPropertyOp19
 70
     1
102
RTVSPropertyOp20
 70
     1
102
RTVSPropertyOp21
 70
     1
102
RTVSPropertyOp22
 70
     1
102
RTVSPropertyOp23
 70
     1
102
RTVSPropertyOp24
 70
     1
102
RTVSPropertyOp25
 70
     1
102
RTVSPropertyOp26
 70
     1
102
RTVSPropertyOp27
 70
     1
102
RTVSPropertyOp28
 70
     1
102
RTVSPropertyOp29
 70
     1
102
RTVSPropertyOp30
 70
     1
102
RTVSPropertyOp31
 70
     1
102
RTVSPropertyOp32
 70
     1
102
RTVSPropertyOp33
 70
     1
102
RTVSPropertyOp34
 70
     1
102
RTVSPropertyOp35
 70
     1
102
RTVSPropertyOp36
 70
     1
102
RTVSPropertyOp37
 70
     1
102
RTVSPropertyOp38
 70
     1
102
RTVSPropertyOp39
 70
     1
102
RTVSPropertyOp40
 70
     1
102
RTVSPropertyOp41
 70
     1
102
RTVSPropertyOp42
 70
     1
102
RTVSPropertyOp43
 70
     1
102
RTVSPropertyOp44
 70
     1
102
RTVSPropertyOp45
 70
     1
102
RTVSPropertyOp46
 70
     1
102
RTVSPropertyOp47
 70
     1
102
RTVSPropertyOp48
 70
     1
102
RTVSPropertyOp49
 70
     1
102
RTVSPropertyOp50
 70
     1
102
RTVSPropertyOp51
 70
     0
102
RTVSPropertyOp52
 70
     0
102
RTVSPropertyOp53
 70
     1
102
RTVSPropertyOp54
 70
     1
102
RTVSPropertyOp55
 70
     1
102
RTVSPropertyOp56
 70
     1
102
RTVSPropertyOp57
 70
     1
102
RTVSPost2010Prop28
280
     0
102
RTVSPost2010PropOp28
 70
     1
102
RTVSPost2010Prop29
280
     1
102
RTVSPost2010PropOp29
 70
     1
102
RTVSPost2010Prop30
280
     1
102
RTVSPost2010PropOp30
 70
     1
102
RTVSPost2010Prop31
280
     0
102
RTVSPost2010PropOp31
 70
     1
102
RTVSPost2010Prop32
280
     0
102
RTVSPost2010PropOp32
 70
     1
102
RTVSPost2010Prop33
280
     0
102
RTVSPost2010PropOp33
 70
     1
102
RTVSPost2010Prop34
280
     0
102
RTVSPost2010PropOp34
 70
     1
102
RTVSPost2010Prop35
280
     0
102
RTVSPost2010PropOp35
 70
     1
102
RTVSPost2010Prop36
280
     0
102
RTVSPost2010PropOp36
 70
     1
102
RTVSPost2010Prop37
 90
       50
102
RTVSPost2010PropOp37
 70
     1
102
RTVSPost2010Prop38
140
0.0
102
RTVSPost2010PropOp38
 70
     1
102
RTVSPost2010Prop39
140
1.0
102
RTVSPost2010PropOp39
 70
     1
102
RTVSPost2010Prop40
 90
        0
102
RTVSPost2010PropOp40
 70
     1
102
RTVSPost2010Prop41ColorIndex
 90
       18
102
RTVSPost2010Prop41ColorRGB
 90
        0
102
RTVSPost2010PropOp41
 70
     1
102
RTVSPost2010Prop42
 90
       50
102
RTVSPost2010PropOp42
 70
     1
102
RTVSPost2010Prop43
 90
        3
102
RTVSPost2010PropOp43
 70
     1
102
RTVSPost2010Prop44ColorIndex
 90
        5
102
RTVSPost2010Prop44ColorRGB
 90
      255
102
RTVSPost2010PropOp44
 70
     1
102
RTVSPost2010Prop45
280
     0
102
RTVSPost2010PropOp45
 70
     1
102
RTVSPost2010Prop46
 90
       50
102
RTVSPost2010PropOp46
 70
     1
102
RTVSPost2010Prop47
 90
       50
102
RTVSPost2010PropOp47
 70
     1
102
RTVSPost2010Prop48
 90
       50
102
RTVSPost2010PropOp48
 70
     1
102
RTVSPost2010Prop49
280
     0
102
RTVSPost2010PropOp49
 70
     1
102
RTVSPost2010Prop50
 90
       50
102
RTVSPost2010PropOp50
 70
     1
102
RTVSPost2010Prop51ColorIndex
 90
      256
102
RTVSPost2010Prop51ColorRGB
 90
-16777216
102
RTVSPost2010PropOp51
 70
     0
102
RTVSPost2010Prop52
140
1.0
102
RTVSPost2010PropOp52
 70
     0
102
RTVSPost2010Prop53
 90
        2
102
RTVSPost2010PropOp53
 70
     1
102
RTVSPost2010Prop54
  1
strokes_ogs.tif
102
RTVSPost2010PropOp54
 70
     1
102
RTVSPost2010Prop55
280
     0
102
RTVSPost2010PropOp55
 70
     1
102
RTVSPost2010Prop56
140
1.0
102
RTVSPost2010PropOp56
 70
     1
102
RTVSPost2010Prop57
140
1.0
102
RTVSPost2010PropOp57
 70
     1
  0
XRECORD
  5
C13
102
{ACAD_REACTORS
330
C12
102
}
330
C12
100
AcDbXrecord
280
     1
102
RTVSPropertyOp0
 70
     1
102
RTVSPropertyOp1
 70
     1
102
RTVSPropertyOp2
 70
     1
102
RTVSPropertyOp3
 70
     1
102
RTVSPropertyOp4
 70
     1
102
RTVSPropertyOp5
 70
     1
102
RTVSPropertyOp6
 70
     1
102
RTVSPropertyOp7
 70
     1
102
RTVSPropertyOp8
 70
     1
102
RTVSPropertyOp9
 70
     1
102
RTVSPropertyOp10
 70
     1
102
RTVSPropertyOp11
 70
     1
102
RTVSPropertyOp12
 70
     1
102
RTVSPropertyOp13
 70
     1
102
RTVSPropertyOp14
 70
     1
102
RTVSPropertyOp15
 70
     1
102
RTVSPropertyOp16
 70
     1
102
RTVSPropertyOp17
 70
     1
102
RTVSPropertyOp18
 70
     1
102
RTVSPropertyOp19
 70
     1
102
RTVSPropertyOp20
 70
     1
102
RTVSPropertyOp21
 70
     1
102
RTVSPropertyOp22
 70
     1
102
RTVSPropertyOp23
 70
     1
102
RTVSPropertyOp24
 70
     1
102
RTVSPropertyOp25
 70
     1
102
RTVSPropertyOp26
 70
     1
102
RTVSPropertyOp27
 70
     1
102
RTVSPropertyOp28
 70
     1
102
RTVSPropertyOp29
 70
     1
102
RTVSPropertyOp30
 70
     1
102
RTVSPropertyOp31
 70
     1
102
RTVSPropertyOp32
 70
     1
102
RTVSPropertyOp33
 70
     1
102
RTVSPropertyOp34
 70
     1
102
RTVSPropertyOp35
 70
     1
102
RTVSPropertyOp36
 70
     1
102
RTVSPropertyOp37
 70
     1
102
RTVSPropertyOp38
 70
     1
102
RTVSPropertyOp39
 70
     1
102
RTVSPropertyOp40
 70
     1
102
RTVSPropertyOp41
 70
     1
102
RTVSPropertyOp42
 70
     1
102
RTVSPropertyOp43
 70
     1
102
RTVSPropertyOp44
 70
     1
102
RTVSPropertyOp45
 70
     1
102
RTVSPropertyOp46
 70
     1
102
RTVSPropertyOp47
 70
     1
102
RTVSPropertyOp48
 70
     1
102
RTVSPropertyOp49
 70
     1
102
RTVSPropertyOp50
 70
     1
102
RTVSPropertyOp51
 70
     0
102
RTVSPropertyOp52
 70
     0
102
RTVSPropertyOp53
 70
     1
102
RTVSPropertyOp54
 70
     1
102
RTVSPropertyOp55
 70
     1
102
RTVSPropertyOp56
 70
     1
102
RTVSPropertyOp57
 70
     1
102
RTVSPost2010Prop28
280
     0
102
RTVSPost2010PropOp28
 70
     1
102
RTVSPost2010Prop29
280
     1
102
RTVSPost2010PropOp29
 70
     1
102
RTVSPost2010Prop30
280
     1
102
RTVSPost2010PropOp30
 70
     1
102
RTVSPost2010Prop31
280
     0
102
RTVSPost2010PropOp31
 70
     1
102
RTVSPost2010Prop32
280
     0
102
RTVSPost2010PropOp32
 70
     1
102
RTVSPost2010Prop33
280
     0
102
RTVSPost2010PropOp33
 70
     1
102
RTVSPost2010Prop34
280
     0
102
RTVSPost2010PropOp34
 70
     1
102
RTVSPost2010Prop35
280
     0
102
RTVSPost2010PropOp35
 70
     1
102
RTVSPost2010Prop36
280
     0
102
RTVSPost2010PropOp36
 70
     1
102
RTVSPost2010Prop37
 90
       50
102
RTVSPost2010PropOp37
 70
     1
102
RTVSPost2010Prop38
140
0.0
102
RTVSPost2010PropOp38
 70
     1
102
RTVSPost2010Prop39
140
1.0
102
RTVSPost2010PropOp39
 70
     1
102
RTVSPost2010Prop40
 90
        0
102
RTVSPost2010PropOp40
 70
     1
102
RTVSPost2010Prop41ColorIndex
 90
       18
102
RTVSPost2010Prop41ColorRGB
 90
        0
102
RTVSPost2010PropOp41
 70
     1
102
RTVSPost2010Prop42
 90
       50
102
RTVSPost2010PropOp42
 70
     1
102
RTVSPost2010Prop43
 90
        3
102
RTVSPost2010PropOp43
 70
     1
102
RTVSPost2010Prop44ColorIndex
 90
        5
102
RTVSPost2010Prop44ColorRGB
 90
      255
102
RTVSPost2010PropOp44
 70
     1
102
RTVSPost2010Prop45
280
     0
102
RTVSPost2010PropOp45
 70
     1
102
RTVSPost2010Prop46
 90
       50
102
RTVSPost2010PropOp46
 70
     1
102
RTVSPost2010Prop47
 90
       50
102
RTVSPost2010PropOp47
 70
     1
102
RTVSPost2010Prop48
 90
       50
102
RTVSPost2010PropOp48
 70
     1
102
RTVSPost2010Prop49
280
     0
102
RTVSPost2010PropOp49
 70
     1
102
RTVSPost2010Prop50
 90
       50
102
RTVSPost2010PropOp50
 70
     1
102
RTVSPost2010Prop51ColorIndex
 90
      256
102
RTVSPost2010Prop51ColorRGB
 90
-16777216
102
RTVSPost2010PropOp51
 70
     0
102
RTVSPost2010Prop52
140
1.0
102
RTVSPost2010PropOp52
 70
     0
102
RTVSPost2010Prop53
 90
        2
102
RTVSPost2010PropOp53
 70
     1
102
RTVSPost2010Prop54
  1
strokes_ogs.tif
102
RTVSPost2010PropOp54
 70
     1
102
RTVSPost2010Prop55
280
     0
102
RTVSPost2010PropOp55
 70
     1
102
RTVSPost2010Prop56
140
1.0
102
RTVSPost2010PropOp56
 70
     1
102
RTVSPost2010Prop57
140
1.0
102
RTVSPost2010PropOp57
 70
     1
  0
XRECORD
  5
C15
102
{ACAD_REACTORS
330
C14
102
}
330
C14
100
AcDbXrecord
280
     1
102
RTVSPropertyOp0
 70
     1
102
RTVSPropertyOp1
 70
     1
102
RTVSPropertyOp2
 70
     1
102
RTVSPropertyOp3
 70
     1
102
RTVSPropertyOp4
 70
     1
102
RTVSPropertyOp5
 70
     1
102
RTVSPropertyOp6
 70
     1
102
RTVSPropertyOp7
 70
     1
102
RTVSPropertyOp8
 70
     1
102
RTVSPropertyOp9
 70
     1
102
RTVSPropertyOp10
 70
     1
102
RTVSPropertyOp11
 70
     1
102
RTVSPropertyOp12
 70
     1
102
RTVSPropertyOp13
 70
     1
102
RTVSPropertyOp14
 70
     1
102
RTVSPropertyOp15
 70
     1
102
RTVSPropertyOp16
 70
     1
102
RTVSPropertyOp17
 70
     1
102
RTVSPropertyOp18
 70
     1
102
RTVSPropertyOp19
 70
     1
102
RTVSPropertyOp20
 70
     1
102
RTVSPropertyOp21
 70
     1
102
RTVSPropertyOp22
 70
     1
102
RTVSPropertyOp23
 70
     1
102
RTVSPropertyOp24
 70
     1
102
RTVSPropertyOp25
 70
     1
102
RTVSPropertyOp26
 70
     1
102
RTVSPropertyOp27
 70
     1
102
RTVSPropertyOp28
 70
     1
102
RTVSPropertyOp29
 70
     1
102
RTVSPropertyOp30
 70
     1
102
RTVSPropertyOp31
 70
     1
102
RTVSPropertyOp32
 70
     1
102
RTVSPropertyOp33
 70
     1
102
RTVSPropertyOp34
 70
     1
102
RTVSPropertyOp35
 70
     1
102
RTVSPropertyOp36
 70
     1
102
RTVSPropertyOp37
 70
     1
102
RTVSPropertyOp38
 70
     1
102
RTVSPropertyOp39
 70
     1
102
RTVSPropertyOp40
 70
     1
102
RTVSPropertyOp41
 70
     1
102
RTVSPropertyOp42
 70
     1
102
RTVSPropertyOp43
 70
     1
102
RTVSPropertyOp44
 70
     1
102
RTVSPropertyOp45
 70
     1
102
RTVSPropertyOp46
 70
     1
102
RTVSPropertyOp47
 70
     1
102
RTVSPropertyOp48
 70
     1
102
RTVSPropertyOp49
 70
     1
102
RTVSPropertyOp50
 70
     1
102
RTVSPropertyOp51
 70
     0
102
RTVSPropertyOp52
 70
     0
102
RTVSPropertyOp53
 70
     1
102
RTVSPropertyOp54
 70
     1
102
RTVSPropertyOp55
 70
     1
102
RTVSPropertyOp56
 70
     1
102
RTVSPropertyOp57
 70
     1
102
RTVSPost2010Prop28
280
     0
102
RTVSPost2010PropOp28
 70
     1
102
RTVSPost2010Prop29
280
     1
102
RTVSPost2010PropOp29
 70
     1
102
RTVSPost2010Prop30
280
     1
102
RTVSPost2010PropOp30
 70
     1
102
RTVSPost2010Prop31
280
     0
102
RTVSPost2010PropOp31
 70
     1
102
RTVSPost2010Prop32
280
     0
102
RTVSPost2010PropOp32
 70
     1
102
RTVSPost2010Prop33
280
     0
102
RTVSPost2010PropOp33
 70
     1
102
RTVSPost2010Prop34
280
     0
102
RTVSPost2010PropOp34
 70
     1
102
RTVSPost2010Prop35
280
     0
102
RTVSPost2010PropOp35
 70
     1
102
RTVSPost2010Prop36
280
     0
102
RTVSPost2010PropOp36
 70
     1
102
RTVSPost2010Prop37
 90
       50
102
RTVSPost2010PropOp37
 70
     1
102
RTVSPost2010Prop38
140
0.0
102
RTVSPost2010PropOp38
 70
     1
102
RTVSPost2010Prop39
140
1.0
102
RTVSPost2010PropOp39
 70
     1
102
RTVSPost2010Prop40
 90
        0
102
RTVSPost2010PropOp40
 70
     1
102
RTVSPost2010Prop41ColorIndex
 90
       18
102
RTVSPost2010Prop41ColorRGB
 90
        0
102
RTVSPost2010PropOp41
 70
     1
102
RTVSPost2010Prop42
 90
       50
102
RTVSPost2010PropOp42
 70
     1
102
RTVSPost2010Prop43
 90
        3
102
RTVSPost2010PropOp43
 70
     1
102
RTVSPost2010Prop44ColorIndex
 90
        5
102
RTVSPost2010Prop44ColorRGB
 90
      255
102
RTVSPost2010PropOp44
 70
     1
102
RTVSPost2010Prop45
280
     0
102
RTVSPost2010PropOp45
 70
     1
102
RTVSPost2010Prop46
 90
       50
102
RTVSPost2010PropOp46
 70
     1
102
RTVSPost2010Prop47
 90
       50
102
RTVSPost2010PropOp47
 70
     1
102
RTVSPost2010Prop48
 90
       50
102
RTVSPost2010PropOp48
 70
     1
102
RTVSPost2010Prop49
280
     0
102
RTVSPost2010PropOp49
 70
     1
102
RTVSPost2010Prop50
 90
       50
102
RTVSPost2010PropOp50
 70
     1
102
RTVSPost2010Prop51ColorIndex
 90
      256
102
RTVSPost2010Prop51ColorRGB
 90
-16777216
102
RTVSPost2010PropOp51
 70
     0
102
RTVSPost2010Prop52
140
1.0
102
RTVSPost2010PropOp52
 70
     0
102
RTVSPost2010Prop53
 90
        2
102
RTVSPost2010PropOp53
 70
     1
102
RTVSPost2010Prop54
  1
strokes_ogs.tif
102
RTVSPost2010PropOp54
 70
     1
102
RTVSPost2010Prop55
280
     0
102
RTVSPost2010PropOp55
 70
     1
102
RTVSPost2010Prop56
140
1.0
102
RTVSPost2010PropOp56
 70
     1
102
RTVSPost2010Prop57
140
1.0
102
RTVSPost2010PropOp57
 70
     1
  0
XRECORD
  5
C17
102
{ACAD_REACTORS
330
C16
102
}
330
C16
100
AcDbXrecord
280
     1
102
RTVSPropertyOp0
 70
     1
102
RTVSPropertyOp1
 70
     1
102
RTVSPropertyOp2
 70
     1
102
RTVSPropertyOp3
 70
     1
102
RTVSPropertyOp4
 70
     1
102
RTVSPropertyOp5
 70
     1
102
RTVSPropertyOp6
 70
     1
102
RTVSPropertyOp7
 70
     1
102
RTVSPropertyOp8
 70
     1
102
RTVSPropertyOp9
 70
     1
102
RTVSPropertyOp10
 70
     1
102
RTVSPropertyOp11
 70
     1
102
RTVSPropertyOp12
 70
     1
102
RTVSPropertyOp13
 70
     1
102
RTVSPropertyOp14
 70
     1
102
RTVSPropertyOp15
 70
     1
102
RTVSPropertyOp16
 70
     1
102
RTVSPropertyOp17
 70
     1
102
RTVSPropertyOp18
 70
     1
102
RTVSPropertyOp19
 70
     1
102
RTVSPropertyOp20
 70
     1
102
RTVSPropertyOp21
 70
     1
102
RTVSPropertyOp22
 70
     1
102
RTVSPropertyOp23
 70
     1
102
RTVSPropertyOp24
 70
     1
102
RTVSPropertyOp25
 70
     1
102
RTVSPropertyOp26
 70
     1
102
RTVSPropertyOp27
 70
     1
102
RTVSPropertyOp28
 70
     1
102
RTVSPropertyOp29
 70
     1
102
RTVSPropertyOp30
 70
     1
102
RTVSPropertyOp31
 70
     1
102
RTVSPropertyOp32
 70
     1
102
RTVSPropertyOp33
 70
     1
102
RTVSPropertyOp34
 70
     1
102
RTVSPropertyOp35
 70
     1
102
RTVSPropertyOp36
 70
     1
102
RTVSPropertyOp37
 70
     1
102
RTVSPropertyOp38
 70
     1
102
RTVSPropertyOp39
 70
     1
102
RTVSPropertyOp40
 70
     1
102
RTVSPropertyOp41
 70
     1
102
RTVSPropertyOp42
 70
     1
102
RTVSPropertyOp43
 70
     1
102
RTVSPropertyOp44
 70
     1
102
RTVSPropertyOp45
 70
     1
102
RTVSPropertyOp46
 70
     1
102
RTVSPropertyOp47
 70
     1
102
RTVSPropertyOp48
 70
     1
102
RTVSPropertyOp49
 70
     1
102
RTVSPropertyOp50
 70
     1
102
RTVSPropertyOp51
 70
     0
102
RTVSPropertyOp52
 70
     0
102
RTVSPropertyOp53
 70
     1
102
RTVSPropertyOp54
 70
     1
102
RTVSPropertyOp55
 70
     1
102
RTVSPropertyOp56
 70
     1
102
RTVSPropertyOp57
 70
     1
102
RTVSPost2010Prop28
280
     0
102
RTVSPost2010PropOp28
 70
     1
102
RTVSPost2010Prop29
280
     1
102
RTVSPost2010PropOp29
 70
     1
102
RTVSPost2010Prop30
280
     1
102
RTVSPost2010PropOp30
 70
     1
102
RTVSPost2010Prop31
280
     0
102
RTVSPost2010PropOp31
 70
     1
102
RTVSPost2010Prop32
280
     0
102
RTVSPost2010PropOp32
 70
     1
102
RTVSPost2010Prop33
280
     0
102
RTVSPost2010PropOp33
 70
     1
102
RTVSPost2010Prop34
280
     0
102
RTVSPost2010PropOp34
 70
     1
102
RTVSPost2010Prop35
280
     0
102
RTVSPost2010PropOp35
 70
     1
102
RTVSPost2010Prop36
280
     0
102
RTVSPost2010PropOp36
 70
     1
102
RTVSPost2010Prop37
 90
       50
102
RTVSPost2010PropOp37
 70
     1
102
RTVSPost2010Prop38
140
0.0
102
RTVSPost2010PropOp38
 70
     1
102
RTVSPost2010Prop39
140
1.0
102
RTVSPost2010PropOp39
 70
     1
102
RTVSPost2010Prop40
 90
        0
102
RTVSPost2010PropOp40
 70
     1
102
RTVSPost2010Prop41ColorIndex
 90
       18
102
RTVSPost2010Prop41ColorRGB
 90
        0
102
RTVSPost2010PropOp41
 70
     1
102
RTVSPost2010Prop42
 90
       50
102
RTVSPost2010PropOp42
 70
     1
102
RTVSPost2010Prop43
 90
        3
102
RTVSPost2010PropOp43
 70
     1
102
RTVSPost2010Prop44ColorIndex
 90
        5
102
RTVSPost2010Prop44ColorRGB
 90
      255
102
RTVSPost2010PropOp44
 70
     1
102
RTVSPost2010Prop45
280
     0
102
RTVSPost2010PropOp45
 70
     1
102
RTVSPost2010Prop46
 90
       50
102
RTVSPost2010PropOp46
 70
     1
102
RTVSPost2010Prop47
 90
       50
102
RTVSPost2010PropOp47
 70
     1
102
RTVSPost2010Prop48
 90
       50
102
RTVSPost2010PropOp48
 70
     1
102
RTVSPost2010Prop49
280
     0
102
RTVSPost2010PropOp49
 70
     1
102
RTVSPost2010Prop50
 90
       50
102
RTVSPost2010PropOp50
 70
     1
102
RTVSPost2010Prop51ColorIndex
 90
      256
102
RTVSPost2010Prop51ColorRGB
 90
-16777216
102
RTVSPost2010PropOp51
 70
     0
102
RTVSPost2010Prop52
140
1.0
102
RTVSPost2010PropOp52
 70
     0
102
RTVSPost2010Prop53
 90
        2
102
RTVSPost2010PropOp53
 70
     1
102
RTVSPost2010Prop54
  1
strokes_ogs.tif
102
RTVSPost2010PropOp54
 70
     1
102
RTVSPost2010Prop55
280
     0
102
RTVSPost2010PropOp55
 70
     1
102
RTVSPost2010Prop56
140
1.0
102
RTVSPost2010PropOp56
 70
     1
102
RTVSPost2010Prop57
140
1.0
102
RTVSPost2010PropOp57
 70
     1
  0
XRECORD
  5
C19
102
{ACAD_REACTORS
330
C18
102
}
330
C18
100
AcDbXrecord
280
     1
102
RTVSPropertyOp0
 70
     1
102
RTVSPropertyOp1
 70
     1
102
RTVSPropertyOp2
 70
     1
102
RTVSPropertyOp3
 70
     1
102
RTVSPropertyOp4
 70
     1
102
RTVSPropertyOp5
 70
     1
102
RTVSPropertyOp6
 70
     1
102
RTVSPropertyOp7
 70
     1
102
RTVSPropertyOp8
 70
     1
102
RTVSPropertyOp9
 70
     1
102
RTVSPropertyOp10
 70
     1
102
RTVSPropertyOp11
 70
     1
102
RTVSPropertyOp12
 70
     1
102
RTVSPropertyOp13
 70
     1
102
RTVSPropertyOp14
 70
     1
102
RTVSPropertyOp15
 70
     1
102
RTVSPropertyOp16
 70
     1
102
RTVSPropertyOp17
 70
     1
102
RTVSPropertyOp18
 70
     1
102
RTVSPropertyOp19
 70
     1
102
RTVSPropertyOp20
 70
     1
102
RTVSPropertyOp21
 70
     1
102
RTVSPropertyOp22
 70
     1
102
RTVSPropertyOp23
 70
     1
102
RTVSPropertyOp24
 70
     1
102
RTVSPropertyOp25
 70
     1
102
RTVSPropertyOp26
 70
     1
102
RTVSPropertyOp27
 70
     1
102
RTVSPropertyOp28
 70
     1
102
RTVSPropertyOp29
 70
     1
102
RTVSPropertyOp30
 70
     1
102
RTVSPropertyOp31
 70
     1
102
RTVSPropertyOp32
 70
     1
102
RTVSPropertyOp33
 70
     1
102
RTVSPropertyOp34
 70
     1
102
RTVSPropertyOp35
 70
     1
102
RTVSPropertyOp36
 70
     1
102
RTVSPropertyOp37
 70
     1
102
RTVSPropertyOp38
 70
     1
102
RTVSPropertyOp39
 70
     1
102
RTVSPropertyOp40
 70
     1
102
RTVSPropertyOp41
 70
     1
102
RTVSPropertyOp42
 70
     1
102
RTVSPropertyOp43
 70
     1
102
RTVSPropertyOp44
 70
     1
102
RTVSPropertyOp45
 70
     1
102
RTVSPropertyOp46
 70
     1
102
RTVSPropertyOp47
 70
     1
102
RTVSPropertyOp48
 70
     1
102
RTVSPropertyOp49
 70
     1
102
RTVSPropertyOp50
 70
     1
102
RTVSPropertyOp51
 70
     0
102
RTVSPropertyOp52
 70
     0
102
RTVSPropertyOp53
 70
     1
102
RTVSPropertyOp54
 70
     1
102
RTVSPropertyOp55
 70
     1
102
RTVSPropertyOp56
 70
     1
102
RTVSPropertyOp57
 70
     1
102
RTVSPost2010Prop28
280
     0
102
RTVSPost2010PropOp28
 70
     1
102
RTVSPost2010Prop29
280
     1
102
RTVSPost2010PropOp29
 70
     1
102
RTVSPost2010Prop30
280
     1
102
RTVSPost2010PropOp30
 70
     1
102
RTVSPost2010Prop31
280
     0
102
RTVSPost2010PropOp31
 70
     1
102
RTVSPost2010Prop32
280
     0
102
RTVSPost2010PropOp32
 70
     1
102
RTVSPost2010Prop33
280
     0
102
RTVSPost2010PropOp33
 70
     1
102
RTVSPost2010Prop34
280
     0
102
RTVSPost2010PropOp34
 70
     1
102
RTVSPost2010Prop35
280
     0
102
RTVSPost2010PropOp35
 70
     1
102
RTVSPost2010Prop36
280
     0
102
RTVSPost2010PropOp36
 70
     1
102
RTVSPost2010Prop37
 90
       50
102
RTVSPost2010PropOp37
 70
     1
102
RTVSPost2010Prop38
140
0.0
102
RTVSPost2010PropOp38
 70
     1
102
RTVSPost2010Prop39
140
1.0
102
RTVSPost2010PropOp39
 70
     1
102
RTVSPost2010Prop40
 90
        0
102
RTVSPost2010PropOp40
 70
     1
102
RTVSPost2010Prop41ColorIndex
 90
       18
102
RTVSPost2010Prop41ColorRGB
 90
        0
102
RTVSPost2010PropOp41
 70
     1
102
RTVSPost2010Prop42
 90
       50
102
RTVSPost2010PropOp42
 70
     1
102
RTVSPost2010Prop43
 90
        3
102
RTVSPost2010PropOp43
 70
     1
102
RTVSPost2010Prop44ColorIndex
 90
        5
102
RTVSPost2010Prop44ColorRGB
 90
      255
102
RTVSPost2010PropOp44
 70
     1
102
RTVSPost2010Prop45
280
     0
102
RTVSPost2010PropOp45
 70
     1
102
RTVSPost2010Prop46
 90
       50
102
RTVSPost2010PropOp46
 70
     1
102
RTVSPost2010Prop47
 90
       50
102
RTVSPost2010PropOp47
 70
     1
102
RTVSPost2010Prop48
 90
       50
102
RTVSPost2010PropOp48
 70
     1
102
RTVSPost2010Prop49
280
     0
102
RTVSPost2010PropOp49
 70
     1
102
RTVSPost2010Prop50
 90
       50
102
RTVSPost2010PropOp50
 70
     1
102
RTVSPost2010Prop51ColorIndex
 90
      256
102
RTVSPost2010Prop51ColorRGB
 90
-16777216
102
RTVSPost2010PropOp51
 70
     0
102
RTVSPost2010Prop52
140
1.0
102
RTVSPost2010PropOp52
 70
     0
102
RTVSPost2010Prop53
 90
        2
102
RTVSPost2010PropOp53
 70
     1
102
RTVSPost2010Prop54
  1
strokes_ogs.tif
102
RTVSPost2010PropOp54
 70
     1
102
RTVSPost2010Prop55
280
     0
102
RTVSPost2010PropOp55
 70
     1
102
RTVSPost2010Prop56
140
1.0
102
RTVSPost2010PropOp56
 70
     1
102
RTVSPost2010Prop57
140
1.0
102
RTVSPost2010PropOp57
 70
     1
  0
XRECORD
  5
C1B
102
{ACAD_REACTORS
330
C1A
102
}
330
C1A
100
AcDbXrecord
280
     1
102
RTVSPropertyOp0
 70
     1
102
RTVSPropertyOp1
 70
     1
102
RTVSPropertyOp2
 70
     1
102
RTVSPropertyOp3
 70
     1
102
RTVSPropertyOp4
 70
     1
102
RTVSPropertyOp5
 70
     1
102
RTVSPropertyOp6
 70
     1
102
RTVSPropertyOp7
 70
     1
102
RTVSPropertyOp8
 70
     1
102
RTVSPropertyOp9
 70
     1
102
RTVSPropertyOp10
 70
     1
102
RTVSPropertyOp11
 70
     1
102
RTVSPropertyOp12
 70
     1
102
RTVSPropertyOp13
 70
     1
102
RTVSPropertyOp14
 70
     1
102
RTVSPropertyOp15
 70
     1
102
RTVSPropertyOp16
 70
     1
102
RTVSPropertyOp17
 70
     1
102
RTVSPropertyOp18
 70
     1
102
RTVSPropertyOp19
 70
     1
102
RTVSPropertyOp20
 70
     1
102
RTVSPropertyOp21
 70
     1
102
RTVSPropertyOp22
 70
     1
102
RTVSPropertyOp23
 70
     1
102
RTVSPropertyOp24
 70
     1
102
RTVSPropertyOp25
 70
     1
102
RTVSPropertyOp26
 70
     1
102
RTVSPropertyOp27
 70
     1
102
RTVSPropertyOp28
 70
     1
102
RTVSPropertyOp29
 70
     1
102
RTVSPropertyOp30
 70
     1
102
RTVSPropertyOp31
 70
     1
102
RTVSPropertyOp32
 70
     1
102
RTVSPropertyOp33
 70
     1
102
RTVSPropertyOp34
 70
     1
102
RTVSPropertyOp35
 70
     1
102
RTVSPropertyOp36
 70
     1
102
RTVSPropertyOp37
 70
     1
102
RTVSPropertyOp38
 70
     1
102
RTVSPropertyOp39
 70
     1
102
RTVSPropertyOp40
 70
     1
102
RTVSPropertyOp41
 70
     1
102
RTVSPropertyOp42
 70
     1
102
RTVSPropertyOp43
 70
     1
102
RTVSPropertyOp44
 70
     1
102
RTVSPropertyOp45
 70
     1
102
RTVSPropertyOp46
 70
     1
102
RTVSPropertyOp47
 70
     1
102
RTVSPropertyOp48
 70
     1
102
RTVSPropertyOp49
 70
     1
102
RTVSPropertyOp50
 70
     1
102
RTVSPropertyOp51
 70
     0
102
RTVSPropertyOp52
 70
     0
102
RTVSPropertyOp53
 70
     1
102
RTVSPropertyOp54
 70
     1
102
RTVSPropertyOp55
 70
     1
102
RTVSPropertyOp56
 70
     1
102
RTVSPropertyOp57
 70
     1
102
RTVSPost2010Prop28
280
     0
102
RTVSPost2010PropOp28
 70
     1
102
RTVSPost2010Prop29
280
     1
102
RTVSPost2010PropOp29
 70
     1
102
RTVSPost2010Prop30
280
     1
102
RTVSPost2010PropOp30
 70
     1
102
RTVSPost2010Prop31
280
     0
102
RTVSPost2010PropOp31
 70
     1
102
RTVSPost2010Prop32
280
     0
102
RTVSPost2010PropOp32
 70
     1
102
RTVSPost2010Prop33
280
     0
102
RTVSPost2010PropOp33
 70
     1
102
RTVSPost2010Prop34
280
     0
102
RTVSPost2010PropOp34
 70
     1
102
RTVSPost2010Prop35
280
     0
102
RTVSPost2010PropOp35
 70
     1
102
RTVSPost2010Prop36
280
     0
102
RTVSPost2010PropOp36
 70
     1
102
RTVSPost2010Prop37
 90
       50
102
RTVSPost2010PropOp37
 70
     1
102
RTVSPost2010Prop38
140
0.0
102
RTVSPost2010PropOp38
 70
     1
102
RTVSPost2010Prop39
140
1.0
102
RTVSPost2010PropOp39
 70
     1
102
RTVSPost2010Prop40
 90
        0
102
RTVSPost2010PropOp40
 70
     1
102
RTVSPost2010Prop41ColorIndex
 90
       18
102
RTVSPost2010Prop41ColorRGB
 90
        0
102
RTVSPost2010PropOp41
 70
     1
102
RTVSPost2010Prop42
 90
       50
102
RTVSPost2010PropOp42
 70
     1
102
RTVSPost2010Prop43
 90
        3
102
RTVSPost2010PropOp43
 70
     1
102
RTVSPost2010Prop44ColorIndex
 90
        5
102
RTVSPost2010Prop44ColorRGB
 90
      255
102
RTVSPost2010PropOp44
 70
     1
102
RTVSPost2010Prop45
280
     0
102
RTVSPost2010PropOp45
 70
     1
102
RTVSPost2010Prop46
 90
       50
102
RTVSPost2010PropOp46
 70
     1
102
RTVSPost2010Prop47
 90
       50
102
RTVSPost2010PropOp47
 70
     1
102
RTVSPost2010Prop48
 90
       50
102
RTVSPost2010PropOp48
 70
     1
102
RTVSPost2010Prop49
280
     0
102
RTVSPost2010PropOp49
 70
     1
102
RTVSPost2010Prop50
 90
       50
102
RTVSPost2010PropOp50
 70
     1
102
RTVSPost2010Prop51ColorIndex
 90
      256
102
RTVSPost2010Prop51ColorRGB
 90
-16777216
102
RTVSPost2010PropOp51
 70
     0
102
RTVSPost2010Prop52
140
1.0
102
RTVSPost2010PropOp52
 70
     0
102
RTVSPost2010Prop53
 90
        2
102
RTVSPost2010PropOp53
 70
     1
102
RTVSPost2010Prop54
  1
strokes_ogs.tif
102
RTVSPost2010PropOp54
 70
     1
102
RTVSPost2010Prop55
280
     0
102
RTVSPost2010PropOp55
 70
     1
102
RTVSPost2010Prop56
140
1.0
102
RTVSPost2010PropOp56
 70
     1
102
RTVSPost2010Prop57
140
1.0
102
RTVSPost2010PropOp57
 70
     1
  0
XRECORD
  5
C1D
102
{ACAD_REACTORS
330
C1C
102
}
330
C1C
100
AcDbXrecord
280
     1
102
RTVSPropertyOp0
 70
     0
102
RTVSPropertyOp1
 70
     0
102
RTVSPropertyOp2
 70
     0
102
RTVSPropertyOp3
 70
     0
102
RTVSPropertyOp4
 70
     0
102
RTVSPropertyOp5
 70
     0
102
RTVSPropertyOp6
 70
     0
102
RTVSPropertyOp7
 70
     0
102
RTVSPropertyOp8
 70
     0
102
RTVSPropertyOp9
 70
     0
102
RTVSPropertyOp10
 70
     0
102
RTVSPropertyOp11
 70
     0
102
RTVSPropertyOp12
 70
     0
102
RTVSPropertyOp13
 70
     0
102
RTVSPropertyOp14
 70
     2
102
RTVSPropertyOp15
 70
     0
102
RTVSPropertyOp16
 70
     0
102
RTVSPropertyOp17
 70
     0
102
RTVSPropertyOp18
 70
     0
102
RTVSPropertyOp19
 70
     0
102
RTVSPropertyOp20
 70
     0
102
RTVSPropertyOp21
 70
     0
102
RTVSPropertyOp22
 70
     0
102
RTVSPropertyOp23
 70
     0
102
RTVSPropertyOp24
 70
     0
102
RTVSPropertyOp25
 70
     0
102
RTVSPropertyOp26
 70
     0
102
RTVSPropertyOp27
 70
     0
102
RTVSPropertyOp28
 70
     0
102
RTVSPropertyOp29
 70
     0
102
RTVSPropertyOp30
 70
     0
102
RTVSPropertyOp31
 70
     0
102
RTVSPropertyOp32
 70
     0
102
RTVSPropertyOp33
 70
     0
102
RTVSPropertyOp34
 70
     0
102
RTVSPropertyOp35
 70
     0
102
RTVSPropertyOp36
 70
     0
102
RTVSPropertyOp37
 70
     0
102
RTVSPropertyOp38
 70
     0
102
RTVSPropertyOp39
 70
     0
102
RTVSPropertyOp40
 70
     0
102
RTVSPropertyOp41
 70
     0
102
RTVSPropertyOp42
 70
     0
102
RTVSPropertyOp43
 70
     0
102
RTVSPropertyOp44
 70
     0
102
RTVSPropertyOp45
 70
     0
102
RTVSPropertyOp46
 70
     0
102
RTVSPropertyOp47
 70
     0
102
RTVSPropertyOp48
 70
     0
102
RTVSPropertyOp49
 70
     0
102
RTVSPropertyOp50
 70
     0
102
RTVSPropertyOp51
 70
     0
102
RTVSPropertyOp52
 70
     0
102
RTVSPropertyOp53
 70
     0
102
RTVSPropertyOp54
 70
     0
102
RTVSPropertyOp55
 70
     0
102
RTVSPropertyOp56
 70
     0
102
RTVSPropertyOp57
 70
     0
102
RTVSPost2010Prop28
280
     0
102
RTVSPost2010PropOp28
 70
     0
102
RTVSPost2010Prop29
280
     1
102
RTVSPost2010PropOp29
 70
     0
102
RTVSPost2010Prop30
280
     1
102
RTVSPost2010PropOp30
 70
     0
102
RTVSPost2010Prop31
280
     0
102
RTVSPost2010PropOp31
 70
     0
102
RTVSPost2010Prop32
280
     0
102
RTVSPost2010PropOp32
 70
     0
102
RTVSPost2010Prop33
280
     0
102
RTVSPost2010PropOp33
 70
     0
102
RTVSPost2010Prop34
280
     0
102
RTVSPost2010PropOp34
 70
     0
102
RTVSPost2010Prop35
280
     0
102
RTVSPost2010PropOp35
 70
     0
102
RTVSPost2010Prop36
280
     0
102
RTVSPost2010PropOp36
 70
     0
102
RTVSPost2010Prop37
 90
       50
102
RTVSPost2010PropOp37
 70
     0
102
RTVSPost2010Prop38
140
0.0
102
RTVSPost2010PropOp38
 70
     0
102
RTVSPost2010Prop39
140
1.0
102
RTVSPost2010PropOp39
 70
     0
102
RTVSPost2010Prop40
 90
        0
102
RTVSPost2010PropOp40
 70
     0
102
RTVSPost2010Prop41ColorIndex
 90
       18
102
RTVSPost2010Prop41ColorRGB
 90
        0
102
RTVSPost2010PropOp41
 70
     0
102
RTVSPost2010Prop42
 90
       50
102
RTVSPost2010PropOp42
 70
     0
102
RTVSPost2010Prop43
 90
        3
102
RTVSPost2010PropOp43
 70
     0
102
RTVSPost2010Prop44ColorIndex
 90
        5
102
RTVSPost2010Prop44ColorRGB
 90
      255
102
RTVSPost2010PropOp44
 70
     0
102
RTVSPost2010Prop45
280
     0
102
RTVSPost2010PropOp45
 70
     0
102
RTVSPost2010Prop46
 90
       50
102
RTVSPost2010PropOp46
 70
     0
102
RTVSPost2010Prop47
 90
       50
102
RTVSPost2010PropOp47
 70
     0
102
RTVSPost2010Prop48
 90
       50
102
RTVSPost2010PropOp48
 70
     0
102
RTVSPost2010Prop49
280
     0
102
RTVSPost2010PropOp49
 70
     0
102
RTVSPost2010Prop50
 90
       50
102
RTVSPost2010PropOp50
 70
     0
102
RTVSPost2010Prop51ColorIndex
 90
      256
102
RTVSPost2010Prop51ColorRGB
 90
-16777216
102
RTVSPost2010PropOp51
 70
     0
102
RTVSPost2010Prop52
140
1.0
102
RTVSPost2010PropOp52
 70
     0
102
RTVSPost2010Prop53
 90
        2
102
RTVSPost2010PropOp53
 70
     0
102
RTVSPost2010Prop54
  1
strokes_ogs.tif
102
RTVSPost2010PropOp54
 70
     0
102
RTVSPost2010Prop55
280
     0
102
RTVSPost2010PropOp55
 70
     0
102
RTVSPost2010Prop56
140
1.0
102
RTVSPost2010PropOp56
 70
     0
102
RTVSPost2010Prop57
140
1.0
102
RTVSPost2010PropOp57
 70
     0
  0
XRECORD
  5
C1F
102
{ACAD_REACTORS
330
C1E
102
}
330
C1E
100
AcDbXrecord
280
     1
102
RTVSPropertyOp0
 70
     1
102
RTVSPropertyOp1
 70
     1
102
RTVSPropertyOp2
 70
     1
102
RTVSPropertyOp3
 70
     1
102
RTVSPropertyOp4
 70
     1
102
RTVSPropertyOp5
 70
     1
102
RTVSPropertyOp6
 70
     1
102
RTVSPropertyOp7
 70
     1
102
RTVSPropertyOp8
 70
     1
102
RTVSPropertyOp9
 70
     1
102
RTVSPropertyOp10
 70
     1
102
RTVSPropertyOp11
 70
     1
102
RTVSPropertyOp12
 70
     1
102
RTVSPropertyOp13
 70
     1
102
RTVSPropertyOp14
 70
     1
102
RTVSPropertyOp15
 70
     1
102
RTVSPropertyOp16
 70
     1
102
RTVSPropertyOp17
 70
     1
102
RTVSPropertyOp18
 70
     1
102
RTVSPropertyOp19
 70
     1
102
RTVSPropertyOp20
 70
     1
102
RTVSPropertyOp21
 70
     1
102
RTVSPropertyOp22
 70
     1
102
RTVSPropertyOp23
 70
     1
102
RTVSPropertyOp24
 70
     1
102
RTVSPropertyOp25
 70
     1
102
RTVSPropertyOp26
 70
     1
102
RTVSPropertyOp27
 70
     1
102
RTVSPropertyOp28
 70
     1
102
RTVSPropertyOp29
 70
     1
102
RTVSPropertyOp30
 70
     1
102
RTVSPropertyOp31
 70
     1
102
RTVSPropertyOp32
 70
     1
102
RTVSPropertyOp33
 70
     1
102
RTVSPropertyOp34
 70
     1
102
RTVSPropertyOp35
 70
     1
102
RTVSPropertyOp36
 70
     1
102
RTVSPropertyOp37
 70
     1
102
RTVSPropertyOp38
 70
     1
102
RTVSPropertyOp39
 70
     1
102
RTVSPropertyOp40
 70
     1
102
RTVSPropertyOp41
 70
     1
102
RTVSPropertyOp42
 70
     1
102
RTVSPropertyOp43
 70
     1
102
RTVSPropertyOp44
 70
     1
102
RTVSPropertyOp45
 70
     1
102
RTVSPropertyOp46
 70
     1
102
RTVSPropertyOp47
 70
     1
102
RTVSPropertyOp48
 70
     1
102
RTVSPropertyOp49
 70
     1
102
RTVSPropertyOp50
 70
     1
102
RTVSPropertyOp51
 70
     0
102
RTVSPropertyOp52
 70
     0
102
RTVSPropertyOp53
 70
     1
102
RTVSPropertyOp54
 70
     1
102
RTVSPropertyOp55
 70
     1
102
RTVSPropertyOp56
 70
     1
102
RTVSPropertyOp57
 70
     1
102
RTVSPost2010Prop28
280
     0
102
RTVSPost2010PropOp28
 70
     1
102
RTVSPost2010Prop29
280
     1
102
RTVSPost2010PropOp29
 70
     1
102
RTVSPost2010Prop30
280
     1
102
RTVSPost2010PropOp30
 70
     1
102
RTVSPost2010Prop31
280
     0
102
RTVSPost2010PropOp31
 70
     1
102
RTVSPost2010Prop32
280
     0
102
RTVSPost2010PropOp32
 70
     1
102
RTVSPost2010Prop33
280
     0
102
RTVSPost2010PropOp33
 70
     1
102
RTVSPost2010Prop34
280
     0
102
RTVSPost2010PropOp34
 70
     1
102
RTVSPost2010Prop35
280
     0
102
RTVSPost2010PropOp35
 70
     1
102
RTVSPost2010Prop36
280
     0
102
RTVSPost2010PropOp36
 70
     1
102
RTVSPost2010Prop37
 90
       50
102
RTVSPost2010PropOp37
 70
     1
102
RTVSPost2010Prop38
140
0.0
102
RTVSPost2010PropOp38
 70
     1
102
RTVSPost2010Prop39
140
1.0
102
RTVSPost2010PropOp39
 70
     1
102
RTVSPost2010Prop40
 90
        0
102
RTVSPost2010PropOp40
 70
     1
102
RTVSPost2010Prop41ColorIndex
 90
       18
102
RTVSPost2010Prop41ColorRGB
 90
        0
102
RTVSPost2010PropOp41
 70
     1
102
RTVSPost2010Prop42
 90
       50
102
RTVSPost2010PropOp42
 70
     1
102
RTVSPost2010Prop43
 90
        3
102
RTVSPost2010PropOp43
 70
     1
102
RTVSPost2010Prop44ColorIndex
 90
        5
102
RTVSPost2010Prop44ColorRGB
 90
      255
102
RTVSPost2010PropOp44
 70
     1
102
RTVSPost2010Prop45
280
     0
102
RTVSPost2010PropOp45
 70
     1
102
RTVSPost2010Prop46
 90
       50
102
RTVSPost2010PropOp46
 70
     1
102
RTVSPost2010Prop47
 90
       50
102
RTVSPost2010PropOp47
 70
     1
102
RTVSPost2010Prop48
 90
       50
102
RTVSPost2010PropOp48
 70
     1
102
RTVSPost2010Prop49
280
     0
102
RTVSPost2010PropOp49
 70
     1
102
RTVSPost2010Prop50
 90
       50
102
RTVSPost2010PropOp50
 70
     1
102
RTVSPost2010Prop51ColorIndex
 90
      256
102
RTVSPost2010Prop51ColorRGB
 90
-16777216
102
RTVSPost2010PropOp51
 70
     0
102
RTVSPost2010Prop52
140
1.0
102
RTVSPost2010PropOp52
 70
     0
102
RTVSPost2010Prop53
 90
        2
102
RTVSPost2010PropOp53
 70
     1
102
RTVSPost2010Prop54
  1
strokes_ogs.tif
102
RTVSPost2010PropOp54
 70
     1
102
RTVSPost2010Prop55
280
     0
102
RTVSPost2010PropOp55
 70
     1
102
RTVSPost2010Prop56
140
1.0
102
RTVSPost2010PropOp56
 70
     1
102
RTVSPost2010Prop57
140
1.0
102
RTVSPost2010PropOp57
 70
     1
  0
XRECORD
  5
C21
102
{ACAD_REACTORS
330
C20
102
}
330
C20
100
AcDbXrecord
280
     1
102
RTVSPropertyOp0
 70
     0
102
RTVSPropertyOp1
 70
     0
102
RTVSPropertyOp2
 70
     0
102
RTVSPropertyOp3
 70
     0
102
RTVSPropertyOp4
 70
     0
102
RTVSPropertyOp5
 70
     0
102
RTVSPropertyOp6
 70
     0
102
RTVSPropertyOp7
 70
     0
102
RTVSPropertyOp8
 70
     0
102
RTVSPropertyOp9
 70
     0
102
RTVSPropertyOp10
 70
     0
102
RTVSPropertyOp11
 70
     0
102
RTVSPropertyOp12
 70
     0
102
RTVSPropertyOp13
 70
     0
102
RTVSPropertyOp14
 70
     2
102
RTVSPropertyOp15
 70
     0
102
RTVSPropertyOp16
 70
     0
102
RTVSPropertyOp17
 70
     0
102
RTVSPropertyOp18
 70
     0
102
RTVSPropertyOp19
 70
     0
102
RTVSPropertyOp20
 70
     0
102
RTVSPropertyOp21
 70
     0
102
RTVSPropertyOp22
 70
     0
102
RTVSPropertyOp23
 70
     0
102
RTVSPropertyOp24
 70
     0
102
RTVSPropertyOp25
 70
     0
102
RTVSPropertyOp26
 70
     0
102
RTVSPropertyOp27
 70
     0
102
RTVSPropertyOp28
 70
     0
102
RTVSPropertyOp29
 70
     0
102
RTVSPropertyOp30
 70
     0
102
RTVSPropertyOp31
 70
     0
102
RTVSPropertyOp32
 70
     0
102
RTVSPropertyOp33
 70
     0
102
RTVSPropertyOp34
 70
     0
102
RTVSPropertyOp35
 70
     0
102
RTVSPropertyOp36
 70
     0
102
RTVSPropertyOp37
 70
     0
102
RTVSPropertyOp38
 70
     0
102
RTVSPropertyOp39
 70
     0
102
RTVSPropertyOp40
 70
     0
102
RTVSPropertyOp41
 70
     0
102
RTVSPropertyOp42
 70
     0
102
RTVSPropertyOp43
 70
     0
102
RTVSPropertyOp44
 70
     0
102
RTVSPropertyOp45
 70
     0
102
RTVSPropertyOp46
 70
     0
102
RTVSPropertyOp47
 70
     0
102
RTVSPropertyOp48
 70
     0
102
RTVSPropertyOp49
 70
     0
102
RTVSPropertyOp50
 70
     0
102
RTVSPropertyOp51
 70
     0
102
RTVSPropertyOp52
 70
     0
102
RTVSPropertyOp53
 70
     0
102
RTVSPropertyOp54
 70
     0
102
RTVSPropertyOp55
 70
     0
102
RTVSPropertyOp56
 70
     0
102
RTVSPropertyOp57
 70
     0
102
RTVSPost2010Prop28
280
     0
102
RTVSPost2010PropOp28
 70
     0
102
RTVSPost2010Prop29
280
     1
102
RTVSPost2010PropOp29
 70
     0
102
RTVSPost2010Prop30
280
     1
102
RTVSPost2010PropOp30
 70
     0
102
RTVSPost2010Prop31
280
     0
102
RTVSPost2010PropOp31
 70
     0
102
RTVSPost2010Prop32
280
     0
102
RTVSPost2010PropOp32
 70
     0
102
RTVSPost2010Prop33
280
     0
102
RTVSPost2010PropOp33
 70
     0
102
RTVSPost2010Prop34
280
     0
102
RTVSPost2010PropOp34
 70
     0
102
RTVSPost2010Prop35
280
     0
102
RTVSPost2010PropOp35
 70
     0
102
RTVSPost2010Prop36
280
     0
102
RTVSPost2010PropOp36
 70
     0
102
RTVSPost2010Prop37
 90
       50
102
RTVSPost2010PropOp37
 70
     0
102
RTVSPost2010Prop38
140
0.0
102
RTVSPost2010PropOp38
 70
     0
102
RTVSPost2010Prop39
140
1.0
102
RTVSPost2010PropOp39
 70
     0
102
RTVSPost2010Prop40
 90
        0
102
RTVSPost2010PropOp40
 70
     0
102
RTVSPost2010Prop41ColorIndex
 90
       18
102
RTVSPost2010Prop41ColorRGB
 90
        0
102
RTVSPost2010PropOp41
 70
     0
102
RTVSPost2010Prop42
 90
       50
102
RTVSPost2010PropOp42
 70
     0
102
RTVSPost2010Prop43
 90
        3
102
RTVSPost2010PropOp43
 70
     0
102
RTVSPost2010Prop44ColorIndex
 90
        5
102
RTVSPost2010Prop44ColorRGB
 90
      255
102
RTVSPost2010PropOp44
 70
     0
102
RTVSPost2010Prop45
280
     0
102
RTVSPost2010PropOp45
 70
     0
102
RTVSPost2010Prop46
 90
       50
102
RTVSPost2010PropOp46
 70
     0
102
RTVSPost2010Prop47
 90
       50
102
RTVSPost2010PropOp47
 70
     0
102
RTVSPost2010Prop48
 90
       50
102
RTVSPost2010PropOp48
 70
     0
102
RTVSPost2010Prop49
280
     0
102
RTVSPost2010PropOp49
 70
     0
102
RTVSPost2010Prop50
 90
       50
102
RTVSPost2010PropOp50
 70
     0
102
RTVSPost2010Prop51ColorIndex
 90
      256
102
RTVSPost2010Prop51ColorRGB
 90
-16777216
102
RTVSPost2010PropOp51
 70
     0
102
RTVSPost2010Prop52
140
1.0
102
RTVSPost2010PropOp52
 70
     0
102
RTVSPost2010Prop53
 90
        2
102
RTVSPost2010PropOp53
 70
     0
102
RTVSPost2010Prop54
  1
strokes_ogs.tif
102
RTVSPost2010PropOp54
 70
     0
102
RTVSPost2010Prop55
280
     0
102
RTVSPost2010PropOp55
 70
     0
102
RTVSPost2010Prop56
140
1.0
102
RTVSPost2010PropOp56
 70
     0
102
RTVSPost2010Prop57
140
1.0
102
RTVSPost2010PropOp57
 70
     0
  0
XRECORD
  5
C23
102
{ACAD_REACTORS
330
C22
102
}
330
C22
100
AcDbXrecord
280
     1
102
RTVSPropertyOp0
 70
     1
102
RTVSPropertyOp1
 70
     1
102
RTVSPropertyOp2
 70
     1
102
RTVSPropertyOp3
 70
     1
102
RTVSPropertyOp4
 70
     1
102
RTVSPropertyOp5
 70
     1
102
RTVSPropertyOp6
 70
     1
102
RTVSPropertyOp7
 70
     1
102
RTVSPropertyOp8
 70
     1
102
RTVSPropertyOp9
 70
     1
102
RTVSPropertyOp10
 70
     1
102
RTVSPropertyOp11
 70
     1
102
RTVSPropertyOp12
 70
     1
102
RTVSPropertyOp13
 70
     1
102
RTVSPropertyOp14
 70
     1
102
RTVSPropertyOp15
 70
     1
102
RTVSPropertyOp16
 70
     1
102
RTVSPropertyOp17
 70
     1
102
RTVSPropertyOp18
 70
     1
102
RTVSPropertyOp19
 70
     1
102
RTVSPropertyOp20
 70
     1
102
RTVSPropertyOp21
 70
     1
102
RTVSPropertyOp22
 70
     1
102
RTVSPropertyOp23
 70
     1
102
RTVSPropertyOp24
 70
     1
102
RTVSPropertyOp25
 70
     1
102
RTVSPropertyOp26
 70
     1
102
RTVSPropertyOp27
 70
     1
102
RTVSPropertyOp28
 70
     1
102
RTVSPropertyOp29
 70
     1
102
RTVSPropertyOp30
 70
     1
102
RTVSPropertyOp31
 70
     1
102
RTVSPropertyOp32
 70
     1
102
RTVSPropertyOp33
 70
     1
102
RTVSPropertyOp34
 70
     1
102
RTVSPropertyOp35
 70
     1
102
RTVSPropertyOp36
 70
     1
102
RTVSPropertyOp37
 70
     1
102
RTVSPropertyOp38
 70
     1
102
RTVSPropertyOp39
 70
     1
102
RTVSPropertyOp40
 70
     1
102
RTVSPropertyOp41
 70
     1
102
RTVSPropertyOp42
 70
     1
102
RTVSPropertyOp43
 70
     1
102
RTVSPropertyOp44
 70
     1
102
RTVSPropertyOp45
 70
     1
102
RTVSPropertyOp46
 70
     1
102
RTVSPropertyOp47
 70
     1
102
RTVSPropertyOp48
 70
     1
102
RTVSPropertyOp49
 70
     1
102
RTVSPropertyOp50
 70
     1
102
RTVSPropertyOp51
 70
     0
102
RTVSPropertyOp52
 70
     0
102
RTVSPropertyOp53
 70
     1
102
RTVSPropertyOp54
 70
     1
102
RTVSPropertyOp55
 70
     1
102
RTVSPropertyOp56
 70
     1
102
RTVSPropertyOp57
 70
     1
102
RTVSPost2010Prop28
280
     0
102
RTVSPost2010PropOp28
 70
     1
102
RTVSPost2010Prop29
280
     1
102
RTVSPost2010PropOp29
 70
     1
102
RTVSPost2010Prop30
280
     1
102
RTVSPost2010PropOp30
 70
     1
102
RTVSPost2010Prop31
280
     0
102
RTVSPost2010PropOp31
 70
     1
102
RTVSPost2010Prop32
280
     0
102
RTVSPost2010PropOp32
 70
     1
102
RTVSPost2010Prop33
280
     0
102
RTVSPost2010PropOp33
 70
     1
102
RTVSPost2010Prop34
280
     0
102
RTVSPost2010PropOp34
 70
     1
102
RTVSPost2010Prop35
280
     0
102
RTVSPost2010PropOp35
 70
     1
102
RTVSPost2010Prop36
280
     0
102
RTVSPost2010PropOp36
 70
     1
102
RTVSPost2010Prop37
 90
       50
102
RTVSPost2010PropOp37
 70
     1
102
RTVSPost2010Prop38
140
0.0
102
RTVSPost2010PropOp38
 70
     1
102
RTVSPost2010Prop39
140
1.0
102
RTVSPost2010PropOp39
 70
     1
102
RTVSPost2010Prop40
 90
        0
102
RTVSPost2010PropOp40
 70
     1
102
RTVSPost2010Prop41ColorIndex
 90
       18
102
RTVSPost2010Prop41ColorRGB
 90
        0
102
RTVSPost2010PropOp41
 70
     1
102
RTVSPost2010Prop42
 90
       50
102
RTVSPost2010PropOp42
 70
     1
102
RTVSPost2010Prop43
 90
        3
102
RTVSPost2010PropOp43
 70
     1
102
RTVSPost2010Prop44ColorIndex
 90
        5
102
RTVSPost2010Prop44ColorRGB
 90
      255
102
RTVSPost2010PropOp44
 70
     1
102
RTVSPost2010Prop45
280
     0
102
RTVSPost2010PropOp45
 70
     1
102
RTVSPost2010Prop46
 90
       50
102
RTVSPost2010PropOp46
 70
     1
102
RTVSPost2010Prop47
 90
       50
102
RTVSPost2010PropOp47
 70
     1
102
RTVSPost2010Prop48
 90
       50
102
RTVSPost2010PropOp48
 70
     1
102
RTVSPost2010Prop49
280
     0
102
RTVSPost2010PropOp49
 70
     1
102
RTVSPost2010Prop50
 90
       50
102
RTVSPost2010PropOp50
 70
     1
102
RTVSPost2010Prop51ColorIndex
 90
      256
102
RTVSPost2010Prop51ColorRGB
 90
-16777216
102
RTVSPost2010PropOp51
 70
     0
102
RTVSPost2010Prop52
140
1.0
102
RTVSPost2010PropOp52
 70
     0
102
RTVSPost2010Prop53
 90
        2
102
RTVSPost2010PropOp53
 70
     1
102
RTVSPost2010Prop54
  1
strokes_ogs.tif
102
RTVSPost2010PropOp54
 70
     1
102
RTVSPost2010Prop55
280
     0
102
RTVSPost2010PropOp55
 70
     1
102
RTVSPost2010Prop56
140
1.0
102
RTVSPost2010PropOp56
 70
     1
102
RTVSPost2010Prop57
140
1.0
102
RTVSPost2010PropOp57
 70
     1
  0
XRECORD
  5
C25
102
{ACAD_REACTORS
330
C24
102
}
330
C24
100
AcDbXrecord
280
     1
102
RTVSPropertyOp0
 70
     1
102
RTVSPropertyOp1
 70
     1
102
RTVSPropertyOp2
 70
     1
102
RTVSPropertyOp3
 70
     1
102
RTVSPropertyOp4
 70
     1
102
RTVSPropertyOp5
 70
     1
102
RTVSPropertyOp6
 70
     1
102
RTVSPropertyOp7
 70
     1
102
RTVSPropertyOp8
 70
     1
102
RTVSPropertyOp9
 70
     1
102
RTVSPropertyOp10
 70
     1
102
RTVSPropertyOp11
 70
     1
102
RTVSPropertyOp12
 70
     1
102
RTVSPropertyOp13
 70
     1
102
RTVSPropertyOp14
 70
     1
102
RTVSPropertyOp15
 70
     1
102
RTVSPropertyOp16
 70
     1
102
RTVSPropertyOp17
 70
     1
102
RTVSPropertyOp18
 70
     1
102
RTVSPropertyOp19
 70
     1
102
RTVSPropertyOp20
 70
     1
102
RTVSPropertyOp21
 70
     1
102
RTVSPropertyOp22
 70
     1
102
RTVSPropertyOp23
 70
     1
102
RTVSPropertyOp24
 70
     1
102
RTVSPropertyOp25
 70
     1
102
RTVSPropertyOp26
 70
     1
102
RTVSPropertyOp27
 70
     1
102
RTVSPropertyOp28
 70
     1
102
RTVSPropertyOp29
 70
     1
102
RTVSPropertyOp30
 70
     1
102
RTVSPropertyOp31
 70
     1
102
RTVSPropertyOp32
 70
     1
102
RTVSPropertyOp33
 70
     1
102
RTVSPropertyOp34
 70
     1
102
RTVSPropertyOp35
 70
     1
102
RTVSPropertyOp36
 70
     1
102
RTVSPropertyOp37
 70
     1
102
RTVSPropertyOp38
 70
     1
102
RTVSPropertyOp39
 70
     1
102
RTVSPropertyOp40
 70
     1
102
RTVSPropertyOp41
 70
     1
102
RTVSPropertyOp42
 70
     1
102
RTVSPropertyOp43
 70
     1
102
RTVSPropertyOp44
 70
     1
102
RTVSPropertyOp45
 70
     1
102
RTVSPropertyOp46
 70
     1
102
RTVSPropertyOp47
 70
     1
102
RTVSPropertyOp48
 70
     1
102
RTVSPropertyOp49
 70
     1
102
RTVSPropertyOp50
 70
     1
102
RTVSPropertyOp51
 70
     0
102
RTVSPropertyOp52
 70
     0
102
RTVSPropertyOp53
 70
     1
102
RTVSPropertyOp54
 70
     1
102
RTVSPropertyOp55
 70
     1
102
RTVSPropertyOp56
 70
     1
102
RTVSPropertyOp57
 70
     1
102
RTVSPost2010Prop28
280
     0
102
RTVSPost2010PropOp28
 70
     1
102
RTVSPost2010Prop29
280
     1
102
RTVSPost2010PropOp29
 70
     1
102
RTVSPost2010Prop30
280
     1
102
RTVSPost2010PropOp30
 70
     1
102
RTVSPost2010Prop31
280
     0
102
RTVSPost2010PropOp31
 70
     1
102
RTVSPost2010Prop32
280
     0
102
RTVSPost2010PropOp32
 70
     1
102
RTVSPost2010Prop33
280
     0
102
RTVSPost2010PropOp33
 70
     1
102
RTVSPost2010Prop34
280
     0
102
RTVSPost2010PropOp34
 70
     1
102
RTVSPost2010Prop35
280
     0
102
RTVSPost2010PropOp35
 70
     1
102
RTVSPost2010Prop36
280
     0
102
RTVSPost2010PropOp36
 70
     1
102
RTVSPost2010Prop37
 90
       50
102
RTVSPost2010PropOp37
 70
     1
102
RTVSPost2010Prop38
140
0.0
102
RTVSPost2010PropOp38
 70
     1
102
RTVSPost2010Prop39
140
1.0
102
RTVSPost2010PropOp39
 70
     1
102
RTVSPost2010Prop40
 90
        0
102
RTVSPost2010PropOp40
 70
     1
102
RTVSPost2010Prop41ColorIndex
 90
       18
102
RTVSPost2010Prop41ColorRGB
 90
        0
102
RTVSPost2010PropOp41
 70
     1
102
RTVSPost2010Prop42
 90
       50
102
RTVSPost2010PropOp42
 70
     1
102
RTVSPost2010Prop43
 90
        3
102
RTVSPost2010PropOp43
 70
     1
102
RTVSPost2010Prop44ColorIndex
 90
        5
102
RTVSPost2010Prop44ColorRGB
 90
      255
102
RTVSPost2010PropOp44
 70
     1
102
RTVSPost2010Prop45
280
     0
102
RTVSPost2010PropOp45
 70
     1
102
RTVSPost2010Prop46
 90
       50
102
RTVSPost2010PropOp46
 70
     1
102
RTVSPost2010Prop47
 90
       50
102
RTVSPost2010PropOp47
 70
     1
102
RTVSPost2010Prop48
 90
       50
102
RTVSPost2010PropOp48
 70
     1
102
RTVSPost2010Prop49
280
     0
102
RTVSPost2010PropOp49
 70
     1
102
RTVSPost2010Prop50
 90
       50
102
RTVSPost2010PropOp50
 70
     1
102
RTVSPost2010Prop51ColorIndex
 90
      256
102
RTVSPost2010Prop51ColorRGB
 90
-16777216
102
RTVSPost2010PropOp51
 70
     0
102
RTVSPost2010Prop52
140
1.0
102
RTVSPost2010PropOp52
 70
     0
102
RTVSPost2010Prop53
 90
        2
102
RTVSPost2010PropOp53
 70
     1
102
RTVSPost2010Prop54
  1
strokes_ogs.tif
102
RTVSPost2010PropOp54
 70
     1
102
RTVSPost2010Prop55
280
     0
102
RTVSPost2010PropOp55
 70
     1
102
RTVSPost2010Prop56
140
1.0
102
RTVSPost2010PropOp56
 70
     1
102
RTVSPost2010Prop57
140
1.0
102
RTVSPost2010PropOp57
 70
     1
  0
XRECORD
  5
C27
102
{ACAD_REACTORS
330
C26
102
}
330
C26
100
AcDbXrecord
280
     1
102
RTVSPropertyOp0
 70
     1
102
RTVSPropertyOp1
 70
     1
102
RTVSPropertyOp2
 70
     1
102
RTVSPropertyOp3
 70
     1
102
RTVSPropertyOp4
 70
     1
102
RTVSPropertyOp5
 70
     1
102
RTVSPropertyOp6
 70
     1
102
RTVSPropertyOp7
 70
     1
102
RTVSPropertyOp8
 70
     1
102
RTVSPropertyOp9
 70
     1
102
RTVSPropertyOp10
 70
     1
102
RTVSPropertyOp11
 70
     1
102
RTVSPropertyOp12
 70
     1
102
RTVSPropertyOp13
 70
     1
102
RTVSPropertyOp14
 70
     1
102
RTVSPropertyOp15
 70
     1
102
RTVSPropertyOp16
 70
     1
102
RTVSPropertyOp17
 70
     1
102
RTVSPropertyOp18
 70
     1
102
RTVSPropertyOp19
 70
     1
102
RTVSPropertyOp20
 70
     1
102
RTVSPropertyOp21
 70
     1
102
RTVSPropertyOp22
 70
     1
102
RTVSPropertyOp23
 70
     1
102
RTVSPropertyOp24
 70
     1
102
RTVSPropertyOp25
 70
     1
102
RTVSPropertyOp26
 70
     1
102
RTVSPropertyOp27
 70
     1
102
RTVSPropertyOp28
 70
     1
102
RTVSPropertyOp29
 70
     1
102
RTVSPropertyOp30
 70
     1
102
RTVSPropertyOp31
 70
     1
102
RTVSPropertyOp32
 70
     1
102
RTVSPropertyOp33
 70
     1
102
RTVSPropertyOp34
 70
     1
102
RTVSPropertyOp35
 70
     1
102
RTVSPropertyOp36
 70
     1
102
RTVSPropertyOp37
 70
     1
102
RTVSPropertyOp38
 70
     1
102
RTVSPropertyOp39
 70
     1
102
RTVSPropertyOp40
 70
     1
102
RTVSPropertyOp41
 70
     1
102
RTVSPropertyOp42
 70
     1
102
RTVSPropertyOp43
 70
     1
102
RTVSPropertyOp44
 70
     1
102
RTVSPropertyOp45
 70
     1
102
RTVSPropertyOp46
 70
     1
102
RTVSPropertyOp47
 70
     1
102
RTVSPropertyOp48
 70
     1
102
RTVSPropertyOp49
 70
     1
102
RTVSPropertyOp50
 70
     1
102
RTVSPropertyOp51
 70
     0
102
RTVSPropertyOp52
 70
     0
102
RTVSPropertyOp53
 70
     1
102
RTVSPropertyOp54
 70
     1
102
RTVSPropertyOp55
 70
     1
102
RTVSPropertyOp56
 70
     1
102
RTVSPropertyOp57
 70
     1
102
RTVSPost2010Prop28
280
     0
102
RTVSPost2010PropOp28
 70
     1
102
RTVSPost2010Prop29
280
     1
102
RTVSPost2010PropOp29
 70
     1
102
RTVSPost2010Prop30
280
     1
102
RTVSPost2010PropOp30
 70
     1
102
RTVSPost2010Prop31
280
     0
102
RTVSPost2010PropOp31
 70
     1
102
RTVSPost2010Prop32
280
     0
102
RTVSPost2010PropOp32
 70
     1
102
RTVSPost2010Prop33
280
     0
102
RTVSPost2010PropOp33
 70
     1
102
RTVSPost2010Prop34
280
     0
102
RTVSPost2010PropOp34
 70
     1
102
RTVSPost2010Prop35
280
     0
102
RTVSPost2010PropOp35
 70
     1
102
RTVSPost2010Prop36
280
     0
102
RTVSPost2010PropOp36
 70
     1
102
RTVSPost2010Prop37
 90
       50
102
RTVSPost2010PropOp37
 70
     1
102
RTVSPost2010Prop38
140
0.0
102
RTVSPost2010PropOp38
 70
     1
102
RTVSPost2010Prop39
140
1.0
102
RTVSPost2010PropOp39
 70
     1
102
RTVSPost2010Prop40
 90
        0
102
RTVSPost2010PropOp40
 70
     1
102
RTVSPost2010Prop41ColorIndex
 90
       18
102
RTVSPost2010Prop41ColorRGB
 90
        0
102
RTVSPost2010PropOp41
 70
     1
102
RTVSPost2010Prop42
 90
       50
102
RTVSPost2010PropOp42
 70
     1
102
RTVSPost2010Prop43
 90
        3
102
RTVSPost2010PropOp43
 70
     1
102
RTVSPost2010Prop44ColorIndex
 90
        5
102
RTVSPost2010Prop44ColorRGB
 90
      255
102
RTVSPost2010PropOp44
 70
     1
102
RTVSPost2010Prop45
280
     0
102
RTVSPost2010PropOp45
 70
     1
102
RTVSPost2010Prop46
 90
       50
102
RTVSPost2010PropOp46
 70
     1
102
RTVSPost2010Prop47
 90
       50
102
RTVSPost2010PropOp47
 70
     1
102
RTVSPost2010Prop48
 90
       50
102
RTVSPost2010PropOp48
 70
     1
102
RTVSPost2010Prop49
280
     0
102
RTVSPost2010PropOp49
 70
     1
102
RTVSPost2010Prop50
 90
       50
102
RTVSPost2010PropOp50
 70
     1
102
RTVSPost2010Prop51ColorIndex
 90
      256
102
RTVSPost2010Prop51ColorRGB
 90
-16777216
102
RTVSPost2010PropOp51
 70
     0
102
RTVSPost2010Prop52
140
1.0
102
RTVSPost2010PropOp52
 70
     0
102
RTVSPost2010Prop53
 90
        2
102
RTVSPost2010PropOp53
 70
     1
102
RTVSPost2010Prop54
  1
strokes_ogs.tif
102
RTVSPost2010PropOp54
 70
     1
102
RTVSPost2010Prop55
280
     0
102
RTVSPost2010PropOp55
 70
     1
102
RTVSPost2010Prop56
140
1.0
102
RTVSPost2010PropOp56
 70
     1
102
RTVSPost2010Prop57
140
1.0
102
RTVSPost2010PropOp57
 70
     1
  0
XRECORD
  5
C29
102
{ACAD_REACTORS
330
C28
102
}
330
C28
100
AcDbXrecord
280
     1
102
RTVSPropertyOp0
 70
     1
102
RTVSPropertyOp1
 70
     1
102
RTVSPropertyOp2
 70
     1
102
RTVSPropertyOp3
 70
     1
102
RTVSPropertyOp4
 70
     1
102
RTVSPropertyOp5
 70
     1
102
RTVSPropertyOp6
 70
     1
102
RTVSPropertyOp7
 70
     1
102
RTVSPropertyOp8
 70
     1
102
RTVSPropertyOp9
 70
     1
102
RTVSPropertyOp10
 70
     1
102
RTVSPropertyOp11
 70
     1
102
RTVSPropertyOp12
 70
     1
102
RTVSPropertyOp13
 70
     1
102
RTVSPropertyOp14
 70
     1
102
RTVSPropertyOp15
 70
     1
102
RTVSPropertyOp16
 70
     1
102
RTVSPropertyOp17
 70
     1
102
RTVSPropertyOp18
 70
     1
102
RTVSPropertyOp19
 70
     1
102
RTVSPropertyOp20
 70
     1
102
RTVSPropertyOp21
 70
     1
102
RTVSPropertyOp22
 70
     1
102
RTVSPropertyOp23
 70
     1
102
RTVSPropertyOp24
 70
     1
102
RTVSPropertyOp25
 70
     1
102
RTVSPropertyOp26
 70
     1
102
RTVSPropertyOp27
 70
     1
102
RTVSPropertyOp28
 70
     1
102
RTVSPropertyOp29
 70
     1
102
RTVSPropertyOp30
 70
     1
102
RTVSPropertyOp31
 70
     1
102
RTVSPropertyOp32
 70
     1
102
RTVSPropertyOp33
 70
     1
102
RTVSPropertyOp34
 70
     1
102
RTVSPropertyOp35
 70
     1
102
RTVSPropertyOp36
 70
     1
102
RTVSPropertyOp37
 70
     1
102
RTVSPropertyOp38
 70
     1
102
RTVSPropertyOp39
 70
     1
102
RTVSPropertyOp40
 70
     1
102
RTVSPropertyOp41
 70
     1
102
RTVSPropertyOp42
 70
     1
102
RTVSPropertyOp43
 70
     1
102
RTVSPropertyOp44
 70
     1
102
RTVSPropertyOp45
 70
     1
102
RTVSPropertyOp46
 70
     1
102
RTVSPropertyOp47
 70
     1
102
RTVSPropertyOp48
 70
     1
102
RTVSPropertyOp49
 70
     1
102
RTVSPropertyOp50
 70
     1
102
RTVSPropertyOp51
 70
     0
102
RTVSPropertyOp52
 70
     0
102
RTVSPropertyOp53
 70
     1
102
RTVSPropertyOp54
 70
     1
102
RTVSPropertyOp55
 70
     1
102
RTVSPropertyOp56
 70
     1
102
RTVSPropertyOp57
 70
     1
102
RTVSPost2010Prop28
280
     0
102
RTVSPost2010PropOp28
 70
     1
102
RTVSPost2010Prop29
280
     1
102
RTVSPost2010PropOp29
 70
     1
102
RTVSPost2010Prop30
280
     1
102
RTVSPost2010PropOp30
 70
     1
102
RTVSPost2010Prop31
280
     0
102
RTVSPost2010PropOp31
 70
     1
102
RTVSPost2010Prop32
280
     0
102
RTVSPost2010PropOp32
 70
     1
102
RTVSPost2010Prop33
280
     0
102
RTVSPost2010PropOp33
 70
     1
102
RTVSPost2010Prop34
280
     0
102
RTVSPost2010PropOp34
 70
     1
102
RTVSPost2010Prop35
280
     0
102
RTVSPost2010PropOp35
 70
     1
102
RTVSPost2010Prop36
280
     0
102
RTVSPost2010PropOp36
 70
     1
102
RTVSPost2010Prop37
 90
       50
102
RTVSPost2010PropOp37
 70
     1
102
RTVSPost2010Prop38
140
0.0
102
RTVSPost2010PropOp38
 70
     1
102
RTVSPost2010Prop39
140
1.0
102
RTVSPost2010PropOp39
 70
     1
102
RTVSPost2010Prop40
 90
        0
102
RTVSPost2010PropOp40
 70
     1
102
RTVSPost2010Prop41ColorIndex
 90
       18
102
RTVSPost2010Prop41ColorRGB
 90
        0
102
RTVSPost2010PropOp41
 70
     1
102
RTVSPost2010Prop42
 90
       50
102
RTVSPost2010PropOp42
 70
     1
102
RTVSPost2010Prop43
 90
        3
102
RTVSPost2010PropOp43
 70
     1
102
RTVSPost2010Prop44ColorIndex
 90
        5
102
RTVSPost2010Prop44ColorRGB
 90
      255
102
RTVSPost2010PropOp44
 70
     1
102
RTVSPost2010Prop45
280
     0
102
RTVSPost2010PropOp45
 70
     1
102
RTVSPost2010Prop46
 90
       50
102
RTVSPost2010PropOp46
 70
     1
102
RTVSPost2010Prop47
 90
       50
102
RTVSPost2010PropOp47
 70
     1
102
RTVSPost2010Prop48
 90
       50
102
RTVSPost2010PropOp48
 70
     1
102
RTVSPost2010Prop49
280
     0
102
RTVSPost2010PropOp49
 70
     1
102
RTVSPost2010Prop50
 90
       50
102
RTVSPost2010PropOp50
 70
     1
102
RTVSPost2010Prop51ColorIndex
 90
      256
102
RTVSPost2010Prop51ColorRGB
 90
-16777216
102
RTVSPost2010PropOp51
 70
     0
102
RTVSPost2010Prop52
140
1.0
102
RTVSPost2010PropOp52
 70
     0
102
RTVSPost2010Prop53
 90
        2
102
RTVSPost2010PropOp53
 70
     1
102
RTVSPost2010Prop54
  1
strokes_ogs.tif
102
RTVSPost2010PropOp54
 70
     1
102
RTVSPost2010Prop55
280
     0
102
RTVSPost2010PropOp55
 70
     1
102
RTVSPost2010Prop56
140
1.0
102
RTVSPost2010PropOp56
 70
     1
102
RTVSPost2010Prop57
140
1.0
102
RTVSPost2010PropOp57
 70
     1
  0
XRECORD
  5
C2B
102
{ACAD_REACTORS
330
C2A
102
}
330
C2A
100
AcDbXrecord
280
     1
102
RTVSPropertyOp0
 70
     1
102
RTVSPropertyOp1
 70
     1
102
RTVSPropertyOp2
 70
     1
102
RTVSPropertyOp3
 70
     1
102
RTVSPropertyOp4
 70
     1
102
RTVSPropertyOp5
 70
     1
102
RTVSPropertyOp6
 70
     1
102
RTVSPropertyOp7
 70
     1
102
RTVSPropertyOp8
 70
     1
102
RTVSPropertyOp9
 70
     1
102
RTVSPropertyOp10
 70
     1
102
RTVSPropertyOp11
 70
     1
102
RTVSPropertyOp12
 70
     1
102
RTVSPropertyOp13
 70
     1
102
RTVSPropertyOp14
 70
     1
102
RTVSPropertyOp15
 70
     1
102
RTVSPropertyOp16
 70
     1
102
RTVSPropertyOp17
 70
     1
102
RTVSPropertyOp18
 70
     1
102
RTVSPropertyOp19
 70
     1
102
RTVSPropertyOp20
 70
     1
102
RTVSPropertyOp21
 70
     1
102
RTVSPropertyOp22
 70
     1
102
RTVSPropertyOp23
 70
     1
102
RTVSPropertyOp24
 70
     1
102
RTVSPropertyOp25
 70
     1
102
RTVSPropertyOp26
 70
     1
102
RTVSPropertyOp27
 70
     1
102
RTVSPropertyOp28
 70
     1
102
RTVSPropertyOp29
 70
     1
102
RTVSPropertyOp30
 70
     1
102
RTVSPropertyOp31
 70
     1
102
RTVSPropertyOp32
 70
     1
102
RTVSPropertyOp33
 70
     1
102
RTVSPropertyOp34
 70
     1
102
RTVSPropertyOp35
 70
     1
102
RTVSPropertyOp36
 70
     1
102
RTVSPropertyOp37
 70
     1
102
RTVSPropertyOp38
 70
     1
102
RTVSPropertyOp39
 70
     1
102
RTVSPropertyOp40
 70
     1
102
RTVSPropertyOp41
 70
     1
102
RTVSPropertyOp42
 70
     1
102
RTVSPropertyOp43
 70
     1
102
RTVSPropertyOp44
 70
     1
102
RTVSPropertyOp45
 70
     1
102
RTVSPropertyOp46
 70
     1
102
RTVSPropertyOp47
 70
     1
102
RTVSPropertyOp48
 70
     1
102
RTVSPropertyOp49
 70
     1
102
RTVSPropertyOp50
 70
     1
102
RTVSPropertyOp51
 70
     0
102
RTVSPropertyOp52
 70
     0
102
RTVSPropertyOp53
 70
     1
102
RTVSPropertyOp54
 70
     1
102
RTVSPropertyOp55
 70
     1
102
RTVSPropertyOp56
 70
     1
102
RTVSPropertyOp57
 70
     1
102
RTVSPost2010Prop28
280
     0
102
RTVSPost2010PropOp28
 70
     1
102
RTVSPost2010Prop29
280
     1
102
RTVSPost2010PropOp29
 70
     1
102
RTVSPost2010Prop30
280
     1
102
RTVSPost2010PropOp30
 70
     1
102
RTVSPost2010Prop31
280
     0
102
RTVSPost2010PropOp31
 70
     1
102
RTVSPost2010Prop32
280
     0
102
RTVSPost2010PropOp32
 70
     1
102
RTVSPost2010Prop33
280
     0
102
RTVSPost2010PropOp33
 70
     1
102
RTVSPost2010Prop34
280
     0
102
RTVSPost2010PropOp34
 70
     1
102
RTVSPost2010Prop35
280
     0
102
RTVSPost2010PropOp35
 70
     1
102
RTVSPost2010Prop36
280
     0
102
RTVSPost2010PropOp36
 70
     1
102
RTVSPost2010Prop37
 90
       50
102
RTVSPost2010PropOp37
 70
     1
102
RTVSPost2010Prop38
140
0.0
102
RTVSPost2010PropOp38
 70
     1
102
RTVSPost2010Prop39
140
1.0
102
RTVSPost2010PropOp39
 70
     1
102
RTVSPost2010Prop40
 90
        0
102
RTVSPost2010PropOp40
 70
     1
102
RTVSPost2010Prop41ColorIndex
 90
       18
102
RTVSPost2010Prop41ColorRGB
 90
        0
102
RTVSPost2010PropOp41
 70
     1
102
RTVSPost2010Prop42
 90
       50
102
RTVSPost2010PropOp42
 70
     1
102
RTVSPost2010Prop43
 90
        3
102
RTVSPost2010PropOp43
 70
     1
102
RTVSPost2010Prop44ColorIndex
 90
        5
102
RTVSPost2010Prop44ColorRGB
 90
      255
102
RTVSPost2010PropOp44
 70
     1
102
RTVSPost2010Prop45
280
     0
102
RTVSPost2010PropOp45
 70
     1
102
RTVSPost2010Prop46
 90
       50
102
RTVSPost2010PropOp46
 70
     1
102
RTVSPost2010Prop47
 90
       50
102
RTVSPost2010PropOp47
 70
     1
102
RTVSPost2010Prop48
 90
       50
102
RTVSPost2010PropOp48
 70
     1
102
RTVSPost2010Prop49
280
     0
102
RTVSPost2010PropOp49
 70
     1
102
RTVSPost2010Prop50
 90
       50
102
RTVSPost2010PropOp50
 70
     1
102
RTVSPost2010Prop51ColorIndex
 90
      256
102
RTVSPost2010Prop51ColorRGB
 90
-16777216
102
RTVSPost2010PropOp51
 70
     0
102
RTVSPost2010Prop52
140
1.0
102
RTVSPost2010PropOp52
 70
     0
102
RTVSPost2010Prop53
 90
        2
102
RTVSPost2010PropOp53
 70
     1
102
RTVSPost2010Prop54
  1
strokes_ogs.tif
102
RTVSPost2010PropOp54
 70
     1
102
RTVSPost2010Prop55
280
     0
102
RTVSPost2010PropOp55
 70
     1
102
RTVSPost2010Prop56
140
1.0
102
RTVSPost2010PropOp56
 70
     1
102
RTVSPost2010Prop57
140
1.0
102
RTVSPost2010PropOp57
 70
     1
  0
XRECORD
  5
C2D
102
{ACAD_REACTORS
330
C2C
102
}
330
C2C
100
AcDbXrecord
280
     1
102
RTVSPropertyOp0
 70
     1
102
RTVSPropertyOp1
 70
     1
102
RTVSPropertyOp2
 70
     1
102
RTVSPropertyOp3
 70
     1
102
RTVSPropertyOp4
 70
     1
102
RTVSPropertyOp5
 70
     1
102
RTVSPropertyOp6
 70
     1
102
RTVSPropertyOp7
 70
     1
102
RTVSPropertyOp8
 70
     1
102
RTVSPropertyOp9
 70
     1
102
RTVSPropertyOp10
 70
     1
102
RTVSPropertyOp11
 70
     1
102
RTVSPropertyOp12
 70
     1
102
RTVSPropertyOp13
 70
     1
102
RTVSPropertyOp14
 70
     1
102
RTVSPropertyOp15
 70
     1
102
RTVSPropertyOp16
 70
     1
102
RTVSPropertyOp17
 70
     1
102
RTVSPropertyOp18
 70
     1
102
RTVSPropertyOp19
 70
     1
102
RTVSPropertyOp20
 70
     1
102
RTVSPropertyOp21
 70
     1
102
RTVSPropertyOp22
 70
     1
102
RTVSPropertyOp23
 70
     1
102
RTVSPropertyOp24
 70
     1
102
RTVSPropertyOp25
 70
     1
102
RTVSPropertyOp26
 70
     1
102
RTVSPropertyOp27
 70
     1
102
RTVSPropertyOp28
 70
     1
102
RTVSPropertyOp29
 70
     1
102
RTVSPropertyOp30
 70
     1
102
RTVSPropertyOp31
 70
     1
102
RTVSPropertyOp32
 70
     1
102
RTVSPropertyOp33
 70
     1
102
RTVSPropertyOp34
 70
     1
102
RTVSPropertyOp35
 70
     1
102
RTVSPropertyOp36
 70
     1
102
RTVSPropertyOp37
 70
     1
102
RTVSPropertyOp38
 70
     1
102
RTVSPropertyOp39
 70
     1
102
RTVSPropertyOp40
 70
     1
102
RTVSPropertyOp41
 70
     1
102
RTVSPropertyOp42
 70
     1
102
RTVSPropertyOp43
 70
     1
102
RTVSPropertyOp44
 70
     1
102
RTVSPropertyOp45
 70
     1
102
RTVSPropertyOp46
 70
     1
102
RTVSPropertyOp47
 70
     1
102
RTVSPropertyOp48
 70
     1
102
RTVSPropertyOp49
 70
     1
102
RTVSPropertyOp50
 70
     1
102
RTVSPropertyOp51
 70
     0
102
RTVSPropertyOp52
 70
     0
102
RTVSPropertyOp53
 70
     1
102
RTVSPropertyOp54
 70
     1
102
RTVSPropertyOp55
 70
     1
102
RTVSPropertyOp56
 70
     1
102
RTVSPropertyOp57
 70
     1
102
RTVSPost2010Prop28
280
     0
102
RTVSPost2010PropOp28
 70
     1
102
RTVSPost2010Prop29
280
     1
102
RTVSPost2010PropOp29
 70
     1
102
RTVSPost2010Prop30
280
     1
102
RTVSPost2010PropOp30
 70
     1
102
RTVSPost2010Prop31
280
     0
102
RTVSPost2010PropOp31
 70
     1
102
RTVSPost2010Prop32
280
     0
102
RTVSPost2010PropOp32
 70
     1
102
RTVSPost2010Prop33
280
     0
102
RTVSPost2010PropOp33
 70
     1
102
RTVSPost2010Prop34
280
     0
102
RTVSPost2010PropOp34
 70
     1
102
RTVSPost2010Prop35
280
     0
102
RTVSPost2010PropOp35
 70
     1
102
RTVSPost2010Prop36
280
     0
102
RTVSPost2010PropOp36
 70
     1
102
RTVSPost2010Prop37
 90
       50
102
RTVSPost2010PropOp37
 70
     1
102
RTVSPost2010Prop38
140
0.0
102
RTVSPost2010PropOp38
 70
     1
102
RTVSPost2010Prop39
140
1.0
102
RTVSPost2010PropOp39
 70
     1
102
RTVSPost2010Prop40
 90
        0
102
RTVSPost2010PropOp40
 70
     1
102
RTVSPost2010Prop41ColorIndex
 90
       18
102
RTVSPost2010Prop41ColorRGB
 90
        0
102
RTVSPost2010PropOp41
 70
     1
102
RTVSPost2010Prop42
 90
       50
102
RTVSPost2010PropOp42
 70
     1
102
RTVSPost2010Prop43
 90
        3
102
RTVSPost2010PropOp43
 70
     1
102
RTVSPost2010Prop44ColorIndex
 90
        5
102
RTVSPost2010Prop44ColorRGB
 90
      255
102
RTVSPost2010PropOp44
 70
     1
102
RTVSPost2010Prop45
280
     0
102
RTVSPost2010PropOp45
 70
     1
102
RTVSPost2010Prop46
 90
       50
102
RTVSPost2010PropOp46
 70
     1
102
RTVSPost2010Prop47
 90
       50
102
RTVSPost2010PropOp47
 70
     1
102
RTVSPost2010Prop48
 90
       50
102
RTVSPost2010PropOp48
 70
     1
102
RTVSPost2010Prop49
280
     0
102
RTVSPost2010PropOp49
 70
     1
102
RTVSPost2010Prop50
 90
       50
102
RTVSPost2010PropOp50
 70
     1
102
RTVSPost2010Prop51ColorIndex
 90
      256
102
RTVSPost2010Prop51ColorRGB
 90
-16777216
102
RTVSPost2010PropOp51
 70
     0
102
RTVSPost2010Prop52
140
1.0
102
RTVSPost2010PropOp52
 70
     0
102
RTVSPost2010Prop53
 90
        2
102
RTVSPost2010PropOp53
 70
     1
102
RTVSPost2010Prop54
  1
strokes_ogs.tif
102
RTVSPost2010PropOp54
 70
     1
102
RTVSPost2010Prop55
280
     0
102
RTVSPost2010PropOp55
 70
     1
102
RTVSPost2010Prop56
140
1.0
102
RTVSPost2010PropOp56
 70
     1
102
RTVSPost2010Prop57
140
1.0
102
RTVSPost2010PropOp57
 70
     1
  0
XRECORD
  5
C2F
102
{ACAD_REACTORS
330
C2E
102
}
330
C2E
100
AcDbXrecord
280
     1
102
RTVSPropertyOp0
 70
     1
102
RTVSPropertyOp1
 70
     1
102
RTVSPropertyOp2
 70
     1
102
RTVSPropertyOp3
 70
     1
102
RTVSPropertyOp4
 70
     1
102
RTVSPropertyOp5
 70
     1
102
RTVSPropertyOp6
 70
     1
102
RTVSPropertyOp7
 70
     1
102
RTVSPropertyOp8
 70
     1
102
RTVSPropertyOp9
 70
     1
102
RTVSPropertyOp10
 70
     1
102
RTVSPropertyOp11
 70
     1
102
RTVSPropertyOp12
 70
     1
102
RTVSPropertyOp13
 70
     1
102
RTVSPropertyOp14
 70
     1
102
RTVSPropertyOp15
 70
     1
102
RTVSPropertyOp16
 70
     1
102
RTVSPropertyOp17
 70
     1
102
RTVSPropertyOp18
 70
     1
102
RTVSPropertyOp19
 70
     1
102
RTVSPropertyOp20
 70
     1
102
RTVSPropertyOp21
 70
     1
102
RTVSPropertyOp22
 70
     1
102
RTVSPropertyOp23
 70
     1
102
RTVSPropertyOp24
 70
     1
102
RTVSPropertyOp25
 70
     1
102
RTVSPropertyOp26
 70
     1
102
RTVSPropertyOp27
 70
     1
102
RTVSPropertyOp28
 70
     1
102
RTVSPropertyOp29
 70
     1
102
RTVSPropertyOp30
 70
     1
102
RTVSPropertyOp31
 70
     1
102
RTVSPropertyOp32
 70
     1
102
RTVSPropertyOp33
 70
     1
102
RTVSPropertyOp34
 70
     1
102
RTVSPropertyOp35
 70
     1
102
RTVSPropertyOp36
 70
     1
102
RTVSPropertyOp37
 70
     1
102
RTVSPropertyOp38
 70
     1
102
RTVSPropertyOp39
 70
     1
102
RTVSPropertyOp40
 70
     1
102
RTVSPropertyOp41
 70
     1
102
RTVSPropertyOp42
 70
     1
102
RTVSPropertyOp43
 70
     1
102
RTVSPropertyOp44
 70
     1
102
RTVSPropertyOp45
 70
     1
102
RTVSPropertyOp46
 70
     1
102
RTVSPropertyOp47
 70
     1
102
RTVSPropertyOp48
 70
     1
102
RTVSPropertyOp49
 70
     1
102
RTVSPropertyOp50
 70
     1
102
RTVSPropertyOp51
 70
     0
102
RTVSPropertyOp52
 70
     0
102
RTVSPropertyOp53
 70
     1
102
RTVSPropertyOp54
 70
     1
102
RTVSPropertyOp55
 70
     1
102
RTVSPropertyOp56
 70
     1
102
RTVSPropertyOp57
 70
     1
102
RTVSPost2010Prop28
280
     0
102
RTVSPost2010PropOp28
 70
     1
102
RTVSPost2010Prop29
280
     1
102
RTVSPost2010PropOp29
 70
     1
102
RTVSPost2010Prop30
280
     1
102
RTVSPost2010PropOp30
 70
     1
102
RTVSPost2010Prop31
280
     0
102
RTVSPost2010PropOp31
 70
     1
102
RTVSPost2010Prop32
280
     0
102
RTVSPost2010PropOp32
 70
     1
102
RTVSPost2010Prop33
280
     0
102
RTVSPost2010PropOp33
 70
     1
102
RTVSPost2010Prop34
280
     0
102
RTVSPost2010PropOp34
 70
     1
102
RTVSPost2010Prop35
280
     0
102
RTVSPost2010PropOp35
 70
     1
102
RTVSPost2010Prop36
280
     0
102
RTVSPost2010PropOp36
 70
     1
102
RTVSPost2010Prop37
 90
       50
102
RTVSPost2010PropOp37
 70
     1
102
RTVSPost2010Prop38
140
0.0
102
RTVSPost2010PropOp38
 70
     1
102
RTVSPost2010Prop39
140
1.0
102
RTVSPost2010PropOp39
 70
     1
102
RTVSPost2010Prop40
 90
        0
102
RTVSPost2010PropOp40
 70
     1
102
RTVSPost2010Prop41ColorIndex
 90
       18
102
RTVSPost2010Prop41ColorRGB
 90
        0
102
RTVSPost2010PropOp41
 70
     1
102
RTVSPost2010Prop42
 90
       50
102
RTVSPost2010PropOp42
 70
     1
102
RTVSPost2010Prop43
 90
        3
102
RTVSPost2010PropOp43
 70
     1
102
RTVSPost2010Prop44ColorIndex
 90
        5
102
RTVSPost2010Prop44ColorRGB
 90
      255
102
RTVSPost2010PropOp44
 70
     1
102
RTVSPost2010Prop45
280
     0
102
RTVSPost2010PropOp45
 70
     1
102
RTVSPost2010Prop46
 90
       50
102
RTVSPost2010PropOp46
 70
     1
102
RTVSPost2010Prop47
 90
       50
102
RTVSPost2010PropOp47
 70
     1
102
RTVSPost2010Prop48
 90
       50
102
RTVSPost2010PropOp48
 70
     1
102
RTVSPost2010Prop49
280
     0
102
RTVSPost2010PropOp49
 70
     1
102
RTVSPost2010Prop50
 90
       50
102
RTVSPost2010PropOp50
 70
     1
102
RTVSPost2010Prop51ColorIndex
 90
      256
102
RTVSPost2010Prop51ColorRGB
 90
-16777216
102
RTVSPost2010PropOp51
 70
     0
102
RTVSPost2010Prop52
140
1.0
102
RTVSPost2010PropOp52
 70
     0
102
RTVSPost2010Prop53
 90
        2
102
RTVSPost2010PropOp53
 70
     1
102
RTVSPost2010Prop54
  1
strokes_ogs.tif
102
RTVSPost2010PropOp54
 70
     1
102
RTVSPost2010Prop55
280
     0
102
RTVSPost2010PropOp55
 70
     1
102
RTVSPost2010Prop56
140
1.0
102
RTVSPost2010PropOp56
 70
     1
102
RTVSPost2010Prop57
140
1.0
102
RTVSPost2010PropOp57
 70
     1
  0
XRECORD
  5
C31
102
{ACAD_REACTORS
330
C30
102
}
330
C30
100
AcDbXrecord
280
     1
102
RTVSPropertyOp0
 70
     1
102
RTVSPropertyOp1
 70
     1
102
RTVSPropertyOp2
 70
     1
102
RTVSPropertyOp3
 70
     1
102
RTVSPropertyOp4
 70
     1
102
RTVSPropertyOp5
 70
     1
102
RTVSPropertyOp6
 70
     1
102
RTVSPropertyOp7
 70
     1
102
RTVSPropertyOp8
 70
     1
102
RTVSPropertyOp9
 70
     1
102
RTVSPropertyOp10
 70
     1
102
RTVSPropertyOp11
 70
     1
102
RTVSPropertyOp12
 70
     1
102
RTVSPropertyOp13
 70
     1
102
RTVSPropertyOp14
 70
     1
102
RTVSPropertyOp15
 70
     1
102
RTVSPropertyOp16
 70
     1
102
RTVSPropertyOp17
 70
     1
102
RTVSPropertyOp18
 70
     1
102
RTVSPropertyOp19
 70
     1
102
RTVSPropertyOp20
 70
     1
102
RTVSPropertyOp21
 70
     1
102
RTVSPropertyOp22
 70
     1
102
RTVSPropertyOp23
 70
     1
102
RTVSPropertyOp24
 70
     1
102
RTVSPropertyOp25
 70
     1
102
RTVSPropertyOp26
 70
     1
102
RTVSPropertyOp27
 70
     1
102
RTVSPropertyOp28
 70
     1
102
RTVSPropertyOp29
 70
     1
102
RTVSPropertyOp30
 70
     1
102
RTVSPropertyOp31
 70
     1
102
RTVSPropertyOp32
 70
     1
102
RTVSPropertyOp33
 70
     1
102
RTVSPropertyOp34
 70
     1
102
RTVSPropertyOp35
 70
     1
102
RTVSPropertyOp36
 70
     1
102
RTVSPropertyOp37
 70
     1
102
RTVSPropertyOp38
 70
     1
102
RTVSPropertyOp39
 70
     1
102
RTVSPropertyOp40
 70
     1
102
RTVSPropertyOp41
 70
     1
102
RTVSPropertyOp42
 70
     1
102
RTVSPropertyOp43
 70
     1
102
RTVSPropertyOp44
 70
     1
102
RTVSPropertyOp45
 70
     1
102
RTVSPropertyOp46
 70
     1
102
RTVSPropertyOp47
 70
     1
102
RTVSPropertyOp48
 70
     1
102
RTVSPropertyOp49
 70
     1
102
RTVSPropertyOp50
 70
     1
102
RTVSPropertyOp51
 70
     0
102
RTVSPropertyOp52
 70
     0
102
RTVSPropertyOp53
 70
     1
102
RTVSPropertyOp54
 70
     1
102
RTVSPropertyOp55
 70
     1
102
RTVSPropertyOp56
 70
     1
102
RTVSPropertyOp57
 70
     1
102
RTVSPost2010Prop28
280
     0
102
RTVSPost2010PropOp28
 70
     1
102
RTVSPost2010Prop29
280
     1
102
RTVSPost2010PropOp29
 70
     1
102
RTVSPost2010Prop30
280
     1
102
RTVSPost2010PropOp30
 70
     1
102
RTVSPost2010Prop31
280
     0
102
RTVSPost2010PropOp31
 70
     1
102
RTVSPost2010Prop32
280
     0
102
RTVSPost2010PropOp32
 70
     1
102
RTVSPost2010Prop33
280
     0
102
RTVSPost2010PropOp33
 70
     1
102
RTVSPost2010Prop34
280
     0
102
RTVSPost2010PropOp34
 70
     1
102
RTVSPost2010Prop35
280
     0
102
RTVSPost2010PropOp35
 70
     1
102
RTVSPost2010Prop36
280
     0
102
RTVSPost2010PropOp36
 70
     1
102
RTVSPost2010Prop37
 90
       50
102
RTVSPost2010PropOp37
 70
     1
102
RTVSPost2010Prop38
140
0.0
102
RTVSPost2010PropOp38
 70
     1
102
RTVSPost2010Prop39
140
1.0
102
RTVSPost2010PropOp39
 70
     1
102
RTVSPost2010Prop40
 90
        0
102
RTVSPost2010PropOp40
 70
     1
102
RTVSPost2010Prop41ColorIndex
 90
       18
102
RTVSPost2010Prop41ColorRGB
 90
        0
102
RTVSPost2010PropOp41
 70
     1
102
RTVSPost2010Prop42
 90
       50
102
RTVSPost2010PropOp42
 70
     1
102
RTVSPost2010Prop43
 90
        3
102
RTVSPost2010PropOp43
 70
     1
102
RTVSPost2010Prop44ColorIndex
 90
        5
102
RTVSPost2010Prop44ColorRGB
 90
      255
102
RTVSPost2010PropOp44
 70
     1
102
RTVSPost2010Prop45
280
     0
102
RTVSPost2010PropOp45
 70
     1
102
RTVSPost2010Prop46
 90
       50
102
RTVSPost2010PropOp46
 70
     1
102
RTVSPost2010Prop47
 90
       50
102
RTVSPost2010PropOp47
 70
     1
102
RTVSPost2010Prop48
 90
       50
102
RTVSPost2010PropOp48
 70
     1
102
RTVSPost2010Prop49
280
     0
102
RTVSPost2010PropOp49
 70
     1
102
RTVSPost2010Prop50
 90
       50
102
RTVSPost2010PropOp50
 70
     1
102
RTVSPost2010Prop51ColorIndex
 90
      256
102
RTVSPost2010Prop51ColorRGB
 90
-16777216
102
RTVSPost2010PropOp51
 70
     0
102
RTVSPost2010Prop52
140
1.0
102
RTVSPost2010PropOp52
 70
     0
102
RTVSPost2010Prop53
 90
        2
102
RTVSPost2010PropOp53
 70
     1
102
RTVSPost2010Prop54
  1
strokes_ogs.tif
102
RTVSPost2010PropOp54
 70
     1
102
RTVSPost2010Prop55
280
     0
102
RTVSPost2010PropOp55
 70
     1
102
RTVSPost2010Prop56
140
1.0
102
RTVSPost2010PropOp56
 70
     1
102
RTVSPost2010Prop57
140
1.0
102
RTVSPost2010PropOp57
 70
     1
  0
ENDSEC
  0
EOF
