  0
SECTION
  2
HEADER
  9
$ACADVER
  1
AC1015
  9
$ACADMAINTVER
 70
     6
  9
$DWGCODEPAGE
  3
ANSI_932
  9
$INSBASE
 10
1443.133899698782
 20
1045.730716278979
 30
0.0
  9
$EXTMIN
 10
163.0736603528406
 20
21.58489137605511
 30
0.0
  9
$EXTMAX
 10
1037.686481718533
 20
905.0839957802586
 30
0.0
  9
$LIMMIN
 10
0.0
 20
0.0
  9
$LIMMAX
 10
816.5000000000001
 20
565.0
  9
$ORTHOMODE
 70
     1
  9
$REGENMODE
 70
     1
  9
$FILLMODE
 70
     1
  9
$QTEXTMODE
 70
     0
  9
$MIRRTEXT
 70
     1
  9
$LTSCALE
 40
5.0
  9
$ATTMODE
 70
     1
  9
$TEXTSIZE
 40
9.0
  9
$TRACEWID
 40
0.05
  9
$TEXTSTYLE
  7
KANJI
  9
$CLAYER
  8
2
  9
$CELTYPE
  6
BYLAYER
  9
$CECOLOR
 62
   256
  9
$CELTSCALE
 40
1.0
  9
$DISPSILH
 70
     0
  9
$DIMSCALE
 40
3.0
  9
$DIMASZ
 40
2.0
  9
$DIMEXO
 40
0.5
  9
$DIMDLI
 40
0.0
  9
$DIMRND
 40
0.0
  9
$DIMDLE
 40
0.0
  9
$DIMEXE
 40
1.0
  9
$DIMTP
 40
0.0
  9
$DIMTM
 40
0.0
  9
$DIMTXT
 40
3.0
  9
$DIMCEN
 40
0.09
  9
$DIMTSZ
 40
0.0
  9
$DIMTOL
 70
     0
  9
$DIMLIM
 70
     0
  9
$DIMTIH
 70
     0
  9
$DIMTOH
 70
     0
  9
$DIMSE1
 70
     0
  9
$DIMSE2
 70
     0
  9
$DIMTAD
 70
     0
  9
$DIMZIN
 70
     8
  9
$DIMBLK
  1

  9
$DIMASO
 70
     0
  9
$DIMSHO
 70
     0
  9
$DIMPOST
  1

  9
$DIMAPOST
  1

  9
$DIMALT
 70
     0
  9
$DIMALTD
 70
     2
  9
$DIMALTF
 40
25.4
  9
$DIMLFAC
 40
1.0
  9
$DIMTOFL
 70
     1
  9
$DIMTVP
 40
1.0
  9
$DIMTIX
 70
     1
  9
$DIMSOXD
 70
     1
  9
$DIMSAH
 70
     0
  9
$DIMBLK1
  1

  9
$DIMBLK2
  1

  9
$DIMSTYLE
  2
STANDARD
  9
$DIMCLRD
 70
   256
  9
$DIMCLRE
 70
   256
  9
$DIMCLRT
 70
     2
  9
$DIMTFAC
 40
1.0
  9
$DIMGAP
 40
0.09
  9
$DIMJUST
 70
     0
  9
$DIMSD1
 70
     0
  9
$DIMSD2
 70
     0
  9
$DIMTOLJ
 70
     1
  9
$DIMTZIN
 70
     0
  9
$DIMALTZ
 70
     0
  9
$DIMALTTZ
 70
     0
  9
$DIMUPT
 70
     0
  9
$DIMDEC
 70
     4
  9
$DIMTDEC
 70
     4
  9
$DIMALTU
 70
     2
  9
$DIMALTTD
 70
     2
  9
$DIMTXSTY
  7
STANDARD
  9
$DIMAUNIT
 70
     0
  9
$DIMADEC
 70
     0
  9
$DIMALTRND
 40
0.0
  9
$DIMAZIN
 70
     0
  9
$DIMDSEP
 70
    46
  9
$DIMATFIT
 70
     3
  9
$DIMFRAC
 70
     0
  9
$DIMLDRBLK
  1

  9
$DIMLUNIT
 70
     2
  9
$DIMLWD
 70
    -2
  9
$DIMLWE
 70
    -2
  9
$DIMTMOVE
 70
     0
  9
$LUNITS
 70
     2
  9
$LUPREC
 70
     3
  9
$SKETCHINC
 40
0.1
  9
$FILLETRAD
 40
4.0
  9
$AUNITS
 70
     0
  9
$AUPREC
 70
     3
  9
$MENU
  1
C:\R13\WIN\SUPPORT\ACADFULL
  9
$ELEVATION
 40
0.0
  9
$PELEVATION
 40
0.0
  9
$THICKNESS
 40
0.0
  9
$LIMCHECK
 70
     0
  9
$CHAMFERA
 40
0.0
  9
$CHAMFERB
 40
0.0
  9
$CHAMFERC
 40
0.0
  9
$CHAMFERD
 40
0.0
  9
$SKPOLY
 70
     0
  9
$TDCREATE
 40
2457417.595968299
  9
$TDUCREATE
 40
2457417.220968299
  9
$TDUPDATE
 40
2457871.830504063
  9
$TDUUPDATE
 40
2457871.455504063
  9
$TDINDWG
 40
0.0110408102
  9
$TDUSRTIMER
 40
0.011040081
  9
$USRTIMER
 70
     1
  9
$ANGBASE
 50
0.0
  9
$ANGDIR
 70
     0
  9
$PDMODE
 70
     0
  9
$PDSIZE
 40
0.0
  9
$PLINEWID
 40
0.0
  9
$SPLFRAME
 70
     0
  9
$SPLINETYPE
 70
     6
  9
$SPLINESEGS
 70
     8
  9
$HANDSEED
  5
5F9
  9
$SURFTAB1
 70
     6
  9
$SURFTAB2
 70
     6
  9
$SURFTYPE
 70
     6
  9
$SURFU
 70
     6
  9
$SURFV
 70
     6
  9
$UCSBASE
  2

  9
$UCSNAME
  2

  9
$UCSORG
 10
0.0
 20
0.0
 30
0.0
  9
$UCSXDIR
 10
1.0
 20
0.0
 30
0.0
  9
$UCSYDIR
 10
0.0
 20
1.0
 30
0.0
  9
$UCSORTHOREF
  2

  9
$UCSORTHOVIEW
 70
     0
  9
$UCSORGTOP
 10
0.0
 20
0.0
 30
0.0
  9
$UCSORGBOTTOM
 10
0.0
 20
0.0
 30
0.0
  9
$UCSORGLEFT
 10
0.0
 20
0.0
 30
0.0
  9
$UCSORGRIGHT
 10
0.0
 20
0.0
 30
0.0
  9
$UCSORGFRONT
 10
0.0
 20
0.0
 30
0.0
  9
$UCSORGBACK
 10
0.0
 20
0.0
 30
0.0
  9
$PUCSBASE
  2

  9
$PUCSNAME
  2

  9
$PUCSORG
 10
0.0
 20
0.0
 30
0.0
  9
$PUCSXDIR
 10
1.0
 20
0.0
 30
0.0
  9
$PUCSYDIR
 10
0.0
 20
1.0
 30
0.0
  9
$PUCSORTHOREF
  2

  9
$PUCSORTHOVIEW
 70
     0
  9
$PUCSORGTOP
 10
0.0
 20
0.0
 30
0.0
  9
$PUCSORGBOTTOM
 10
0.0
 20
0.0
 30
0.0
  9
$PUCSORGLEFT
 10
0.0
 20
0.0
 30
0.0
  9
$PUCSORGRIGHT
 10
0.0
 20
0.0
 30
0.0
  9
$PUCSORGFRONT
 10
0.0
 20
0.0
 30
0.0
  9
$PUCSORGBACK
 10
0.0
 20
0.0
 30
0.0
  9
$USERI1
 70
     0
  9
$USERI2
 70
     0
  9
$USERI3
 70
     0
  9
$USERI4
 70
     0
  9
$USERI5
 70
     0
  9
$USERR1
 40
0.0
  9
$USERR2
 40
0.0
  9
$USERR3
 40
0.0
  9
$USERR4
 40
2448925.372986111
  9
$USERR5
 40
0.04166667
  9
$WORLDVIEW
 70
     1
  9
$SHADEDGE
 70
     3
  9
$SHADEDIF
 70
    70
  9
$TILEMODE
 70
     1
  9
$MAXACTVP
 70
    16
  9
$PINSBASE
 10
0.0
 20
0.0
 30
0.0
  9
$PLIMCHECK
 70
     0
  9
$PEXTMIN
 10
1.000000000000000E+20
 20
1.000000000000000E+20
 30
1.000000000000000E+20
  9
$PEXTMAX
 10
-1.000000000000000E+20
 20
-1.000000000000000E+20
 30
-1.000000000000000E+20
  9
$PLIMMIN
 10
0.0
 20
0.0
  9
$PLIMMAX
 10
12.0
 20
9.0
  9
$UNITMODE
 70
     0
  9
$VISRETAIN
 70
     0
  9
$PLINEGEN
 70
     0
  9
$PSLTSCALE
 70
     0
  9
$TREEDEPTH
 70
  3020
  9
$CMLSTYLE
  2
STANDARD
  9
$CMLJUST
 70
     0
  9
$CMLSCALE
 40
1.0
  9
$PROXYGRAPHICS
 70
     1
  9
$MEASUREMENT
 70
     0
  9
$CELWEIGHT
370
    -1
  9
$ENDCAPS
280
     0
  9
$JOINSTYLE
280
     0
  9
$LWDISPLAY
290
     0
  9
$INSUNITS
 70
     0
  9
$HYPERLINKBASE
  1

  9
$STYLESHEET
  1
monochrome.ctb
  9
$XEDIT
290
     1
  9
$CEPSNTYPE
380
     0
  9
$PSTYLEMODE
290
     1
  9
$FINGERPRINTGUID
  2
{73FEF31F-50C9-44C4-A0D7-0FAE582BD2F4}
  9
$VERSIONGUID
  2
{15909635-FD46-4E86-BF1A-8C640C014BF3}
  9
$EXTNAMES
290
     1
  9
$PSVPSCALE
 40
0.0
  9
$OLESTARTUP
290
     0
  0
ENDSEC
  0
SECTION
  2
CLASSES
  0
CLASS
  1
LWPOLYLINE
  2
AcDbPolyline
  3
AutoCAD 2000
 90
        0
280
     0
281
     1
  0
CLASS
  1
XRECORD
  2
AcDbXrecord
  3
AutoCAD 2000
 90
        0
280
     0
281
     0
  0
CLASS
  1
ACDBDICTIONARYWDFLT
  2
AcDbDictionaryWithDefault
  3
ObjectDBX Classes
 90
        0
280
     0
281
     0
  0
CLASS
  1
MATERIAL
  2
AcDbMaterial
  3
ObjectDBX Classes
 90
     1153
280
     0
281
     0
  0
CLASS
  1
VISUALSTYLE
  2
AcDbVisualStyle
  3
ObjectDBX Classes
 90
     4095
280
     0
281
     0
  0
CLASS
  1
TABLESTYLE
  2
AcDbTableStyle
  3
ObjectDBX Classes
 90
     4095
280
     0
281
     0
  0
CLASS
  1
SCALE
  2
AcDbScale
  3
ObjectDBX Classes
 90
     1153
280
     0
281
     0
  0
CLASS
  1
MLEADERSTYLE
  2
AcDbMLeaderStyle
  3
ACDB_MLEADERSTYLE_CLASS
 90
     4095
280
     0
281
     0
  0
CLASS
  1
CELLSTYLEMAP
  2
AcDbCellStyleMap
  3
ObjectDBX Classes
 90
     1152
280
     0
281
     0
  0
CLASS
  1
DICTIONARYVAR
  2
AcDbDictionaryVar
  3
ObjectDBX Classes
 90
        0
280
     0
281
     0
  0
CLASS
  1
ACDBPLACEHOLDER
  2
AcDbPlaceHolder
  3
ObjectDBX Classes
 90
        0
280
     0
281
     0
  0
CLASS
  1
LAYOUT
  2
AcDbLayout
  3
ObjectDBX Classes
 90
        0
280
     0
281
     0
  0
CLASS
  1
DUMMY
  2
AcDbLongTransaction
  3
DUMMY
 90
        0
280
     0
281
     0
  0
CLASS
  1
LWPOLYLINE
  2
AcDbPolyline
  3
AutoCAD 2000
 90
        0
280
     0
281
     1
  0
CLASS
  1
HATCH
  2
AcDbHatch
  3
AutoCAD 2000
 90
        0
280
     0
281
     1
  0
CLASS
  1
XRECORD
  2
AcDbXrecord
  3
AutoCAD 2000
 90
        0
280
     0
281
     0
  0
CLASS
  1
DUMMY
  2
AcDbLongTransaction
  3
DUMMY
 90
        0
280
     0
281
     0
  0
CLASS
  1
LWPOLYLINE
  2
AcDbPolyline
  3
AutoCAD 2000
 90
        0
280
     0
281
     1
  0
CLASS
  1
HATCH
  2
AcDbHatch
  3
AutoCAD 2000
 90
        0
280
     0
281
     1
  0
CLASS
  1
XRECORD
  2
AcDbXrecord
  3
AutoCAD 2000
 90
        0
280
     0
281
     0
  0
CLASS
  1
DUMMY
  2
AcDbLongTransaction
  3
DUMMY
 90
        0
280
     0
281
     0
  0
CLASS
  1
LWPOLYLINE
  2
AcDbPolyline
  3
AutoCAD 2000
 90
        0
280
     0
281
     1
  0
CLASS
  1
HATCH
  2
AcDbHatch
  3
AutoCAD 2000
 90
        0
280
     0
281
     1
  0
CLASS
  1
XRECORD
  2
AcDbXrecord
  3
AutoCAD 2000
 90
        0
280
     0
281
     0
  0
CLASS
  1
DUMMY
  2
AcDbLongTransaction
  3
DUMMY
 90
        0
280
     0
281
     0
  0
CLASS
  1
LWPOLYLINE
  2
AcDbPolyline
  3
AutoCAD 2000
 90
        0
280
     0
281
     1
  0
CLASS
  1
HATCH
  2
AcDbHatch
  3
AutoCAD 2000
 90
        0
280
     0
281
     1
  0
CLASS
  1
XRECORD
  2
AcDbXrecord
  3
AutoCAD 2000
 90
        0
280
     0
281
     0
  0
CLASS
  1
ACDBSECTIONVIEWSTYLE
  2
AcDbSectionViewStyle
  3
ObjectDBX Classes
 90
     1025
280
     0
281
     0
  0
CLASS
  1
ACDBDETAILVIEWSTYLE
  2
AcDbDetailViewStyle
  3
ObjectDBX Classes
 90
     1025
280
     0
281
     0
  0
CLASS
  1
SORTENTSTABLE
  2
AcDbSortentsTable
  3
ObjectDBX Classes
 90
        0
280
     0
281
     0
  0
ENDSEC
  0
SECTION
  2
TABLES
  0
TABLE
  2
VPORT
  5
2C
102
{ACAD_XDICTIONARY
360
31
102
}
330
0
100
AcDbSymbolTable
 70
     1
  0
VPORT
  5
2D
330
2C
100
AcDbSymbolTableRecord
100
AcDbViewportTableRecord
  2
*ACTIVE
 70
     0
 10
0.0
 20
0.0
 11
1.0
 21
1.0
 12
1179.147612284216
 22
489.0155020653638
 13
0.0
 23
0.0
 14
1.0
 24
1.0
 15
50.0
 25
50.0
 16
0.0
 26
0.0
 36
1.0
 17
0.0
 27
0.0
 37
0.0
 40
1235.176736581028
 41
2.177611940298507
 42
50.0
 43
0.0
 44
0.0
 50
0.0
 51
0.0
 71
     0
 72
  5000
 73
     1
 74
     0
 75
     0
 76
     0
 77
     0
 78
     0
281
     0
 65
     1
110
0.0
120
0.0
130
0.0
111
1.0
121
0.0
131
0.0
112
0.0
122
1.0
132
0.0
 79
     0
146
0.0
1001
ACAD_NAV_VCDISPLAY
1070
     3
  0
ENDTAB
  0
TABLE
  2
LTYPE
  5
27
330
0
100
AcDbSymbolTable
 70
     2
  0
LTYPE
  5
28
330
27
100
AcDbSymbolTableRecord
100
AcDbLinetypeTableRecord
  2
BYBLOCK
 70
     0
  3

 72
    65
 73
     0
 40
0.0
  0
LTYPE
  5
29
330
27
100
AcDbSymbolTableRecord
100
AcDbLinetypeTableRecord
  2
BYLAYER
 70
     0
  3

 72
    65
 73
     0
 40
0.0
  0
LTYPE
  5
16
330
27
100
AcDbSymbolTableRecord
100
AcDbLinetypeTableRecord
  2
CONTINUOUS
 70
     0
  3
Solid line
 72
    65
 73
     0
 40
0.0
  0
LTYPE
  5
A0
330
27
100
AcDbSymbolTableRecord
100
AcDbLinetypeTableRecord
  2
CENTER
 70
     0
  3
____ _ ____ _ ____ _ ____ _ ____ _ ____ _ ____
 72
    65
 73
     4
 40
2.0
 49
1.25
 74
     0
 49
-0.25
 74
     0
 49
0.25
 74
     0
 49
-0.25
 74
     0
  0
ENDTAB
  0
TABLE
  2
LAYER
  5
21
102
{ACAD_XDICTIONARY
360
22
102
}
330
0
100
AcDbSymbolTable
 70
     8
  0
LAYER
  5
7
102
{ACAD_XDICTIONARY
360
8
102
}
330
21
100
AcDbSymbolTableRecord
100
AcDbLayerTableRecord
  2
0
 70
     0
 62
     7
  6
CONTINUOUS
370
    -3
390
A
  0
LAYER
  5
351
102
{ACAD_XDICTIONARY
360
352
102
}
330
21
100
AcDbSymbolTableRecord
100
AcDbLayerTableRecord
  2
1
 70
     0
 62
     9
  6
CONTINUOUS
370
    -3
390
A
  0
LAYER
  5
4E
102
{ACAD_XDICTIONARY
360
4F
102
}
330
21
100
AcDbSymbolTableRecord
100
AcDbLayerTableRecord
  2
2
 70
     0
 62
     4
  6
CONTINUOUS
370
    -3
390
A
  0
LAYER
  5
68
102
{ACAD_XDICTIONARY
360
69
102
}
330
21
100
AcDbSymbolTableRecord
100
AcDbLayerTableRecord
  2
4
 70
     0
 62
     3
  6
CONTINUOUS
370
    -3
390
A
  0
LAYER
  5
9D
102
{ACAD_XDICTIONARY
360
9E
102
}
330
21
100
AcDbSymbolTableRecord
100
AcDbLayerTableRecord
  2
L-CENTER
 70
     0
 62
     1
  6
CENTER
370
    -3
390
A
  0
LAYER
  5
149
102
{ACAD_XDICTIONARY
360
14A
102
}
330
21
100
AcDbSymbolTableRecord
100
AcDbLayerTableRecord
  2
3
 70
     0
 62
     2
  6
CONTINUOUS
370
    -3
390
A
  0
LAYER
  5
405
330
21
100
AcDbSymbolTableRecord
100
AcDbLayerTableRecord
  2
5
 70
     0
 62
     6
  6
CONTINUOUS
370
    -3
390
A
  0
LAYER
  5
57A
330
21
100
AcDbSymbolTableRecord
100
AcDbLayerTableRecord
  2
Defpoints
 70
     0
 62
     7
  6
CONTINUOUS
290
     0
370
    -3
390
A
  0
ENDTAB
  0
TABLE
  2
STYLE
  5
24
330
0
100
AcDbSymbolTable
 70
     2
  0
STYLE
  5
25
330
24
100
AcDbSymbolTableRecord
100
AcDbTextStyleTableRecord
  2
STANDARD
 70
     0
 40
0.0
 41
1.0
 50
0.0
 71
     0
 42
5.4
  3
TXT
  4

  0
STYLE
  5
51
330
24
100
AcDbSymbolTableRecord
100
AcDbTextStyleTableRecord
  2
KANJI
 70
     0
 40
0.0
 41
1.0
 50
0.0
 71
     0
 42
9.0
  3
TXT
  4
BIGFONT
  0
ENDTAB
  0
TABLE
  2
VIEW
  5
2A
330
0
100
AcDbSymbolTable
 70
     0
  0
ENDTAB
  0
TABLE
  2
UCS
  5
2B
330
0
100
AcDbSymbolTable
 70
     0
  0
ENDTAB
  0
TABLE
  2
APPID
  5
32
330
0
100
AcDbSymbolTable
 70
     4
  0
APPID
  5
33
330
32
100
AcDbSymbolTableRecord
100
AcDbRegAppTableRecord
  2
ACAD
 70
     0
  0
APPID
  5
30
330
32
100
AcDbSymbolTableRecord
100
AcDbRegAppTableRecord
  2
ACAD_NAV_VCDISPLAY
 70
     0
  0
APPID
  5
1A
330
32
100
AcDbSymbolTableRecord
100
AcDbRegAppTableRecord
  2
ACAD_PSEXT
 70
     0
  0
APPID
  5
55D
330
32
100
AcDbSymbolTableRecord
100
AcDbRegAppTableRecord
  2
ACAD_MLEADERVER
 70
     0
  0
ENDTAB
  0
TABLE
  2
DIMSTYLE
  5
34
330
0
100
AcDbSymbolTable
 70
     1
100
AcDbDimStyleTable
  0
DIMSTYLE
105
35
330
34
100
AcDbSymbolTableRecord
100
AcDbDimStyleTableRecord
  2
STANDARD
 70
     0
178
     0
340
25
  0
ENDTAB
  0
TABLE
  2
BLOCK_RECORD
  5
1
330
0
100
AcDbSymbolTable
 70
     0
  0
BLOCK_RECORD
  5
2
102
{ACAD_XDICTIONARY
360
3
102
}
330
1
100
AcDbSymbolTableRecord
100
AcDbBlockTableRecord
  2
*MODEL_SPACE
340
18
  0
BLOCK_RECORD
  5
1B
330
1
100
AcDbSymbolTableRecord
100
AcDbBlockTableRecord
  2
*PAPER_SPACE
340
20
  0
ENDTAB
  0
ENDSEC
  0
SECTION
  2
BLOCKS
  0
BLOCK
  5
6
330
2
100
AcDbEntity
  8
0
100
AcDbBlockBegin
  2
*MODEL_SPACE
 70
     0
 10
0.0
 20
0.0
 30
0.0
  3
*MODEL_SPACE
  1

  0
ENDBLK
  5
17
330
2
100
AcDbEntity
  8
0
100
AcDbBlockEnd
  0
BLOCK
  5
1E
330
1B
100
AcDbEntity
 67
     1
  8
0
100
AcDbBlockBegin
  2
*PAPER_SPACE
 70
     0
 10
0.0
 20
0.0
 30
0.0
  3
*PAPER_SPACE
  1

  0
ENDBLK
  5
1F
330
1B
100
AcDbEntity
 67
     1
  8
0
100
AcDbBlockEnd
  0
ENDSEC
  0
SECTION
  2
ENTITIES
  0
LINE
  5
67
330
2
100
AcDbEntity
  8
4
100
AcDbLine
 10
435.8236603528413
 20
786.3476323646382
 30
0.0
 11
435.8236603528413
 21
788.3476323646382
 31
0.0
  0
LINE
  5
6B
330
2
100
AcDbEntity
  8
4
100
AcDbLine
 10
450.3236603528413
 20
788.3476323646382
 30
0.0
 11
435.8236603528413
 21
788.3476323646382
 31
0.0
  0
LINE
  5
6C
330
2
100
AcDbEntity
  8
4
100
AcDbLine
 10
449.5736603528413
 20
788.3476323646382
 30
0.0
 11
449.5736603528413
 21
796.3476323646382
 31
0.0
  0
LINE
  5
6D
330
2
100
AcDbEntity
  8
4
100
AcDbLine
 10
436.5736603528413
 20
788.3476323646382
 30
0.0
 11
436.5736603528413
 21
796.3476323646382
 31
0.0
  0
LINE
  5
6E
330
2
100
AcDbEntity
  8
4
100
AcDbLine
 10
450.3236603528413
 20
786.3476323646382
 30
0.0
 11
450.3236603528413
 21
788.3476323646382
 31
0.0
  0
LINE
  5
6F
330
2
100
AcDbEntity
  8
4
100
AcDbLine
 10
449.5736603528413
 20
796.3476323646382
 30
0.0
 11
436.5736603528413
 21
796.3476323646382
 31
0.0
  0
LINE
  5
70
330
2
100
AcDbEntity
  8
4
100
AcDbLine
 10
389.5736603528414
 20
796.3476323646382
 30
0.0
 11
376.5736603528414
 21
796.3476323646382
 31
0.0
  0
LINE
  5
71
330
2
100
AcDbEntity
  8
4
100
AcDbLine
 10
390.3236603528414
 20
786.3476323646382
 30
0.0
 11
390.3236603528414
 21
788.3476323646382
 31
0.0
  0
LINE
  5
72
330
2
100
AcDbEntity
  8
4
100
AcDbLine
 10
376.5736603528414
 20
788.3476323646382
 30
0.0
 11
376.5736603528414
 21
796.3476323646382
 31
0.0
  0
LINE
  5
73
330
2
100
AcDbEntity
  8
4
100
AcDbLine
 10
389.5736603528414
 20
788.3476323646382
 30
0.0
 11
389.5736603528414
 21
796.3476323646382
 31
0.0
  0
LINE
  5
74
330
2
100
AcDbEntity
  8
4
100
AcDbLine
 10
390.3236603528414
 20
788.3476323646382
 30
0.0
 11
375.8236603528414
 21
788.3476323646382
 31
0.0
  0
LINE
  5
75
330
2
100
AcDbEntity
  8
4
100
AcDbLine
 10
375.8236603528414
 20
786.3476323646382
 30
0.0
 11
375.8236603528414
 21
788.3476323646382
 31
0.0
  0
LINE
  5
76
330
2
100
AcDbEntity
  8
4
100
AcDbLine
 10
255.8236603528396
 20
786.3476323646382
 30
0.0
 11
255.8236603528396
 21
788.3476323646382
 31
0.0
  0
LINE
  5
77
330
2
100
AcDbEntity
  8
4
100
AcDbLine
 10
270.3236603528396
 20
788.3476323646382
 30
0.0
 11
255.8236603528396
 21
788.3476323646382
 31
0.0
  0
LINE
  5
78
330
2
100
AcDbEntity
  8
4
100
AcDbLine
 10
269.5736603528396
 20
788.3476323646382
 30
0.0
 11
269.5736603528396
 21
796.3476323646382
 31
0.0
  0
LINE
  5
79
330
2
100
AcDbEntity
  8
4
100
AcDbLine
 10
256.5736603528396
 20
788.3476323646382
 30
0.0
 11
256.5736603528396
 21
796.3476323646382
 31
0.0
  0
LINE
  5
7A
330
2
100
AcDbEntity
  8
4
100
AcDbLine
 10
270.3236603528396
 20
786.3476323646382
 30
0.0
 11
270.3236603528396
 21
788.3476323646382
 31
0.0
  0
LINE
  5
7B
330
2
100
AcDbEntity
  8
4
100
AcDbLine
 10
269.5736603528396
 20
796.3476323646382
 30
0.0
 11
256.5736603528396
 21
796.3476323646382
 31
0.0
  0
LINE
  5
7C
330
2
100
AcDbEntity
  8
4
100
AcDbLine
 10
210.3236603528397
 20
788.3476323646382
 30
0.0
 11
195.8236603528396
 21
788.3476323646382
 31
0.0
  0
LINE
  5
7D
330
2
100
AcDbEntity
  8
4
100
AcDbLine
 10
209.5736603528396
 20
796.3476323646382
 30
0.0
 11
196.5736603528396
 21
796.3476323646382
 31
0.0
  0
LINE
  5
7E
330
2
100
AcDbEntity
  8
4
100
AcDbLine
 10
195.8236603528396
 20
786.3476323646382
 30
0.0
 11
195.8236603528396
 21
788.3476323646382
 31
0.0
  0
LINE
  5
7F
330
2
100
AcDbEntity
  8
4
100
AcDbLine
 10
210.3236603528397
 20
786.3476323646382
 30
0.0
 11
210.3236603528397
 21
788.3476323646382
 31
0.0
  0
LINE
  5
80
330
2
100
AcDbEntity
  8
4
100
AcDbLine
 10
196.5736603528396
 20
788.3476323646382
 30
0.0
 11
196.5736603528396
 21
796.3476323646382
 31
0.0
  0
LINE
  5
81
330
2
100
AcDbEntity
  8
4
100
AcDbLine
 10
209.5736603528396
 20
788.3476323646382
 30
0.0
 11
209.5736603528396
 21
796.3476323646382
 31
0.0
  0
LINE
  5
82
330
2
100
AcDbEntity
  8
4
100
AcDbLine
 10
926.5501183029112
 20
166.0848913760551
 30
0.0
 11
926.5501183029112
 21
145.5848913760551
 31
0.0
  0
LINE
  5
83
330
2
100
AcDbEntity
  8
2
100
AcDbLine
 10
918.9501183029108
 20
65.83341578242243
 30
0.0
 11
920.9501183029108
 21
67.83341578242243
 31
0.0
  0
LINE
  5
84
330
2
100
AcDbEntity
  8
2
100
AcDbLine
 10
918.9501183029108
 20
68.66184290716865
 30
0.0
 11
920.9501183029108
 21
70.66184290716865
 31
0.0
  0
LINE
  5
85
330
2
100
AcDbEntity
  8
4
100
AcDbLine
 10
920.9501183029108
 20
75.16184290716865
 30
0.0
 11
928.9501183029108
 21
75.16184290716865
 31
0.0
  0
LINE
  5
86
330
2
100
AcDbEntity
  8
4
100
AcDbLine
 10
918.9501183029108
 20
75.91184290716865
 30
0.0
 11
920.9501183029108
 21
75.91184290716865
 31
0.0
  0
LINE
  5
87
330
2
100
AcDbEntity
  8
4
100
AcDbLine
 10
928.9501183029106
 20
62.58489137605511
 30
0.0
 11
928.9501183029108
 21
75.16184290716865
 31
0.0
  0
LINE
  5
88
330
2
100
AcDbEntity
  8
4
100
AcDbLine
 10
920.9501183029106
 20
62.58489137605511
 30
0.0
 11
920.9501183029108
 21
75.91184290716865
 31
0.0
  0
LINE
  5
89
330
2
100
AcDbEntity
  8
4
100
AcDbLine
 10
920.9501183029108
 20
165.3348913760551
 30
0.0
 11
920.9501183029108
 21
179.8348913760551
 31
0.0
  0
LINE
  5
8A
330
2
100
AcDbEntity
  8
4
100
AcDbLine
 10
928.9501183029108
 20
166.0848913760551
 30
0.0
 11
928.9501183029108
 21
179.0848913760551
 31
0.0
  0
LINE
  5
8B
330
2
100
AcDbEntity
  8
4
100
AcDbLine
 10
918.9501183029108
 20
179.8348913760551
 30
0.0
 11
920.9501183029108
 21
179.8348913760551
 31
0.0
  0
LINE
  5
8C
330
2
100
AcDbEntity
  8
4
100
AcDbLine
 10
918.9501183029108
 20
165.3348913760551
 30
0.0
 11
920.9501183029108
 21
165.3348913760551
 31
0.0
  0
LINE
  5
8D
330
2
100
AcDbEntity
  8
4
100
AcDbLine
 10
920.9501183029108
 20
179.0848913760551
 30
0.0
 11
928.9501183029108
 21
179.0848913760551
 31
0.0
  0
LINE
  5
8E
330
2
100
AcDbEntity
  8
4
100
AcDbLine
 10
920.9501183029108
 20
166.0848913760551
 30
0.0
 11
928.9501183029108
 21
166.0848913760551
 31
0.0
  0
LINE
  5
8F
330
2
100
AcDbEntity
  8
2
100
AcDbLine
 10
918.9501183029108
 20
172.5848913760551
 30
0.0
 11
920.9501183029108
 21
174.5848913760551
 31
0.0
  0
LINE
  5
90
330
2
100
AcDbEntity
  8
2
100
AcDbLine
 10
918.9501183029108
 20
169.7564642513089
 30
0.0
 11
920.9501183029108
 21
171.7564642513089
 31
0.0
  0
LINE
  5
91
330
2
100
AcDbEntity
  8
2
100
AcDbLine
 10
918.9501183029108
 20
273.6795126906936
 30
0.0
 11
920.9501183029108
 21
275.6795126906936
 31
0.0
  0
LINE
  5
92
330
2
100
AcDbEntity
  8
2
100
AcDbLine
 10
918.9501183029108
 20
276.5079398154398
 30
0.0
 11
920.9501183029108
 21
278.5079398154398
 31
0.0
  0
LINE
  5
93
330
2
100
AcDbEntity
  8
4
100
AcDbLine
 10
920.9501183029108
 20
270.0079398154398
 30
0.0
 11
928.9501183029108
 21
270.0079398154398
 31
0.0
  0
LINE
  5
94
330
2
100
AcDbEntity
  8
4
100
AcDbLine
 10
920.9501183029108
 20
283.0079398154398
 30
0.0
 11
928.9501183029108
 21
283.0079398154398
 31
0.0
  0
LINE
  5
95
330
2
100
AcDbEntity
  8
4
100
AcDbLine
 10
918.9501183029108
 20
269.2579398154398
 30
0.0
 11
920.9501183029108
 21
269.2579398154398
 31
0.0
  0
LINE
  5
96
330
2
100
AcDbEntity
  8
4
100
AcDbLine
 10
918.9501183029108
 20
283.7579398154398
 30
0.0
 11
920.9501183029108
 21
283.7579398154398
 31
0.0
  0
LINE
  5
97
330
2
100
AcDbEntity
  8
4
100
AcDbLine
 10
928.9501183029108
 20
270.0079398154398
 30
0.0
 11
928.9501183029108
 21
283.0079398154398
 31
0.0
  0
LINE
  5
98
330
2
100
AcDbEntity
  8
4
100
AcDbLine
 10
920.9501183029108
 20
269.2579398154398
 30
0.0
 11
920.9501183029108
 21
283.7579398154398
 31
0.0
  0
LINE
  5
99
330
2
100
AcDbEntity
  8
4
100
AcDbLine
 10
211.0736603528429
 20
715.197632364629
 30
0.0
 11
211.0736603528424
 21
722.8976323646293
 31
0.0
  0
LINE
  5
9A
330
2
100
AcDbEntity
  8
4
 48
3.0
100
AcDbLine
 10
215.836533277814
 20
715.1976323646293
 30
0.0
 11
211.0736603528429
 21
715.197632364629
 31
0.0
  0
LINE
  5
9B
330
2
100
AcDbEntity
  8
4
 48
3.0
100
AcDbLine
 10
215.8365332778135
 20
722.8976323646295
 30
0.0
 11
211.0736603528424
 21
722.8976323646293
 31
0.0
  0
LINE
  5
9C
330
2
100
AcDbEntity
  8
L-CENTER
 48
3.0
100
AcDbLine
 10
221.0736603528433
 20
707.2906110279741
 30
0.0
 11
221.0736603528419
 21
730.804653701301
 31
0.0
  0
CIRCLE
  5
A1
330
2
100
AcDbEntity
  8
4
100
AcDbCircle
 10
221.0736603528426
 20
719.0476323646299
 30
0.0
 40
6.5
  0
LINE
  5
A2
330
2
100
AcDbEntity
  8
4
 48
3.0
100
AcDbLine
 10
430.31078742787
 20
722.8976323646361
 30
0.0
 11
435.0736603528412
 21
722.8976323646361
 31
0.0
  0
LINE
  5
A3
330
2
100
AcDbEntity
  8
4
 48
3.0
100
AcDbLine
 10
430.3107874278699
 20
715.1976323646359
 30
0.0
 11
435.0736603528412
 21
715.1976323646359
 31
0.0
  0
LINE
  5
A4
330
2
100
AcDbEntity
  8
4
100
AcDbLine
 10
435.073660352841
 20
715.1976323646359
 30
0.0
 11
435.0736603528412
 21
722.8976323646361
 31
0.0
  0
CIRCLE
  5
A5
330
2
100
AcDbEntity
  8
4
100
AcDbCircle
 10
425.0736603528412
 20
719.047632364636
 30
0.0
 40
6.5
  0
LINE
  5
A6
330
2
100
AcDbEntity
  8
L-CENTER
 48
3.0
100
AcDbLine
 10
425.0736603528412
 20
707.2906110279725
 30
0.0
 11
425.0736603528412
 21
730.8046537012995
 31
0.0
  0
LINE
  5
A7
330
2
100
AcDbEntity
  8
4
100
AcDbLine
 10
188.5736603528412
 20
733.047632364638
 30
0.0
 11
190.0736603528412
 21
733.047632364638
 31
0.0
  0
LINE
  5
A8
330
2
100
AcDbEntity
  8
4
100
AcDbLine
 10
181.5736603528412
 20
732.0380134214047
 30
0.0
 11
186.5736603528412
 21
732.0380134214047
 31
0.0
  0
LINE
  5
A9
330
2
100
AcDbEntity
  8
4
100
AcDbLine
 10
188.5736603528412
 20
734.047632364638
 30
0.0
 11
186.5736603528412
 21
734.047632364638
 31
0.0
  0
LINE
  5
AA
330
2
100
AcDbEntity
  8
4
100
AcDbLine
 10
188.5736603528412
 20
705.047632364638
 30
0.0
 11
190.0736603528412
 21
705.047632364638
 31
0.0
  0
LINE
  5
AB
330
2
100
AcDbEntity
  8
4
100
AcDbLine
 10
181.5736603528412
 20
706.0572513078714
 30
0.0
 11
186.5736603528412
 21
706.0572513078714
 31
0.0
  0
LINE
  5
AC
330
2
100
AcDbEntity
  8
4
100
AcDbLine
 10
186.5736603528412
 20
704.047632364638
 30
0.0
 11
188.5736603528412
 21
704.047632364638
 31
0.0
  0
LINE
  5
AD
330
2
100
AcDbEntity
  8
4
100
AcDbLine
 10
188.5736603528412
 20
734.047632364638
 30
0.0
 11
188.5736603528412
 21
704.047632364638
 31
0.0
  0
LINE
  5
AE
330
2
100
AcDbEntity
  8
4
100
AcDbLine
 10
186.5736603528412
 20
734.047632364638
 30
0.0
 11
186.5736603528412
 21
704.047632364638
 31
0.0
  0
LINE
  5
AF
330
2
100
AcDbEntity
  8
4
100
AcDbLine
 10
190.0736603528412
 20
733.047632364638
 30
0.0
 11
190.0736603528412
 21
705.047632364638
 31
0.0
  0
LINE
  5
B0
330
2
100
AcDbEntity
  8
4
100
AcDbLine
 10
181.5736603528412
 20
732.0380134214047
 30
0.0
 11
181.5736603528412
 21
706.0572513078714
 31
0.0
  0
LINE
  5
B1
330
2
100
AcDbEntity
  8
4
100
AcDbLine
 10
193.0736603528409
 20
701.047632364638
 30
0.0
 11
190.0736603528412
 21
701.047632364638
 31
0.0
  0
LINE
  5
B2
330
2
100
AcDbEntity
  8
4
100
AcDbLine
 10
193.0736603528409
 20
737.047632364638
 30
0.0
 11
190.0736603528412
 21
737.047632364638
 31
0.0
  0
LINE
  5
B3
330
2
100
AcDbEntity
  8
4
100
AcDbLine
 10
190.0736603528412
 20
701.047632364638
 30
0.0
 11
190.0736603528412
 21
737.0476323646378
 31
0.0
  0
LWPOLYLINE
  5
B4
330
2
100
AcDbEntity
  8
4
100
AcDbPolyline
 90
        6
 70
     1
 43
0.0
 10
268.5736603528407
 20
719.0476323646378
 10
262.3236603528409
 20
729.8729499119434
 10
249.8236603528409
 20
729.8729499119436
 10
243.5736603528407
 20
719.0476323646383
 10
249.8236603528406
 20
708.2223148173327
 10
262.3236603528406
 20
708.2223148173325
  0
CIRCLE
  5
B5
330
2
100
AcDbEntity
  8
4
100
AcDbCircle
 10
256.0736603528407
 20
719.047632364638
 30
0.0
 40
12.5
  0
CIRCLE
  5
B6
330
2
100
AcDbEntity
  8
4
100
AcDbCircle
 10
256.0736603528408
 20
719.047632364638
 30
0.0
 40
19.0
  0
LINE
  5
B7
330
2
100
AcDbEntity
  8
L-CENTER
 48
3.0
100
AcDbLine
 10
256.0736603528408
 20
745.7540428842071
 30
0.0
 11
256.0736603528406
 21
692.3412218450676
 31
0.0
  0
LINE
  5
B8
330
2
100
AcDbEntity
  8
4
100
AcDbLine
 10
269.5736603528396
 20
791.0198333295225
 30
0.0
 11
276.3740321027905
 21
792.1457965209074
 31
0.0
  0
LINE
  5
B9
330
2
100
AcDbEntity
  8
4
100
AcDbLine
 10
269.5736603528396
 20
792.5402553154572
 30
0.0
 11
276.8083027808402
 21
793.7381223404218
 31
0.0
  0
LINE
  5
BA
330
2
100
AcDbEntity
  8
L-CENTER
 48
3.0
100
AcDbLine
 10
203.0736603528401
 20
763.1179507337442
 30
0.0
 11
203.0736603528395
 21
798.3186415632413
 31
0.0
  0
LINE
  5
BB
330
2
100
AcDbEntity
  8
L-CENTER
 48
3.0
100
AcDbLine
 10
263.0736603528401
 20
763.1179507337454
 30
0.0
 11
263.0736603528395
 21
798.3186415632426
 31
0.0
  0
LINE
  5
BC
330
2
100
AcDbEntity
  8
4
100
AcDbLine
 10
376.5736603528413
 20
791.019833329522
 30
0.0
 11
369.7732886028911
 21
792.1457965209074
 31
0.0
  0
LINE
  5
BD
330
2
100
AcDbEntity
  8
4
100
AcDbLine
 10
376.5736603528414
 20
792.5402553154581
 30
0.0
 11
369.3390179248417
 21
793.7381223404218
 31
0.0
  0
LINE
  5
BE
330
2
100
AcDbEntity
  8
L-CENTER
 48
3.0
100
AcDbLine
 10
383.0736603528415
 20
763.1179507337465
 30
0.0
 11
383.0736603528415
 21
798.3186415632435
 31
0.0
  0
LINE
  5
BF
330
2
100
AcDbEntity
  8
L-CENTER
 48
3.0
100
AcDbLine
 10
443.0736603528414
 20
763.1179507337465
 30
0.0
 11
443.0736603528414
 21
798.3186415632435
 31
0.0
  0
LINE
  5
C0
330
2
100
AcDbEntity
  8
4
100
AcDbLine
 10
303.0736603528413
 20
805.9476323646377
 30
0.0
 11
303.0736603528414
 21
824.047632364638
 31
0.0
  0
LINE
  5
C1
330
2
100
AcDbEntity
  8
4
100
AcDbLine
 10
304.0736603528414
 20
898.047632364638
 30
0.0
 11
305.0736603528414
 21
899.047632364638
 31
0.0
  0
LINE
  5
C2
330
2
100
AcDbEntity
  8
4
100
AcDbLine
 10
304.0736603528414
 20
898.047632364638
 30
0.0
 11
318.0736603528414
 21
898.047632364638
 31
0.0
  0
ARC
  5
C3
330
2
100
AcDbEntity
  8
4
100
AcDbCircle
 10
323.0736603528415
 20
834.047632364638
 30
0.0
 40
5.0
100
AcDbArc
 50
180.0
 51
270.0
  0
LINE
  5
C4
330
2
100
AcDbEntity
  8
4
100
AcDbLine
 10
323.0736603528414
 20
829.047632364638
 30
0.0
 11
323.0736603528414
 21
829.047632364638
 31
0.0
  0
ARC
  5
C5
330
2
100
AcDbEntity
  8
4
100
AcDbCircle
 10
303.0736603528415
 20
825.047632364638
 30
0.0
 40
1.0
100
AcDbArc
 50
270.0
 51
0.0
  0
LINE
  5
C6
330
2
100
AcDbEntity
  8
4
100
AcDbLine
 10
304.0736603528414
 20
825.047632364638
 30
0.0
 11
304.0736603528414
 21
898.047632364638
 31
0.0
  0
LINE
  5
C7
330
2
100
AcDbEntity
  8
4
100
AcDbLine
 10
318.0736603528414
 20
834.047632364638
 30
0.0
 11
318.0736603528414
 21
899.047632364638
 31
0.0
  0
LINE
  5
C8
330
2
100
AcDbEntity
  8
4
100
AcDbLine
 10
341.0736603528414
 20
899.047632364638
 30
0.0
 11
342.0736603528414
 21
898.047632364638
 31
0.0
  0
LINE
  5
C9
330
2
100
AcDbEntity
  8
4
100
AcDbLine
 10
328.0736603528414
 20
898.047632364638
 30
0.0
 11
342.0736603528414
 21
898.047632364638
 31
0.0
  0
LINE
  5
CA
330
2
100
AcDbEntity
  8
4
100
AcDbLine
 10
305.0736603528414
 20
899.047632364638
 30
0.0
 11
341.0736603528414
 21
899.047632364638
 31
0.0
  0
ARC
  5
CB
330
2
100
AcDbEntity
  8
4
100
AcDbCircle
 10
323.0736603528415
 20
834.047632364638
 30
0.0
 40
5.0
100
AcDbArc
 50
270.0
 51
0.0
  0
ARC
  5
CC
330
2
100
AcDbEntity
  8
4
100
AcDbCircle
 10
343.0736603528415
 20
825.047632364638
 30
0.0
 40
1.0
100
AcDbArc
 50
180.0
 51
270.0
  0
LINE
  5
CD
330
2
100
AcDbEntity
  8
4
100
AcDbLine
 10
343.0736603528413
 20
805.9476323646377
 30
0.0
 11
343.0736603528414
 21
824.047632364638
 31
0.0
  0
LINE
  5
CE
330
2
100
AcDbEntity
  8
4
100
AcDbLine
 10
303.0736603528414
 20
824.047632364638
 30
0.0
 11
343.0736603528414
 21
824.047632364638
 31
0.0
  0
LINE
  5
CF
330
2
100
AcDbEntity
  8
4
100
AcDbLine
 10
342.0736603528414
 20
825.047632364638
 30
0.0
 11
342.0736603528414
 21
898.047632364638
 31
0.0
  0
LINE
  5
D0
330
2
100
AcDbEntity
  8
4
100
AcDbLine
 10
328.0736603528414
 20
834.047632364638
 30
0.0
 11
328.0736603528414
 21
899.047632364638
 31
0.0
  0
LINE
  5
D1
330
2
100
AcDbEntity
  8
L-CENTER
 48
3.0
100
AcDbLine
 10
248.0736603528409
 20
795.5573684119104
 30
0.0
 11
248.0736603528409
 21
762.334998313213
 31
0.0
  0
ARC
  5
D2
330
2
100
AcDbEntity
  8
4
100
AcDbCircle
 10
450.0736603528407
 20
785.3476323646382
 30
0.0
 40
1.0
100
AcDbArc
 50
0.0
 51
90.0
  0
ARC
  5
D3
330
2
100
AcDbEntity
  8
4
100
AcDbCircle
 10
364.3098645118416
 20
803.9476323646381
 30
0.0
 40
1.0
100
AcDbArc
 50
15.25511870304778
 51
90.0
  0
ARC
  5
D4
330
2
100
AcDbEntity
  8
4
100
AcDbCircle
 10
369.6657175622249
 20
795.7112587642237
 30
0.0
 40
2.0
100
AcDbArc
 50
195.2551187030482
 51
260.5986145193421
  0
ARC
  5
D5
330
2
100
AcDbEntity
  8
4
100
AcDbCircle
 10
370.0999882402747
 20
794.1189329447088
 30
0.0
 40
2.0
100
AcDbArc
 50
195.2551187030482
 51
260.5986145193421
  0
LINE
  5
D6
330
2
100
AcDbEntity
  8
4
100
AcDbLine
 10
365.2746283330795
 20
804.2107497704305
 30
0.0
 11
367.7361899197496
 21
795.1850239526393
 31
0.0
  0
LINE
  5
D7
330
2
100
AcDbEntity
  8
4
100
AcDbLine
 10
354.0736603528409
 20
805.9476323646381
 30
0.0
 11
354.0736603528409
 21
804.9476323646381
 31
0.0
  0
LINE
  5
D8
330
2
100
AcDbEntity
  8
4
100
AcDbLine
 10
350.0736603528409
 20
793.9476323646386
 30
0.0
 11
350.0736603528412
 21
792.3553065451238
 31
0.0
  0
LINE
  5
D9
330
2
100
AcDbEntity
  8
4
100
AcDbLine
 10
350.0736603528409
 20
793.9476323646386
 30
0.0
 11
345.0736603528409
 21
786.3476323646387
 31
0.0
  0
LINE
  5
DA
330
2
100
AcDbEntity
  8
4
100
AcDbLine
 10
350.0736603528409
 20
792.3553065451242
 30
0.0
 11
346.121243128837
 21
786.3476323646387
 31
0.0
  0
LINE
  5
DB
330
2
100
AcDbEntity
  8
4
100
AcDbLine
 10
350.0736603528409
 20
792.3553065451242
 30
0.0
 11
367.8218867961993
 21
792.3553065451242
 31
0.0
  0
LINE
  5
DC
330
2
100
AcDbEntity
  8
4
100
AcDbLine
 10
292.0736603528409
 20
805.9476323646377
 30
0.0
 11
292.0736603528412
 21
804.9476323646386
 31
0.0
  0
LINE
  5
DD
330
2
100
AcDbEntity
  8
4
100
AcDbLine
 10
296.0736603528409
 20
792.3553065451242
 30
0.0
 11
300.0260775768449
 21
786.3476323646387
 31
0.0
  0
LINE
  5
DE
330
2
100
AcDbEntity
  8
4
100
AcDbLine
 10
296.0736603528409
 20
793.9476323646386
 30
0.0
 11
301.0736603528409
 21
786.3476323646387
 31
0.0
  0
LINE
  5
DF
330
2
100
AcDbEntity
  8
4
100
AcDbLine
 10
296.0736603528409
 20
793.9476323646386
 30
0.0
 11
296.0736603528409
 21
792.3553065451242
 31
0.0
  0
ARC
  5
E0
330
2
100
AcDbEntity
  8
4
100
AcDbCircle
 10
281.8374561938398
 20
803.9476323646381
 30
0.0
 40
1.0
100
AcDbArc
 50
90.0
 51
164.7448812969522
  0
ARC
  5
E1
330
2
100
AcDbEntity
  8
4
100
AcDbCircle
 10
276.481603143457
 20
795.7112587642237
 30
0.0
 40
2.0
100
AcDbArc
 50
279.4013854806579
 51
344.7448812969518
  0
ARC
  5
E2
330
2
100
AcDbEntity
  8
4
100
AcDbCircle
 10
276.0473324654071
 20
794.1189329447088
 30
0.0
 40
2.0
100
AcDbArc
 50
279.4013854806579
 51
344.7448812969518
  0
LINE
  5
E3
330
2
100
AcDbEntity
  8
4
100
AcDbLine
 10
280.8726923726023
 20
804.2107497704305
 30
0.0
 11
278.4111307859322
 21
795.1850239526393
 31
0.0
  0
LINE
  5
E4
330
2
100
AcDbEntity
  8
4
100
AcDbLine
 10
277.6393896747913
 20
792.3553065451242
 30
0.0
 11
296.0736603528409
 21
792.3553065451242
 31
0.0
  0
LINE
  5
E5
330
2
100
AcDbEntity
  8
4
100
AcDbLine
 10
364.3098645118418
 20
804.9476323646381
 30
0.0
 11
281.8374561938401
 21
804.9476323646381
 31
0.0
  0
LINE
  5
E6
330
2
100
AcDbEntity
  8
4
100
AcDbLine
 10
354.0736603528409
 20
805.9476323646381
 30
0.0
 11
292.0736603528409
 21
805.9476323646377
 31
0.0
  0
LINE
  5
E7
330
2
100
AcDbEntity
  8
4
100
AcDbLine
 10
296.0736603528409
 20
793.9476323646386
 30
0.0
 11
350.0736603528409
 21
793.9476323646386
 31
0.0
  0
LINE
  5
E8
330
2
100
AcDbEntity
  8
4
100
AcDbLine
 10
234.0736603528409
 20
790.4476323646381
 30
0.0
 11
234.0736603528409
 21
787.5104273497977
 31
0.0
  0
ARC
  5
E9
330
2
100
AcDbEntity
  8
4
100
AcDbCircle
 10
235.0736603528407
 20
790.4476323646381
 30
0.0
 40
1.0
100
AcDbArc
 50
90.0
 51
180.0
  0
ARC
  5
EA
330
2
100
AcDbEntity
  8
4
100
AcDbCircle
 10
233.0736603528407
 20
787.5104273497977
 30
0.0
 40
1.0
100
AcDbArc
 50
279.4013854806579
 51
0.0
  0
ARC
  5
EB
330
2
100
AcDbEntity
  8
4
100
AcDbCircle
 10
196.0736603528407
 20
785.3476323646382
 30
0.0
 40
1.0
100
AcDbArc
 50
90.0
 51
180.0
  0
LINE
  5
EC
330
2
100
AcDbEntity
  8
4
100
AcDbLine
 10
256.5736603528396
 20
791.4476323646381
 30
0.0
 11
235.0736603528409
 21
791.4476323646381
 31
0.0
  0
LINE
  5
ED
330
2
100
AcDbEntity
  8
4
100
AcDbLine
 10
232.172670253833
 20
786.3476323646382
 30
0.0
 11
256.5736603528396
 21
790.3877962990641
 31
0.0
  0
LINE
  5
EE
330
2
100
AcDbEntity
  8
4
100
AcDbLine
 10
241.3554169015628
 20
786.3476323646387
 30
0.0
 11
256.5736603528396
 21
788.867374313129
 31
0.0
  0
LINE
  5
EF
330
2
100
AcDbEntity
  8
4
100
AcDbLine
 10
450.0736603528407
 20
786.3476323646382
 30
0.0
 11
196.0736603528409
 21
786.3476323646382
 31
0.0
  0
LINE
  5
F0
330
2
100
AcDbEntity
  8
4
100
AcDbLine
 10
413.9746504518495
 20
786.3476323646382
 30
0.0
 11
389.5736603528415
 21
790.3877962990646
 31
0.0
  0
LINE
  5
F1
330
2
100
AcDbEntity
  8
4
100
AcDbLine
 10
404.7919038041193
 20
786.3476323646387
 30
0.0
 11
389.5736603528414
 21
788.867374313129
 31
0.0
  0
LINE
  5
F2
330
2
100
AcDbEntity
  8
4
100
AcDbLine
 10
195.0736603528406
 20
669.047632364638
 30
0.0
 11
195.0736603528406
 21
660.0476323646378
 31
0.0
  0
LINE
  5
F3
330
2
100
AcDbEntity
  8
4
100
AcDbLine
 10
451.0736603528406
 20
669.0476323646376
 30
0.0
 11
451.0736603528406
 21
660.0476323646378
 31
0.0
  0
LINE
  5
F4
330
2
100
AcDbEntity
  8
4
100
AcDbLine
 10
451.0736603528409
 20
785.3476323646382
 30
0.0
 11
451.073660352841
 21
769.0476323646385
 31
0.0
  0
LINE
  5
F5
330
2
100
AcDbEntity
  8
4
100
AcDbLine
 10
195.0736603528409
 20
785.3476323646382
 30
0.0
 11
195.0736603528409
 21
769.047632364638
 31
0.0
  0
LINE
  5
F6
330
2
100
AcDbEntity
  8
4
100
AcDbLine
 10
453.0736603528372
 20
701.5476323646378
 30
0.0
 11
453.0736603528354
 21
669.0476323646376
 31
0.0
  0
LINE
  5
F7
330
2
100
AcDbEntity
  8
4
100
AcDbLine
 10
452.0736603528406
 20
701.547632364638
 30
0.0
 11
473.0736603528407
 21
701.5476323646378
 31
0.0
  0
LINE
  5
F8
330
2
100
AcDbEntity
  8
4
100
AcDbLine
 10
452.0736603528406
 20
736.5476323646378
 30
0.0
 11
473.0736603528407
 21
736.5476323646378
 31
0.0
  0
LINE
  5
F9
330
2
100
AcDbEntity
  8
4
100
AcDbLine
 10
532.0736603528408
 20
732.5476323646378
 30
0.0
 11
533.0736603528408
 21
731.5476323646378
 31
0.0
  0
LINE
  5
FA
330
2
100
AcDbEntity
  8
4
100
AcDbLine
 10
532.0736603528408
 20
732.5476323646378
 30
0.0
 11
532.0736603528408
 21
722.5476323646378
 31
0.0
  0
LINE
  5
FB
330
2
100
AcDbEntity
  8
4
100
AcDbLine
 10
532.0736603528408
 20
715.5476323646378
 30
0.0
 11
532.0736603528408
 21
705.547632364638
 31
0.0
  0
LINE
  5
FC
330
2
100
AcDbEntity
  8
4
100
AcDbLine
 10
532.0736603528408
 20
705.5476323646378
 30
0.0
 11
533.0736603528408
 21
706.5476323646378
 31
0.0
  0
LINE
  5
FD
330
2
100
AcDbEntity
  8
4
100
AcDbLine
 10
533.0736603528408
 20
731.5476323646378
 30
0.0
 11
533.0736603528408
 21
706.5476323646378
 31
0.0
  0
ARC
  5
FE
330
2
100
AcDbEntity
  8
4
100
AcDbCircle
 10
474.0736603528407
 20
733.5476323646378
 30
0.0
 40
1.0
100
AcDbArc
 50
180.0
 51
270.0
  0
ARC
  5
FF
330
2
100
AcDbEntity
  8
4
100
AcDbCircle
 10
474.0736603528407
 20
704.5476323646378
 30
0.0
 40
1.0
100
AcDbArc
 50
90.0
 51
180.0
  0
LINE
  5
100
330
2
100
AcDbEntity
  8
4
100
AcDbLine
 10
473.0736603528407
 20
736.5476323646378
 30
0.0
 11
473.0736603528407
 21
701.5476323646378
 31
0.0
  0
ARC
  5
101
330
2
100
AcDbEntity
  8
4
100
AcDbCircle
 10
481.5736603528407
 20
719.0476323646378
 30
0.0
 40
3.5
100
AcDbArc
 50
90.0
 51
270.0
  0
LINE
  5
102
330
2
100
AcDbEntity
  8
4
100
AcDbLine
 10
481.5736603528407
 20
715.5476323646378
 30
0.0
 11
533.0736603528408
 21
715.5476323646378
 31
0.0
  0
LINE
  5
103
330
2
100
AcDbEntity
  8
4
100
AcDbLine
 10
481.5736603528407
 20
722.5476323646378
 30
0.0
 11
533.0736603528408
 21
722.5476323646378
 31
0.0
  0
LINE
  5
104
330
2
100
AcDbEntity
  8
4
100
AcDbLine
 10
474.0736603528407
 20
705.5476323646378
 30
0.0
 11
532.0736603528408
 21
705.5476323646378
 31
0.0
  0
LINE
  5
105
330
2
100
AcDbEntity
  8
4
100
AcDbLine
 10
474.0736603528407
 20
732.5476323646378
 30
0.0
 11
532.0736603528408
 21
732.5476323646378
 31
0.0
  0
LINE
  5
106
330
2
100
AcDbEntity
  8
4
100
AcDbLine
 10
452.0736603528407
 20
755.0476323646378
 30
0.0
 11
452.0736603528407
 21
683.0476323646378
 31
0.0
  0
LINE
  5
107
330
2
100
AcDbEntity
  8
4
100
AcDbLine
 10
451.0736603528407
 20
683.0476323646376
 30
0.0
 11
452.0736603528407
 21
683.0476323646378
 31
0.0
  0
LINE
  5
108
330
2
100
AcDbEntity
  8
4
100
AcDbLine
 10
451.0736603528407
 20
755.0476323646378
 30
0.0
 11
452.0736603528407
 21
755.0476323646378
 31
0.0
  0
LINE
  5
109
330
2
100
AcDbEntity
  8
4
100
AcDbLine
 10
195.0736603528407
 20
755.0476323646378
 30
0.0
 11
194.0736603528407
 21
755.0476323646378
 31
0.0
  0
LINE
  5
10A
330
2
100
AcDbEntity
  8
4
100
AcDbLine
 10
195.0736603528407
 20
683.0476323646376
 30
0.0
 11
194.0736603528407
 21
683.0476323646378
 31
0.0
  0
LINE
  5
10B
330
2
100
AcDbEntity
  8
4
100
AcDbLine
 10
194.0736603528407
 20
755.0476323646378
 30
0.0
 11
194.0736603528407
 21
683.0476323646378
 31
0.0
  0
LINE
  5
10C
330
2
100
AcDbEntity
  8
4
100
AcDbLine
 10
198.0736603528406
 20
671.047632364638
 30
0.0
 11
195.0736603528406
 21
671.047632364638
 31
0.0
  0
LINE
  5
10D
330
2
100
AcDbEntity
  8
4
100
AcDbLine
 10
198.0736603528409
 20
767.047632364638
 30
0.0
 11
195.0736603528409
 21
767.047632364638
 31
0.0
  0
LINE
  5
10E
330
2
100
AcDbEntity
  8
4
100
AcDbLine
 10
451.073660352841
 20
767.047632364638
 30
0.0
 11
451.0736603528408
 21
671.0476323646378
 31
0.0
  0
LINE
  5
10F
330
2
100
AcDbEntity
  8
4
100
AcDbLine
 10
195.0736603528409
 20
767.047632364638
 30
0.0
 11
195.0736603528406
 21
671.047632364638
 31
0.0
  0
LINE
  5
110
330
2
100
AcDbEntity
  8
4
100
AcDbLine
 10
451.0736603528406
 20
671.047632364638
 30
0.0
 11
448.0736603528406
 21
671.047632364638
 31
0.0
  0
LINE
  5
111
330
2
100
AcDbEntity
  8
4
100
AcDbLine
 10
451.0736603528409
 20
767.047632364638
 30
0.0
 11
448.0736603528409
 21
767.047632364638
 31
0.0
  0
LINE
  5
112
330
2
100
AcDbEntity
  8
4
100
AcDbLine
 10
453.073660352841
 20
769.0476323646385
 30
0.0
 11
453.0736603528392
 21
736.5476323646378
 31
0.0
  0
LINE
  5
113
330
2
100
AcDbEntity
  8
4
100
AcDbLine
 10
193.0736603528409
 20
769.047632364638
 30
0.0
 11
193.0736603528409
 21
669.0476323646378
 31
0.0
  0
LINE
  5
114
330
2
100
AcDbEntity
  8
4
100
AcDbLine
 10
448.0736603528408
 20
768.047632364639
 30
0.0
 11
448.0736603528406
 21
670.0476323646385
 31
0.0
  0
LINE
  5
115
330
2
100
AcDbEntity
  8
4
100
AcDbLine
 10
198.0736603528409
 20
768.047632364638
 30
0.0
 11
198.0736603528406
 21
670.047632364638
 31
0.0
  0
ARC
  5
116
330
2
100
AcDbEntity
  8
4
100
AcDbCircle
 10
468.0736603528405
 20
804.047632364638
 30
0.0
 40
5.0
100
AcDbArc
 50
0.0
 51
90.0
  0
ARC
  5
117
330
2
100
AcDbEntity
  8
4
100
AcDbCircle
 10
423.0736603528405
 20
804.047632364638
 30
0.0
 40
5.0
100
AcDbArc
 50
90.0
 51
180.0
  0
LINE
  5
118
330
2
100
AcDbEntity
  8
L-CENTER
 48
3.0
100
AcDbLine
 10
453.0736603528405
 20
804.1676323646379
 30
0.0
 11
453.0736603528405
 21
773.9276323646377
 31
0.0
  0
ARC
  5
119
330
2
100
AcDbEntity
  8
4
100
AcDbCircle
 10
453.0736603528405
 20
789.047632364638
 30
0.0
 40
9.0
100
AcDbArc
 50
257.1604115930984
 51
125.7953675436853
  0
LINE
  5
11A
330
2
100
AcDbEntity
  8
4
100
AcDbLine
 10
418.0736603528405
 20
786.3476323646382
 30
0.0
 11
418.0736603528405
 21
804.047632364638
 31
0.0
  0
LINE
  5
11B
330
2
100
AcDbEntity
  8
L-CENTER
 48
3.0
100
AcDbLine
 10
468.1936603528404
 20
789.047632364638
 30
0.0
 11
437.9536603528406
 21
789.047632364638
 31
0.0
  0
LINE
  5
11C
330
2
100
AcDbEntity
  8
4
100
AcDbLine
 10
468.0736603528405
 20
809.047632364638
 30
0.0
 11
423.0736603528405
 21
809.047632364638
 31
0.0
  0
ARC
  5
11D
330
2
100
AcDbEntity
  8
4
100
AcDbCircle
 10
223.0736603528409
 20
804.047632364638
 30
0.0
 40
5.0
100
AcDbArc
 50
0.0
 51
90.0
  0
LINE
  5
11E
330
2
100
AcDbEntity
  8
L-CENTER
 48
3.0
100
AcDbLine
 10
193.0736603528405
 20
804.1676323646379
 30
0.0
 11
193.0736603528405
 21
773.9276323646382
 31
0.0
  0
ARC
  5
11F
330
2
100
AcDbEntity
  8
4
100
AcDbCircle
 10
193.0736603528405
 20
789.047632364638
 30
0.0
 40
9.0
100
AcDbArc
 50
54.20463245631456
 51
282.8395884069076
  0
LINE
  5
120
330
2
100
AcDbEntity
  8
4
100
AcDbLine
 10
228.0736603528405
 20
786.3476323646382
 30
0.0
 11
228.0736603528405
 21
804.047632364638
 31
0.0
  0
ARC
  5
121
330
2
100
AcDbEntity
  8
4
100
AcDbCircle
 10
178.0736603528409
 20
804.047632364638
 30
0.0
 40
5.0
100
AcDbArc
 50
90.0
 51
180.0
  0
LINE
  5
122
330
2
100
AcDbEntity
  8
L-CENTER
 48
3.0
100
AcDbLine
 10
208.1936603528408
 20
789.047632364638
 30
0.0
 11
177.9536603528406
 21
789.047632364638
 31
0.0
  0
LINE
  5
123
330
2
100
AcDbEntity
  8
4
100
AcDbLine
 10
223.0736603528409
 20
809.047632364638
 30
0.0
 11
178.0736603528409
 21
809.047632364638
 31
0.0
  0
LINE
  5
124
330
2
100
AcDbEntity
  8
L-CENTER
 48
3.0
100
AcDbLine
 10
539.3411366074029
 20
719.0476323646351
 30
0.0
 11
163.0736603528405
 21
719.047632364638
 31
0.0
  0
LINE
  5
125
330
2
100
AcDbEntity
  8
4
100
AcDbLine
 10
448.0736603528409
 20
768.047632364639
 30
0.0
 11
198.0736603528409
 21
768.047632364638
 31
0.0
  0
LINE
  5
126
330
2
100
AcDbEntity
  8
4
100
AcDbLine
 10
453.073660352841
 20
769.0476323646385
 30
0.0
 11
193.0736603528409
 21
769.047632364638
 31
0.0
  0
LINE
  5
127
330
2
100
AcDbEntity
  8
4
100
AcDbLine
 10
451.073660352841
 20
775.0476323646385
 30
0.0
 11
195.0736603528409
 21
775.047632364638
 31
0.0
  0
ARC
  5
128
330
2
100
AcDbEntity
  8
4
100
AcDbCircle
 10
468.0736603528405
 20
634.0476323646378
 30
0.0
 40
5.0
100
AcDbArc
 50
270.0
 51
0.0
  0
ARC
  5
129
330
2
100
AcDbEntity
  8
4
100
AcDbCircle
 10
423.0736603528405
 20
634.0476323646378
 30
0.0
 40
5.0
100
AcDbArc
 50
180.0
 51
270.0
  0
LINE
  5
12A
330
2
100
AcDbEntity
  8
L-CENTER
 48
3.0
100
AcDbLine
 10
453.0736603528405
 20
664.1676323646379
 30
0.0
 11
453.0736603528405
 21
633.9276323646377
 31
0.0
  0
CIRCLE
  5
12B
330
2
100
AcDbEntity
  8
4
100
AcDbCircle
 10
453.0736603528405
 20
649.0476323646378
 30
0.0
 40
9.0
  0
LINE
  5
12C
330
2
100
AcDbEntity
  8
4
100
AcDbLine
 10
418.0736603528405
 20
634.047632364638
 30
0.0
 11
418.0736603528406
 21
658.3392990313041
 31
0.0
  0
LINE
  5
12D
330
2
100
AcDbEntity
  8
4
100
AcDbLine
 10
468.0736603528405
 20
629.0476323646378
 30
0.0
 11
423.0736603528405
 21
629.0476323646378
 31
0.0
  0
LINE
  5
12E
330
2
100
AcDbEntity
  8
L-CENTER
 48
3.0
100
AcDbLine
 10
468.1936603528404
 20
649.0476323646378
 30
0.0
 11
437.9536603528406
 21
649.0476323646378
 31
0.0
  0
ARC
  5
12F
330
2
100
AcDbEntity
  8
4
100
AcDbCircle
 10
370.7085747727899
 20
642.4411490704563
 30
0.0
 40
2.0
100
AcDbArc
 50
106.2602047083099
 51
164.7448812969518
  0
ARC
  5
130
330
2
100
AcDbEntity
  8
4
100
AcDbCircle
 10
365.3098645118413
 20
634.047632364638
 30
0.0
 40
1.0
100
AcDbArc
 50
270.0
 51
344.7448812969523
  0
LINE
  5
131
330
2
100
AcDbEntity
  8
4
100
AcDbLine
 10
366.2746283330791
 20
633.7845149588459
 30
0.0
 11
368.7790471303144
 21
642.9673838820404
 31
0.0
  0
ARC
  5
132
330
2
100
AcDbEntity
  8
4
100
AcDbCircle
 10
275.4387459328915
 20
642.4411490704563
 30
0.0
 40
2.0
100
AcDbArc
 50
15.25511870304819
 51
73.73979529169013
  0
ARC
  5
133
330
2
100
AcDbEntity
  8
4
100
AcDbCircle
 10
280.8374561938396
 20
634.047632364638
 30
0.0
 40
1.0
100
AcDbArc
 50
195.2551187030478
 51
270.0
  0
LINE
  5
134
330
2
100
AcDbEntity
  8
4
100
AcDbLine
 10
279.8726923726019
 20
633.7845149588459
 30
0.0
 11
277.368273575367
 21
642.9673838820404
 31
0.0
  0
LINE
  5
135
330
2
100
AcDbEntity
  8
4
100
AcDbLine
 10
280.8374561938396
 20
633.047632364638
 30
0.0
 11
365.3098645118413
 21
633.0476323646378
 31
0.0
  0
LINE
  5
136
330
2
100
AcDbEntity
  8
4
100
AcDbLine
 10
277.0736603528405
 20
644.0476323646378
 30
0.0
 11
369.5172681684618
 21
644.0476323646378
 31
0.0
  0
LINE
  5
137
330
2
100
AcDbEntity
  8
4
100
AcDbLine
 10
418.5736603528401
 20
660.0476323646378
 30
0.0
 11
363.7165174956978
 21
644.0476323646378
 31
0.0
  0
LINE
  5
138
330
2
100
AcDbEntity
  8
4
100
AcDbLine
 10
423.9308032099835
 20
660.0476323646376
 30
0.0
 11
370.1485747727895
 21
644.3611490704561
 31
0.0
  0
ARC
  5
139
330
2
100
AcDbEntity
  8
4
100
AcDbCircle
 10
223.0736603528405
 20
634.047632364638
 30
0.0
 40
5.0
100
AcDbArc
 50
270.0
 51
0.0
  0
CIRCLE
  5
13A
330
2
100
AcDbEntity
  8
4
100
AcDbCircle
 10
193.0736603528405
 20
649.047632364638
 30
0.0
 40
9.0
  0
LINE
  5
13B
330
2
100
AcDbEntity
  8
L-CENTER
 48
3.0
100
AcDbLine
 10
193.0736603528405
 20
664.1676323646379
 30
0.0
 11
193.0736603528405
 21
633.9276323646379
 31
0.0
  0
LINE
  5
13C
330
2
100
AcDbEntity
  8
4
100
AcDbLine
 10
228.0736603528409
 20
634.047632364638
 30
0.0
 11
228.0736603528406
 21
658.3392990313041
 31
0.0
  0
ARC
  5
13D
330
2
100
AcDbEntity
  8
4
100
AcDbCircle
 10
178.0736603528405
 20
634.047632364638
 30
0.0
 40
5.0
100
AcDbArc
 50
180.0
 51
270.0
  0
LINE
  5
13E
330
2
100
AcDbEntity
  8
L-CENTER
 48
3.0
100
AcDbLine
 10
208.1936603528404
 20
649.047632364638
 30
0.0
 11
177.9536603528406
 21
649.047632364638
 31
0.0
  0
LINE
  5
13F
330
2
100
AcDbEntity
  8
4
100
AcDbLine
 10
223.0736603528405
 20
629.047632364638
 30
0.0
 11
178.0736603528405
 21
629.047632364638
 31
0.0
  0
LINE
  5
140
330
2
100
AcDbEntity
  8
4
100
AcDbLine
 10
448.0736603528406
 20
670.0476323646383
 30
0.0
 11
198.0736603528405
 21
670.0476323646383
 31
0.0
  0
LINE
  5
141
330
2
100
AcDbEntity
  8
4
100
AcDbLine
 10
453.0736603528406
 20
669.0476323646376
 30
0.0
 11
193.0736603528406
 21
669.0476323646378
 31
0.0
  0
LINE
  5
142
330
2
100
AcDbEntity
  8
4
100
AcDbLine
 10
451.0736603528406
 20
660.0476323646378
 30
0.0
 11
195.0736603528406
 21
660.0476323646378
 31
0.0
  0
LINE
  5
143
330
2
100
AcDbEntity
  8
4
100
AcDbLine
 10
222.2165174956975
 20
660.0476323646376
 30
0.0
 11
275.9987459328915
 21
644.3611490704561
 31
0.0
  0
LINE
  5
144
330
2
100
AcDbEntity
  8
4
100
AcDbLine
 10
227.5736603528408
 20
660.0476323646378
 30
0.0
 11
282.4308032099836
 21
644.0476323646378
 31
0.0
  0
LINE
  5
145
330
2
100
AcDbEntity
  8
4
100
AcDbLine
 10
173.0736603528409
 20
804.047632364638
 30
0.0
 11
173.0736603528405
 21
634.047632364638
 31
0.0
  0
LINE
  5
146
330
2
100
AcDbEntity
  8
L-CENTER
 48
3.0
100
AcDbLine
 10
323.0736603528413
 20
905.0839957802586
 30
0.0
 11
323.0736603528405
 21
533.0112689490148
 31
0.0
  0
LINE
  5
147
330
2
100
AcDbEntity
  8
4
100
AcDbLine
 10
473.0736603528405
 20
804.047632364638
 30
0.0
 11
473.0736603528405
 21
634.0476323646378
 31
0.0
  0
ARC
  5
15C
330
2
100
AcDbEntity
  8
4
100
AcDbCircle
 10
917.9501183029113
 20
299.5848913760551
 30
0.0
 40
1.0
100
AcDbArc
 50
0.0
 51
90.0
  0
LINE
  5
15D
330
2
100
AcDbEntity
  8
4
100
AcDbLine
 10
901.6501183029111
 20
300.5848913760551
 30
0.0
 11
901.6501183029111
 21
302.5848913760551
 31
0.0
  0
LINE
  5
15E
330
2
100
AcDbEntity
  8
4
100
AcDbLine
 10
900.5801113015107
 20
302.5848913760551
 30
0.0
 11
901.6501183029111
 21
302.5848913760551
 31
0.0
  0
LINE
  5
15F
330
2
100
AcDbEntity
  8
4
100
AcDbLine
 10
901.6501183029111
 20
300.5848913760551
 30
0.0
 11
907.6501183029111
 21
300.5848913760551
 31
0.0
  0
LINE
  5
160
330
2
100
AcDbEntity
  8
4
100
AcDbLine
 10
917.9501183029113
 20
300.5848913760551
 30
0.0
 11
907.6501183029111
 21
300.5848913760551
 31
0.0
  0
ARC
  5
161
330
2
100
AcDbEntity
  8
4
100
AcDbCircle
 10
550.650118302911
 20
295.5848913760551
 30
0.0
 40
350.0
100
AcDbArc
 50
0.0
 51
6.908068832753678
  0
LINE
  5
163
330
2
100
AcDbEntity
  8
L-CENTER
 48
3.0
100
AcDbLine
 10
895.7204366720191
 20
276.5079398154398
 30
0.0
 11
930.9211275015161
 21
276.5079398154398
 31
0.0
  0
ARC
  5
164
330
2
100
AcDbEntity
  8
4
100
AcDbCircle
 10
936.5501183029112
 20
213.821095535056
 30
0.0
 40
1.0
100
AcDbArc
 50
0.0
 51
74.74488129694508
  0
ARC
  5
165
330
2
100
AcDbEntity
  8
4
100
AcDbCircle
 10
928.3137447024967
 20
219.1769485854393
 30
0.0
 40
2.0
100
AcDbArc
 50
189.4013854806434
 51
254.7448812969418
  0
ARC
  5
166
330
2
100
AcDbEntity
  8
4
100
AcDbCircle
 10
926.7214188829814
 20
219.6112192634889
 30
0.0
 40
2.0
100
AcDbArc
 50
189.4013854806434
 51
254.7448812969418
  0
LINE
  5
167
330
2
100
AcDbEntity
  8
4
100
AcDbLine
 10
927.7875098909124
 20
217.2474209429638
 30
0.0
 11
926.1951840713975
 21
217.6816916210134
 31
0.0
  0
LINE
  5
168
330
2
100
AcDbEntity
  8
4
100
AcDbLine
 10
936.8132357087036
 20
214.7858593562937
 30
0.0
 11
926.1951840713971
 21
217.6816916210137
 31
0.0
  0
LINE
  5
169
330
2
100
AcDbEntity
  8
4
100
AcDbLine
 10
918.9501183029108
 20
263.4858814750653
 30
0.0
 11
926.3406082786948
 21
218.8502489480557
 31
0.0
  0
LINE
  5
16A
330
2
100
AcDbEntity
  8
4
100
AcDbLine
 10
918.9501183029113
 20
254.3031348273332
 30
0.0
 11
924.74828245918
 21
219.2845196261055
 31
0.0
  0
LINE
  5
170
330
2
100
AcDbEntity
  8
4
100
AcDbLine
 10
1031.650118302911
 20
154.5848913760528
 30
0.0
 11
1031.650118302911
 21
195.0848913760551
 31
0.0
  0
LINE
  5
171
330
2
100
AcDbEntity
  8
4
100
AcDbLine
 10
961.6501183029106
 20
191.5848913760551
 30
0.0
 11
961.6501183029106
 21
195.0848913760551
 31
0.0
  0
LINE
  5
172
330
2
100
AcDbEntity
  8
4
100
AcDbLine
 10
956.6501183029106
 20
152.5848913760551
 30
0.0
 11
956.6501183029106
 21
192.5848913760551
 31
0.0
  0
LINE
  5
173
330
2
100
AcDbEntity
  8
4
100
AcDbLine
 10
937.5501183029112
 20
203.5848913760551
 30
0.0
 11
938.5501183029112
 21
203.5848913760551
 31
0.0
  0
LINE
  5
174
330
2
100
AcDbEntity
  8
4
100
AcDbLine
 10
924.9577924833968
 20
199.5848913760551
 30
0.0
 11
918.9501183029113
 21
195.6324741520511
 31
0.0
  0
LINE
  5
175
330
2
100
AcDbEntity
  8
4
100
AcDbLine
 10
926.5501183029112
 20
199.5848913760551
 30
0.0
 11
918.9501183029113
 21
194.5848913760551
 31
0.0
  0
LINE
  5
176
330
2
100
AcDbEntity
  8
4
100
AcDbLine
 10
926.5501183029112
 20
199.5848913760551
 30
0.0
 11
924.9577924833968
 21
199.5848913760551
 31
0.0
  0
LINE
  5
177
330
2
100
AcDbEntity
  8
4
100
AcDbLine
 10
937.5501183029112
 20
141.5848913760551
 30
0.0
 11
938.5501183029107
 21
141.5848913760551
 31
0.0
  0
LINE
  5
178
330
2
100
AcDbEntity
  8
4
100
AcDbLine
 10
926.5501183029112
 20
145.5848913760551
 30
0.0
 11
924.9577924833964
 21
145.5848913760549
 31
0.0
  0
LINE
  5
179
330
2
100
AcDbEntity
  8
4
100
AcDbLine
 10
926.5501183029112
 20
145.5848913760551
 30
0.0
 11
918.9501183029113
 21
150.5848913760551
 31
0.0
  0
LINE
  5
17A
330
2
100
AcDbEntity
  8
4
100
AcDbLine
 10
924.9577924833968
 20
145.5848913760551
 30
0.0
 11
918.9501183029113
 21
149.5373086000591
 31
0.0
  0
LINE
  5
17B
330
2
100
AcDbEntity
  8
4
100
AcDbLine
 10
938.5501183029107
 20
141.5848913760551
 30
0.0
 11
938.5501183029112
 21
203.5848913760551
 31
0.0
  0
LINE
  5
17C
330
2
100
AcDbEntity
  8
4
100
AcDbLine
 10
926.5501183029112
 20
199.5848913760551
 30
0.0
 11
926.5501183029112
 21
179.0848913760551
 31
0.0
  0
LINE
  5
17D
330
2
100
AcDbEntity
  8
4
100
AcDbLine
 10
938.5501183029112
 20
192.5848913760551
 30
0.0
 11
956.6501183029116
 21
192.5848913760551
 31
0.0
  0
LINE
  5
17E
330
2
100
AcDbEntity
  8
4
100
AcDbLine
 10
938.5501183029112
 20
152.5848913760551
 30
0.0
 11
956.6501183029116
 21
152.5848913760551
 31
0.0
  0
ARC
  5
17F
330
2
100
AcDbEntity
  8
4
100
AcDbCircle
 10
936.5501183029112
 20
131.3486872170542
 30
0.0
 40
1.0
100
AcDbArc
 50
285.2551187030549
 51
0.0
  0
ARC
  5
180
330
2
100
AcDbEntity
  8
4
100
AcDbCircle
 10
928.3137447024967
 20
125.9928341666709
 30
0.0
 40
2.0
100
AcDbArc
 50
105.2551187030582
 51
170.5986145193566
  0
ARC
  5
181
330
2
100
AcDbEntity
  8
4
100
AcDbCircle
 10
926.7214188829814
 20
125.5585634886213
 30
0.0
 40
2.0
100
AcDbArc
 50
105.2551187030582
 51
170.5986145193566
  0
LINE
  5
182
330
2
100
AcDbEntity
  8
4
100
AcDbLine
 10
927.7875098909124
 20
127.9223618091464
 30
0.0
 11
926.1951840713975
 21
127.4880911310968
 31
0.0
  0
LINE
  5
183
330
2
100
AcDbEntity
  8
4
100
AcDbLine
 10
936.8132357087036
 20
130.3839233958165
 30
0.0
 11
927.7875098909124
 21
127.9223618091464
 31
0.0
  0
LINE
  5
184
330
2
100
AcDbEntity
  8
L-CENTER
 48
3.0
100
AcDbLine
 10
895.7204366720191
 20
68.66184290716865
 30
0.0
 11
930.9211275015161
 21
68.66184290716865
 31
0.0
  0
LINE
  5
185
330
2
100
AcDbEntity
  8
4
100
AcDbLine
 10
918.9501183029108
 20
81.68390127704492
 30
0.0
 11
926.3406082786948
 21
126.3195338040543
 31
0.0
  0
LINE
  5
186
330
2
100
AcDbEntity
  8
4
100
AcDbLine
 10
918.9501183029113
 20
90.866647924777
 30
0.0
 11
924.74828245918
 21
125.8852631260049
 31
0.0
  0
LINE
  5
187
330
2
100
AcDbEntity
  8
4
100
AcDbLine
 10
924.9577924833968
 20
145.5848913760551
 30
0.0
 11
924.9577924833968
 21
127.8366649326967
 31
0.0
  0
LINE
  5
188
330
2
100
AcDbEntity
  8
4
100
AcDbLine
 10
961.6501183029106
 20
195.0848913760551
 30
0.0
 11
1031.650118302911
 21
195.0848913760551
 31
0.0
  0
LINE
  5
189
330
2
100
AcDbEntity
  8
4
100
AcDbLine
 10
956.6501183029116
 20
153.5848913760551
 30
0.0
 11
1030.650118302913
 21
153.5848913760551
 31
0.0
  0
LINE
  5
18A
330
2
100
AcDbEntity
  8
4
100
AcDbLine
 10
956.6501183029116
 20
191.5848913760551
 30
0.0
 11
1030.650118302912
 21
191.5848913760551
 31
0.0
  0
LINE
  5
18B
330
2
100
AcDbEntity
  8
4
100
AcDbLine
 10
937.5501183029112
 20
131.3486872170542
 30
0.0
 11
937.5501183029112
 21
213.821095535056
 31
0.0
  0
LINE
  5
18C
330
2
100
AcDbEntity
  8
4
100
AcDbLine
 10
924.9577924833968
 20
218.0191620541048
 30
0.0
 11
924.9577924833968
 21
199.5848913760551
 31
0.0
  0
LINE
  5
193
330
2
100
AcDbEntity
  8
4
100
AcDbLine
 10
862.6501183029111
 20
350.0848913760551
 30
0.0
 11
862.6501183029111
 21
354.0848913760551
 31
0.0
  0
LINE
  5
194
330
2
100
AcDbEntity
  8
4
100
AcDbLine
 10
864.1501183029111
 20
350.0848913760551
 30
0.0
 11
864.1501183029111
 21
348.0848913760551
 31
0.0
  0
LINE
  5
195
330
2
100
AcDbEntity
  8
4
100
AcDbLine
 10
856.6501183029111
 20
352.5848913760551
 30
0.0
 11
856.6501183029111
 21
349.5848913760551
 31
0.0
  0
LINE
  5
196
330
2
100
AcDbEntity
  8
4
100
AcDbLine
 10
858.1503633029113
 20
353.5848913760551
 30
0.0
 11
858.1503633029113
 21
352.5848913760551
 31
0.0
  0
LINE
  5
197
330
2
100
AcDbEntity
  8
4
100
AcDbLine
 10
864.1501183029111
 20
350.0848913760551
 30
0.0
 11
856.6501183029106
 21
350.0848913760549
 31
0.0
  0
LINE
  5
198
330
2
100
AcDbEntity
  8
4
100
AcDbLine
 10
864.1501183029111
 20
348.0848913760551
 30
0.0
 11
856.4501683029114
 21
348.0848913760553
 31
0.0
  0
LINE
  5
19A
330
2
100
AcDbEntity
  8
4
100
AcDbLine
 10
846.6501183029111
 20
352.5848913760551
 30
0.0
 11
846.6501183029111
 21
349.5848913760551
 31
0.0
  0
LINE
  5
19B
330
2
100
AcDbEntity
  8
4
100
AcDbLine
 10
845.1501183029111
 20
353.5848913760551
 30
0.0
 11
845.1501183029111
 21
352.5848913760551
 31
0.0
  0
LINE
  5
19C
330
2
100
AcDbEntity
  8
4
100
AcDbLine
 10
839.1501183029111
 20
350.0848913760551
 30
0.0
 11
839.1501183029111
 21
348.0848913760551
 31
0.0
  0
LINE
  5
19D
330
2
100
AcDbEntity
  8
4
100
AcDbLine
 10
840.6501183029111
 20
350.0848913760551
 30
0.0
 11
840.6501183029111
 21
354.0848913760551
 31
0.0
  0
LINE
  5
19E
330
2
100
AcDbEntity
  8
4
100
AcDbLine
 10
846.6501183029106
 20
350.0848913760549
 30
0.0
 11
839.1501183029111
 21
350.0848913760551
 31
0.0
  0
LINE
  5
19F
330
2
100
AcDbEntity
  8
4
100
AcDbLine
 10
846.8500708029112
 20
348.0848913760553
 30
0.0
 11
839.1501183029111
 21
348.0848913760551
 31
0.0
  0
LINE
  5
1A0
330
2
100
AcDbEntity
  8
4
100
AcDbLine
 10
862.6501183029111
 20
354.0848913760551
 30
0.0
 11
840.6501183029111
 21
354.0848913760551
 31
0.0
  0
LINE
  5
1A1
330
2
100
AcDbEntity
  8
4
100
AcDbLine
 10
856.6501183029111
 20
349.5848913760551
 30
0.0
 11
846.6501183029111
 21
349.5848913760551
 31
0.0
  0
LINE
  5
1A2
330
2
100
AcDbEntity
  8
4
100
AcDbLine
 10
858.1503633029113
 20
352.5848913760551
 30
0.0
 11
845.1501183029111
 21
352.5848913760551
 31
0.0
  0
LINE
  5
1A3
330
2
100
AcDbEntity
  8
4
100
AcDbLine
 10
858.1503633029113
 20
353.5848913760551
 30
0.0
 11
845.1501183029111
 21
353.5848913760551
 31
0.0
  0
LINE
  5
1AE
330
2
100
AcDbEntity
  8
4
100
AcDbLine
 10
870.6501183029111
 20
344.0687965848645
 30
0.0
 11
870.6501183029111
 21
346.5848913760551
 31
0.0
  0
ARC
  5
1AF
330
2
100
AcDbEntity
  8
4
100
AcDbCircle
 10
855.9626183029111
 20
345.7589613760551
 30
0.0
 40
1.8259875
100
AcDbArc
 50
38.0711599999965
 51
141.9288400000035
  0
ARC
  5
1B0
330
2
100
AcDbEntity
  8
4
100
AcDbCircle
 10
851.6501183029111
 20
341.3312263760549
 30
0.0
 40
6.253744999999999
100
AcDbArc
 50
62.63066799999912
 51
117.3693320000009
  0
LINE
  5
1B1
330
2
100
AcDbEntity
  8
4
100
AcDbLine
 10
848.7753633029113
 20
346.884938876055
 30
0.0
 11
848.7753633029113
 21
344.5848913760551
 31
0.0
  0
LINE
  5
1B2
330
2
100
AcDbEntity
  8
4
100
AcDbLine
 10
854.5251183029111
 20
346.884938876055
 30
0.0
 11
854.5251183029111
 21
344.5848913760551
 31
0.0
  0
LINE
  5
1B3
330
2
100
AcDbEntity
  8
4
100
AcDbLine
 10
857.4001183029111
 20
346.884938876055
 30
0.0
 11
857.4001183029111
 21
344.5848913760551
 31
0.0
  0
LINE
  5
1B4
330
2
100
AcDbEntity
  8
4
100
AcDbLine
 10
857.4001183029116
 20
346.5848913760551
 30
0.0
 11
870.6501183029111
 21
346.5848913760551
 31
0.0
  0
LINE
  5
1B5
330
2
100
AcDbEntity
  8
4
100
AcDbLine
 10
848.1501183029111
 20
312.0848913760551
 30
0.0
 11
855.1501183029111
 21
312.0848913760551
 31
0.0
  0
LINE
  5
1B6
330
2
100
AcDbEntity
  8
4
100
AcDbLine
 10
848.1501183029111
 20
305.0848913760551
 30
0.0
 11
855.1501183029111
 21
305.0848913760551
 31
0.0
  0
LINE
  5
1B7
330
2
100
AcDbEntity
  8
4
100
AcDbLine
 10
848.1501183029111
 20
305.0848913760551
 30
0.0
 11
848.1501183029111
 21
312.0848913760551
 31
0.0
  0
LINE
  5
1B8
330
2
100
AcDbEntity
  8
4
100
AcDbLine
 10
855.1501183029111
 20
305.0848913760551
 30
0.0
 11
855.1501183029111
 21
312.0848913760551
 31
0.0
  0
LINE
  5
1B9
330
2
100
AcDbEntity
  8
4
100
AcDbLine
 10
845.9001183029111
 20
346.8846938760551
 30
0.0
 11
845.9001183029111
 21
344.5848913760551
 31
0.0
  0
LINE
  5
1BA
330
2
100
AcDbEntity
  8
4
100
AcDbLine
 10
832.6501183029111
 20
344.0687965848645
 30
0.0
 11
832.6501183029111
 21
346.5848913760551
 31
0.0
  0
LINE
  5
1BB
330
2
100
AcDbEntity
  8
4
100
AcDbLine
 10
832.6501183029111
 20
346.5848913760551
 30
0.0
 11
845.9001183029111
 21
346.5848913760551
 31
0.0
  0
ARC
  5
1BC
330
2
100
AcDbEntity
  8
4
100
AcDbCircle
 10
810.1546756486648
 20
337.0803340303014
 30
0.0
 40
5.0
100
AcDbArc
 50
96.90806883277081
 51
173.0919311672463
  0
ARC
  5
1BD
330
2
100
AcDbEntity
  8
4
100
AcDbCircle
 10
1152.650118302911
 20
295.5848913760551
 30
0.0
 40
350.0
100
AcDbArc
 50
173.0919311672463
 51
180.0
  0
ARC
  5
1BE
330
2
100
AcDbEntity
  8
4
100
AcDbCircle
 10
851.6501183029111
 20
-5.415108623944889
 30
0.0
 40
350.0
100
AcDbArc
 50
83.09193116722949
 51
96.90806883277051
  0
ARC
  5
1BF
330
2
100
AcDbEntity
  8
4
100
AcDbCircle
 10
851.6501183029111
 20
295.5848913760551
 30
0.0
 40
13.5
100
AcDbArc
 50
105.0261137591184
 51
74.97388624088157
  0
ARC
  5
1C0
330
2
100
AcDbEntity
  8
4
100
AcDbCircle
 10
847.3378633029108
 20
345.7589613760551
 30
0.0
 40
1.8259875
100
AcDbArc
 50
38.0711599999965
 51
141.9288400000035
  0
LINE
  5
1C1
330
2
100
AcDbEntity
  8
4
100
AcDbLine
 10
857.4001183029111
 20
344.5848913760551
 30
0.0
 11
845.9001183029111
 21
344.5848913760551
 31
0.0
  0
LINE
  5
1C2
330
2
100
AcDbEntity
  8
4
100
AcDbLine
 10
855.9626183029111
 20
347.5848913760551
 30
0.0
 11
847.3378633029108
 21
347.5848913760551
 31
0.0
  0
CIRCLE
  5
1C3
330
2
100
AcDbEntity
  8
4
100
AcDbCircle
 10
851.6501183029111
 20
295.5848913760551
 30
0.0
 40
36.0
  0
LINE
  5
1C4
330
2
100
AcDbEntity
  8
4
100
AcDbLine
 10
793.6501183029111
 20
300.5848913760551
 30
0.0
 11
801.6501183029111
 21
300.5848913760551
 31
0.0
  0
ARC
  5
1C5
330
2
100
AcDbEntity
  8
4
100
AcDbCircle
 10
793.6501183029111
 20
299.5848913760551
 30
0.0
 40
1.0
100
AcDbArc
 50
90.0
 51
180.0
  0
ARC
  5
1C6
330
2
100
AcDbEntity
  8
4
100
AcDbCircle
 10
766.6501183029111
 20
214.821095535056
 30
0.0
 40
1.0
100
AcDbArc
 50
105.2551187030549
 51
180.0
  0
LINE
  5
1C7
330
2
100
AcDbEntity
  8
4
100
AcDbLine
 10
766.3870008971192
 20
215.7858593562937
 30
0.0
 11
777.2425897936479
 21
218.7464745098922
 31
0.0
  0
ARC
  5
1C8
330
2
100
AcDbEntity
  8
4
100
AcDbCircle
 10
776.7163549820636
 20
220.6760021523678
 30
0.0
 40
2.0
100
AcDbArc
 50
285.2551187030583
 51
343.7190237230148
  0
LINE
  5
1C9
330
2
100
AcDbEntity
  8
4
100
AcDbLine
 10
778.6361518378278
 20
220.1153061272362
 30
0.0
 11
792.6501183029111
 21
268.0984691078247
 31
0.0
  0
LINE
  5
1CA
330
2
100
AcDbEntity
  8
4
100
AcDbLine
 10
802.7201253043115
 20
302.5848913760551
 30
0.0
 11
801.6501183029111
 21
302.5848913760551
 31
0.0
  0
LINE
  5
1CB
330
2
100
AcDbEntity
  8
4
100
AcDbLine
 10
776.6265134449911
 20
199.5848913760551
 30
0.0
 11
778.324737926512
 21
199.5848913760551
 31
0.0
  0
LINE
  5
1CC
330
2
100
AcDbEntity
  8
4
100
AcDbLine
 10
776.6265134449916
 20
199.5848913760551
 30
0.0
 11
792.6501183029111
 21
194.5848913760549
 31
0.0
  0
LINE
  5
1CD
330
2
100
AcDbEntity
  8
4
100
AcDbLine
 10
778.3247379265115
 20
199.5848913760551
 30
0.0
 11
792.6501183029111
 21
195.1148047434208
 31
0.0
  0
LINE
  5
1CE
330
2
100
AcDbEntity
  8
4
100
AcDbLine
 10
776.6265134449916
 20
145.5848913760551
 30
0.0
 11
778.3247379265115
 21
145.5848913760551
 31
0.0
  0
LINE
  5
1CF
330
2
100
AcDbEntity
  8
4
100
AcDbLine
 10
778.3247379265115
 20
145.5848913760551
 30
0.0
 11
792.6501183029111
 21
150.0549780086894
 31
0.0
  0
LINE
  5
1D0
330
2
100
AcDbEntity
  8
4
100
AcDbLine
 10
776.6265134449916
 20
145.5848913760551
 30
0.0
 11
792.6501183029111
 21
150.5848913760553
 31
0.0
  0
LINE
  5
1D1
330
2
100
AcDbEntity
  8
4
100
AcDbLine
 10
776.6265134449916
 20
145.5848913760551
 30
0.0
 11
776.6265134449911
 21
199.5848913760551
 31
0.0
  0
ARC
  5
1D2
330
2
100
AcDbEntity
  8
4
100
AcDbCircle
 10
775.0202885794067
 20
124.9505395841275
 30
0.0
 40
2.0
100
AcDbArc
 50
16.28097627698519
 51
74.71360825113084
  0
LINE
  5
1D3
330
2
100
AcDbEntity
  8
4
100
AcDbLine
 10
775.5475764827304
 20
126.8797797109671
 30
0.0
 11
777.242589793648
 21
126.4233082422181
 31
0.0
  0
ARC
  5
1D4
330
2
100
AcDbEntity
  8
4
100
AcDbCircle
 10
766.6501183029111
 20
130.3482551876343
 30
0.0
 40
1.0
100
AcDbArc
 50
180.0
 51
254.7136082511308
  0
LINE
  5
1D5
330
2
100
AcDbEntity
  8
4
100
AcDbLine
 10
766.3864743512493
 20
129.3836351242144
 30
0.0
 11
777.3980274286598
 21
126.3740259761635
 31
0.0
  0
ARC
  5
1D6
330
2
100
AcDbEntity
  8
4
100
AcDbCircle
 10
776.7163549820636
 20
124.4937805997426
 30
0.0
 40
2.0
100
AcDbArc
 50
16.28097627698519
 51
74.74488129694184
  0
LINE
  5
1D7
330
2
100
AcDbEntity
  8
4
100
AcDbLine
 10
778.6361518378278
 20
125.0544766248743
 30
0.0
 11
792.6501183029111
 21
77.07131364428437
 31
0.0
  0
LINE
  5
1D8
330
2
100
AcDbEntity
  8
4
100
AcDbLine
 10
776.9400854351709
 20
125.5112356092588
 30
0.0
 11
792.6501183029106
 21
71.72082092535152
 31
0.0
  0
LINE
  5
1D9
330
2
100
AcDbEntity
  8
4
100
AcDbLine
 10
778.3247379265115
 20
126.1207432310027
 30
0.0
 11
778.3247379265115
 21
145.5848913760553
 31
0.0
  0
LINE
  5
1DA
330
2
100
AcDbEntity
  8
4
100
AcDbLine
 10
765.6501183029111
 20
214.821095535056
 30
0.0
 11
765.6501183029111
 21
130.3482551876343
 31
0.0
  0
LINE
  5
1DB
330
2
100
AcDbEntity
  8
4
100
AcDbLine
 10
778.3247379265115
 20
199.5848913760553
 30
0.0
 11
778.3247379265115
 21
218.0774000771257
 31
0.0
  0
LINE
  5
1EC
330
2
100
AcDbEntity
  8
4
100
AcDbLine
 10
863.6501183029116
 20
348.0848913760551
 30
0.0
 11
863.6501183029116
 21
346.5848913760551
 31
0.0
  0
LINE
  5
1ED
330
2
100
AcDbEntity
  8
4
100
AcDbLine
 10
839.6501183029111
 20
348.0848913760551
 30
0.0
 11
839.6501183029111
 21
346.5848913760551
 31
0.0
  0
LINE
  5
1EE
330
2
100
AcDbEntity
  8
4
100
AcDbLine
 10
846.8500708029112
 20
347.5848913760551
 30
0.0
 11
846.8500708029112
 21
349.5848913760551
 31
0.0
  0
LINE
  5
1EF
330
2
100
AcDbEntity
  8
4
100
AcDbLine
 10
856.4501683029114
 20
347.5848913760551
 30
0.0
 11
856.4501683029114
 21
349.5848913760551
 31
0.0
  0
CIRCLE
  5
1F2
330
2
100
AcDbEntity
  8
4
100
AcDbCircle
 10
851.6501183029111
 20
295.5848913760551
 30
0.0
 40
48.0
  0
LINE
  5
1F3
330
2
100
AcDbEntity
  8
L-CENTER
 48
3.0
100
AcDbLine
 10
905.203625174737
 20
295.5848913760551
 30
0.0
 11
798.146938267668
 21
295.5848913760551
 31
0.0
  0
ARC
  5
1F4
330
2
100
AcDbEntity
  8
4
100
AcDbCircle
 10
893.1455609571574
 20
337.0803340303014
 30
0.0
 40
5.0
100
AcDbArc
 50
6.908068832753678
 51
83.09193116722919
  0
LINE
  5
1F6
330
2
100
AcDbEntity
  8
L-CENTER
 48
3.0
100
AcDbLine
 10
1037.686481718533
 20
172.5848913760551
 30
0.0
 11
665.6137548872892
 21
172.5848913760551
 31
0.0
  0
LINE
  5
1F9
330
2
100
AcDbEntity
  8
4
100
AcDbLine
 10
941.6501183029111
 20
32.58489137605511
 30
0.0
 11
941.6501183029111
 21
60.58489137605511
 31
0.0
  0
ARC
  5
1FA
330
2
100
AcDbEntity
  8
4
100
AcDbCircle
 10
904.6501183029116
 20
66.58489137605511
 30
0.0
 40
4.0
100
AcDbArc
 50
180.0
 51
270.0
  0
ARC
  5
1FB
330
2
100
AcDbEntity
  8
4
100
AcDbCircle
 10
939.6501183029111
 20
60.58489137605511
 30
0.0
 40
2.0
100
AcDbArc
 50
0.0
 51
90.0
  0
ARC
  5
200
330
2
100
AcDbEntity
  8
4
100
AcDbCircle
 10
806.6501183029111
 20
66.58489137605511
 30
0.0
 40
4.0
100
AcDbArc
 50
270.0
 51
0.0
  0
ARC
  5
203
330
2
100
AcDbEntity
  8
4
100
AcDbCircle
 10
763.6501183029111
 20
60.58489137605511
 30
0.0
 40
2.0
100
AcDbArc
 50
90.0
 51
180.0
  0
LINE
  5
204
330
2
100
AcDbEntity
  8
4
100
AcDbLine
 10
761.6501183029111
 20
32.58489137605511
 30
0.0
 11
761.6501183029111
 21
60.58489137605511
 31
0.0
  0
ARC
  5
209
330
2
100
AcDbEntity
  8
4
100
AcDbCircle
 10
798.6501183029106
 20
66.58489137605511
 30
0.0
 40
4.0
100
AcDbArc
 50
270.0
 51
0.0
  0
LINE
  5
212
330
2
100
AcDbEntity
  8
4
100
AcDbLine
 10
761.6501183029111
 20
32.58489137605511
 30
0.0
 11
941.6501183029111
 21
32.58489137605511
 31
0.0
  0
LINE
  5
213
330
2
100
AcDbEntity
  8
4
100
AcDbLine
 10
763.6501183029111
 20
62.58489137605511
 30
0.0
 11
939.6501183029111
 21
62.58489137605511
 31
0.0
  0
ARC
  5
214
330
2
100
AcDbEntity
  8
4
100
AcDbCircle
 10
896.6501183029111
 20
66.58489137605511
 30
0.0
 40
4.0
100
AcDbArc
 50
180.0
 51
270.0
  0
LINE
  5
215
330
2
100
AcDbEntity
  8
4
100
AcDbLine
 10
792.6501183029111
 20
299.5848913760551
 30
0.0
 11
792.6501183029111
 21
62.58489137605511
 31
0.0
  0
LINE
  5
216
330
2
100
AcDbEntity
  8
4
100
AcDbLine
 10
801.6501183029111
 20
302.5848913760551
 30
0.0
 11
801.6501183029111
 21
63.93914006499085
 31
0.0
  0
LINE
  5
217
330
2
100
AcDbEntity
  8
4
100
AcDbLine
 10
907.6501183029111
 20
62.58489137605511
 30
0.0
 11
907.6501183029111
 21
300.5848913760551
 31
0.0
  0
LINE
  5
218
330
2
100
AcDbEntity
  8
4
100
AcDbLine
 10
900.6501183029111
 20
295.5848913760551
 30
0.0
 11
900.6501183029116
 21
66.58489137605511
 31
0.0
  0
LINE
  5
219
330
2
100
AcDbEntity
  8
4
100
AcDbLine
 10
802.6501183029111
 20
295.5848913760551
 30
0.0
 11
802.6501183029111
 21
66.58489137605511
 31
0.0
  0
LINE
  5
21A
330
2
100
AcDbEntity
  8
4
100
AcDbLine
 10
892.6501183029111
 20
66.58489137605511
 30
0.0
 11
892.6501183029111
 21
166.8138921755876
 31
0.0
  0
LINE
  5
21B
330
2
100
AcDbEntity
  8
4
100
AcDbLine
 10
810.6501183029111
 20
66.58489137605511
 30
0.0
 11
810.6501183029111
 21
166.8138921755876
 31
0.0
  0
LINE
  5
21C
330
2
100
AcDbEntity
  8
4
100
AcDbLine
 10
907.6501183029116
 20
62.58489137605511
 30
0.0
 11
907.6501183029111
 21
300.5848913760551
 31
0.0
  0
LINE
  5
21D
330
2
100
AcDbEntity
  8
4
100
AcDbLine
 10
918.9501183029108
 20
62.58489137605511
 30
0.0
 11
918.9501183029108
 21
299.5848913760551
 31
0.0
  0
LINE
  5
21E
330
2
100
AcDbEntity
  8
L-CENTER
 48
3.0
100
AcDbLine
 10
851.6501183029111
 20
27.93177269267881
 30
0.0
 11
851.6501183029111
 21
358.7720428587968
 31
0.0
  0
LINE
  5
21F
330
2
100
AcDbEntity
  8
L-CENTER
 48
3.0
100
AcDbLine
 10
921.6501183029111
 20
73.58489137605511
 30
0.0
 11
921.6501183029111
 21
21.58489137605511
 31
0.0
  0
LINE
  5
220
330
2
100
AcDbEntity
  8
L-CENTER
 48
3.0
100
AcDbLine
 10
781.6501183029111
 20
73.58489137605511
 30
0.0
 11
781.6501183029111
 21
21.58489137605511
 31
0.0
  0
LINE
  5
22A
330
2
100
AcDbEntity
  8
4
100
AcDbLine
 10
434.5736603528409
 20
350.7848413760548
 30
0.0
 11
435.0736603528409
 21
353.5848913760549
 31
0.0
  0
LINE
  5
22B
330
2
100
AcDbEntity
  8
4
100
AcDbLine
 10
435.0736603528409
 20
349.5848913760549
 30
0.0
 11
435.0736603528409
 21
353.5848913760549
 31
0.0
  0
LINE
  5
22C
330
2
100
AcDbEntity
  8
4
100
AcDbLine
 10
431.852467852841
 20
352.5848913760549
 30
0.0
 11
432.174002852841
 21
350.7848413760548
 31
0.0
  0
LINE
  5
22D
330
2
100
AcDbEntity
  8
4
100
AcDbLine
 10
430.0736603528409
 20
352.5848913760549
 30
0.0
 11
430.0736603528409
 21
349.5848913760549
 31
0.0
  0
ARC
  5
22E
330
2
100
AcDbEntity
  8
4
100
AcDbCircle
 10
433.3737103528409
 20
350.7848413760548
 30
0.0
 40
1.1999975
100
AcDbArc
 50
180.0
 51
0.0
  0
CIRCLE
  5
22F
330
2
100
AcDbEntity
  8
4
100
AcDbCircle
 10
433.3737103528409
 20
350.7848413760548
 30
0.0
 40
0.5
  0
LINE
  5
230
330
2
100
AcDbEntity
  8
4
100
AcDbLine
 10
418.5736603528409
 20
353.5848913760549
 30
0.0
 11
418.5736603528409
 21
352.5848913760549
 31
0.0
  0
LINE
  5
231
330
2
100
AcDbEntity
  8
4
100
AcDbLine
 10
420.0736603528409
 20
352.5848913760549
 30
0.0
 11
420.0736603528409
 21
349.5848913760549
 31
0.0
  0
LINE
  5
232
330
2
100
AcDbEntity
  8
4
100
AcDbLine
 10
435.0736603528409
 20
349.5848913760549
 30
0.0
 11
420.0736603528409
 21
349.5848913760549
 31
0.0
  0
LINE
  5
233
330
2
100
AcDbEntity
  8
4
100
AcDbLine
 10
435.0736603528409
 20
353.5848913760549
 30
0.0
 11
418.5736603528409
 21
353.5848913760549
 31
0.0
  0
LINE
  5
234
330
2
100
AcDbEntity
  8
4
100
AcDbLine
 10
431.852467852841
 20
352.5848913760549
 30
0.0
 11
418.5736603528409
 21
352.5848913760549
 31
0.0
  0
LINE
  5
239
330
2
100
AcDbEntity
  8
4
100
AcDbLine
 10
268.5736603528409
 20
348.0848913760551
 30
0.0
 11
268.5736603528409
 21
354.0848913760551
 31
0.0
  0
LINE
  5
23A
330
2
100
AcDbEntity
  8
4
100
AcDbLine
 10
262.3236603528409
 20
350.0848913760551
 30
0.0
 11
262.3236603528409
 21
354.0848913760551
 31
0.0
  0
LINE
  5
23B
330
2
100
AcDbEntity
  8
4
100
AcDbLine
 10
249.8236603528409
 20
350.0848913760551
 30
0.0
 11
249.8236603528409
 21
354.0848913760551
 31
0.0
  0
LINE
  5
23C
330
2
100
AcDbEntity
  8
4
100
AcDbLine
 10
243.5736603528409
 20
348.0848913760551
 30
0.0
 11
243.5736603528409
 21
354.0848913760551
 31
0.0
  0
LINE
  5
23D
330
2
100
AcDbEntity
  8
4
100
AcDbLine
 10
243.5736603528409
 20
348.0848913760551
 30
0.0
 11
268.5736603528409
 21
348.0848913760551
 31
0.0
  0
LINE
  5
23E
330
2
100
AcDbEntity
  8
4
100
AcDbLine
 10
243.5736603528409
 20
350.0848913760551
 30
0.0
 11
268.5736603528409
 21
350.0848913760551
 31
0.0
  0
LINE
  5
23F
330
2
100
AcDbEntity
  8
4
100
AcDbLine
 10
243.5736603528409
 20
354.0848913760551
 30
0.0
 11
268.5736603528409
 21
354.0848913760551
 31
0.0
  0
LINE
  5
240
330
2
100
AcDbEntity
  8
4
100
AcDbLine
 10
227.5736603528409
 20
353.5848913760549
 30
0.0
 11
227.5736603528409
 21
352.5848913760549
 31
0.0
  0
LINE
  5
241
330
2
100
AcDbEntity
  8
4
100
AcDbLine
 10
226.0736603528409
 20
352.5848913760549
 30
0.0
 11
226.0736603528409
 21
349.5848913760549
 31
0.0
  0
LINE
  5
242
330
2
100
AcDbEntity
  8
4
100
AcDbLine
 10
214.2948528528408
 20
352.5848913760549
 30
0.0
 11
213.9733178528408
 21
350.7848413760548
 31
0.0
  0
LINE
  5
243
330
2
100
AcDbEntity
  8
4
100
AcDbLine
 10
216.0736603528409
 20
352.5848913760549
 30
0.0
 11
216.0736603528409
 21
349.5848913760549
 31
0.0
  0
LINE
  5
244
330
2
100
AcDbEntity
  8
4
100
AcDbLine
 10
214.2948528528408
 20
352.5848913760549
 30
0.0
 11
227.5736603528409
 21
352.5848913760549
 31
0.0
  0
LINE
  5
245
330
2
100
AcDbEntity
  8
4
100
AcDbLine
 10
211.5736603528409
 20
350.7848413760548
 30
0.0
 11
211.0736603528409
 21
353.5848913760549
 31
0.0
  0
CIRCLE
  5
246
330
2
100
AcDbEntity
  8
4
100
AcDbCircle
 10
212.7736103528408
 20
350.7848413760548
 30
0.0
 40
0.5
  0
LINE
  5
247
330
2
100
AcDbEntity
  8
4
100
AcDbLine
 10
211.0736603528409
 20
349.5848913760549
 30
0.0
 11
211.0736603528409
 21
353.5848913760549
 31
0.0
  0
ARC
  5
248
330
2
100
AcDbEntity
  8
4
100
AcDbCircle
 10
212.7736103528408
 20
350.7848413760548
 30
0.0
 40
1.1999975
100
AcDbArc
 50
180.0
 51
0.0
  0
LINE
  5
249
330
2
100
AcDbEntity
  8
4
100
AcDbLine
 10
211.0736603528409
 20
349.5848913760549
 30
0.0
 11
226.0736603528409
 21
349.5848913760549
 31
0.0
  0
LINE
  5
24A
330
2
100
AcDbEntity
  8
4
100
AcDbLine
 10
211.0736603528409
 20
353.5848913760549
 30
0.0
 11
227.5736603528409
 21
353.5848913760549
 31
0.0
  0
LINE
  5
24D
330
2
100
AcDbEntity
  8
4
100
AcDbLine
 10
533.0736603528409
 20
312.0848913760551
 30
0.0
 11
533.0736603528409
 21
282.0848913760551
 31
0.0
  0
LINE
  5
24E
330
2
100
AcDbEntity
  8
4
100
AcDbLine
 10
478.0736603528409
 20
312.0848913760551
 30
0.0
 11
478.0736603528406
 21
309.0848913760551
 31
0.0
  0
LINE
  5
24F
330
2
100
AcDbEntity
  8
4
100
AcDbLine
 10
473.0736603528406
 20
310.5848913760551
 30
0.0
 11
473.0736603528406
 21
280.5848913760551
 31
0.0
  0
LINE
  5
250
330
2
100
AcDbEntity
  8
4
100
AcDbLine
 10
473.0736603528409
 20
309.0848913760551
 30
0.0
 11
533.0736603528409
 21
309.0848913760551
 31
0.0
  0
LINE
  5
251
330
2
100
AcDbEntity
  8
4
100
AcDbLine
 10
473.0736603528409
 20
282.0848913760551
 30
0.0
 11
533.0736603528409
 21
282.0848913760551
 31
0.0
  0
LINE
  5
252
330
2
100
AcDbEntity
  8
4
100
AcDbLine
 10
478.0736603528409
 20
312.0848913760551
 30
0.0
 11
533.0736603528409
 21
312.0848913760551
 31
0.0
  0
ARC
  5
253
330
2
100
AcDbEntity
  8
4
100
AcDbCircle
 10
447.1736603528406
 20
343.684891376055
 30
0.0
 40
0.9
100
AcDbArc
 50
0.0
 51
90.0
  0
LINE
  5
254
330
2
100
AcDbEntity
  8
4
100
AcDbLine
 10
451.0736603528409
 20
343.5848913760551
 30
0.0
 11
448.0736603528406
 21
343.5848913760551
 31
0.0
  0
LINE
  5
255
330
2
100
AcDbEntity
  8
4
100
AcDbLine
 10
451.0736603528409
 20
331.5848913760551
 30
0.0
 11
452.0736603528409
 21
331.5848913760551
 31
0.0
  0
ARC
  5
256
330
2
100
AcDbEntity
  8
4
100
AcDbCircle
 10
427.5736603528409
 20
342.7706813760549
 30
0.0
 40
4.8142575
100
AcDbArc
 50
58.71532999999298
 51
121.2845180000035
  0
LINE
  5
257
330
2
100
AcDbEntity
  8
4
100
AcDbLine
 10
430.0736603528409
 20
344.5848913760549
 30
0.0
 11
430.0736603528409
 21
346.8849388760548
 31
0.0
  0
LINE
  5
258
330
2
100
AcDbEntity
  8
4
100
AcDbLine
 10
422.5736603528409
 20
347.5848913760549
 30
0.0
 11
427.5736603528409
 21
347.5848913760549
 31
0.0
  0
ARC
  5
259
330
2
100
AcDbEntity
  8
4
100
AcDbCircle
 10
433.4819935528368
 20
282.9932245760506
 30
0.0
 40
5.0
100
AcDbArc
 50
15.05726445492235
 51
74.94273554507498
  0
LINE
  5
25A
330
2
100
AcDbEntity
  8
4
100
AcDbLine
 10
420.0736603528409
 20
344.5848913760549
 30
0.0
 11
420.0736603528409
 21
346.8849388760548
 31
0.0
  0
ARC
  5
25B
330
2
100
AcDbEntity
  8
4
100
AcDbCircle
 10
422.5736603528409
 20
342.7706813760549
 30
0.0
 40
4.8142575
100
AcDbArc
 50
58.71532999999298
 51
121.2845180000035
  0
LINE
  5
25C
330
2
100
AcDbEntity
  8
4
100
AcDbLine
 10
420.0736603528409
 20
344.5848913760549
 30
0.0
 11
430.0736603528409
 21
344.5848913760549
 31
0.0
  0
ARC
  5
25D
330
2
100
AcDbEntity
  8
4
100
AcDbCircle
 10
450.0455563834815
 20
244.5848913760551
 30
0.0
 40
3.0
100
AcDbArc
 50
90.0
 51
131.0941784841971
  0
LINE
  5
25E
330
2
100
AcDbEntity
  8
4
100
AcDbLine
 10
451.0736603528409
 20
247.5848913760551
 30
0.0
 11
450.0455563834815
 21
247.5848913760551
 31
0.0
  0
LINE
  5
25F
330
2
100
AcDbEntity
  8
4
100
AcDbLine
 10
451.0736603528409
 20
259.5848913760549
 30
0.0
 11
452.0736603528409
 21
259.5848913760551
 31
0.0
  0
LINE
  5
260
330
2
100
AcDbEntity
  8
4
100
AcDbLine
 10
448.0736603528406
 20
237.9683755291685
 30
0.0
 11
448.0736603528406
 21
343.684891376055
 31
0.0
  0
LINE
  5
261
330
2
100
AcDbEntity
  8
4
100
AcDbLine
 10
451.0736603528409
 20
247.5848913760551
 30
0.0
 11
451.0736603528409
 21
343.5848913760551
 31
0.0
  0
LINE
  5
262
330
2
100
AcDbEntity
  8
4
100
AcDbLine
 10
452.0736603528409
 20
331.5848913760551
 30
0.0
 11
452.0736603528409
 21
259.5848913760551
 31
0.0
  0
LINE
  5
263
330
2
100
AcDbEntity
  8
4
100
AcDbLine
 10
452.0736603528406
 20
310.5848913760551
 30
0.0
 11
473.0736603528409
 21
310.5848913760551
 31
0.0
  0
LINE
  5
264
330
2
100
AcDbEntity
  8
4
100
AcDbLine
 10
452.0736603528406
 20
280.5848913760551
 30
0.0
 11
473.0736603528409
 21
280.5848913760551
 31
0.0
  0
ARC
  5
265
330
2
100
AcDbEntity
  8
4
100
AcDbCircle
 10
422.9084113946609
 20
197.9230539854043
 30
0.0
 40
3.0
100
AcDbArc
 50
265.1485788721415
 51
14.24103163537813
  0
ARC
  5
266
330
2
100
AcDbEntity
  8
4
100
AcDbCircle
 10
422.9084113946609
 20
147.2467287667059
 30
0.0
 40
3.0
100
AcDbArc
 50
345.7589683646219
 51
94.85142112785853
  0
ARC
  5
267
330
2
100
AcDbEntity
  8
4
100
AcDbCircle
 10
23.0736603528411
 20
172.5848913760551
 30
0.0
 40
430.0
100
AcDbArc
 50
0.0
 51
15.05726445492227
  0
ARC
  5
268
330
2
100
AcDbEntity
  8
4
100
AcDbCircle
 10
358.8911883284042
 20
208.4024193516184
 30
0.0
 40
5.0
100
AcDbArc
 50
6.97379343037548
 51
83.02620656964558
  0
ARC
  5
269
330
2
100
AcDbEntity
  8
4
100
AcDbCircle
 10
361.5532663470539
 20
211.0644973702681
 30
0.0
 40
5.0
100
AcDbArc
 50
7.494980959286906
 51
82.50501904072034
  0
ARC
  5
26A
330
2
100
AcDbEntity
  8
4
100
AcDbCircle
 10
323.0736603528409
 20
-81.41510862394489
 30
0.0
 40
300.0
100
AcDbArc
 50
82.50501904072057
 51
97.49498095927937
  0
ARC
  5
26B
330
2
100
AcDbEntity
  8
4
100
AcDbCircle
 10
323.0736603528409
 20
-84.41510862394489
 30
0.0
 40
300.0
100
AcDbArc
 50
83.02620656964554
 51
96.97379343035446
  0
ARC
  5
26C
330
2
100
AcDbEntity
  8
4
100
AcDbCircle
 10
276.0736603528409
 20
345.5848913760551
 30
0.0
 40
1.0
100
AcDbArc
 50
180.0
 51
270.0
  0
LINE
  5
26D
330
2
100
AcDbEntity
  8
4
100
AcDbLine
 10
275.0736603528409
 20
346.5848913760551
 30
0.0
 11
275.0736603528409
 21
345.5848913760551
 31
0.0
  0
LINE
  5
26E
330
2
100
AcDbEntity
  8
4
100
AcDbLine
 10
237.0736603528409
 20
346.5848913760551
 30
0.0
 11
237.0736603528409
 21
345.5848913760551
 31
0.0
  0
LINE
  5
26F
330
2
100
AcDbEntity
  8
4
100
AcDbLine
 10
237.0736603528409
 20
346.5848913760551
 30
0.0
 11
275.0736603528409
 21
346.5848913760551
 31
0.0
  0
LINE
  5
270
330
2
100
AcDbEntity
  8
4
100
AcDbLine
 10
226.0736603528409
 20
344.5848913760549
 30
0.0
 11
226.0736603528409
 21
346.8849388760548
 31
0.0
  0
ARC
  5
271
330
2
100
AcDbEntity
  8
4
100
AcDbCircle
 10
218.5736603528409
 20
342.7706813760549
 30
0.0
 40
4.8142575
100
AcDbArc
 50
58.71548199999653
 51
121.2846700000073
  0
LINE
  5
272
330
2
100
AcDbEntity
  8
4
100
AcDbLine
 10
216.0736603528409
 20
344.5848913760549
 30
0.0
 11
216.0736603528409
 21
346.8849388760548
 31
0.0
  0
LINE
  5
273
330
2
100
AcDbEntity
  8
4
100
AcDbLine
 10
223.5736603528409
 20
347.5848913760549
 30
0.0
 11
218.5736603528409
 21
347.5848913760549
 31
0.0
  0
ARC
  5
274
330
2
100
AcDbEntity
  8
4
100
AcDbCircle
 10
223.5736603528409
 20
342.7706813760549
 30
0.0
 40
4.8142575
100
AcDbArc
 50
58.71548199999653
 51
121.2846700000073
  0
LINE
  5
275
330
2
100
AcDbEntity
  8
4
100
AcDbLine
 10
226.0736603528409
 20
344.5848913760549
 30
0.0
 11
216.0736603528409
 21
344.5848913760549
 31
0.0
  0
LINE
  5
276
330
2
100
AcDbEntity
  8
4
100
AcDbLine
 10
195.0736603528409
 20
343.5848913760551
 30
0.0
 11
198.0736603528411
 21
343.5848913760551
 31
0.0
  0
LINE
  5
277
330
2
100
AcDbEntity
  8
4
100
AcDbLine
 10
195.0736603528409
 20
331.5848913760551
 30
0.0
 11
194.0736603528409
 21
331.5848913760551
 31
0.0
  0
ARC
  5
278
330
2
100
AcDbEntity
  8
4
100
AcDbCircle
 10
198.9736603528412
 20
343.684891376055
 30
0.0
 40
0.9
100
AcDbArc
 50
90.0
 51
180.0
  0
LINE
  5
279
330
2
100
AcDbEntity
  8
4
100
AcDbLine
 10
198.0736603528411
 20
343.5848913760551
 30
0.0
 11
198.0736603528411
 21
343.684891376055
 31
0.0
  0
ARC
  5
27A
330
2
100
AcDbEntity
  8
4
100
AcDbCircle
 10
212.665327152845
 20
282.9932245760506
 30
0.0
 40
5.0
100
AcDbArc
 50
105.0572644549253
 51
164.9427355450778
  0
ARC
  5
27B
330
2
100
AcDbEntity
  8
4
100
AcDbCircle
 10
236.0736603528409
 20
345.5848913760551
 30
0.0
 40
1.0
100
AcDbArc
 50
270.0
 51
0.0
  0
ARC
  5
27C
330
2
100
AcDbEntity
  8
4
100
AcDbCircle
 10
196.1017643222002
 20
244.5848913760551
 30
0.0
 40
3.0
100
AcDbArc
 50
48.9058215158025
 51
90.0
  0
LINE
  5
27D
330
2
100
AcDbEntity
  8
4
100
AcDbLine
 10
195.0736603528409
 20
247.5848913760551
 30
0.0
 11
196.1017643222002
 21
247.5848913760551
 31
0.0
  0
LINE
  5
27E
330
2
100
AcDbEntity
  8
4
100
AcDbLine
 10
195.0736603528409
 20
259.5848913760549
 30
0.0
 11
194.0736603528409
 21
259.5848913760551
 31
0.0
  0
LINE
  5
27F
330
2
100
AcDbEntity
  8
4
100
AcDbLine
 10
198.0736603528411
 20
237.9683755291685
 30
0.0
 11
198.0736603528411
 21
343.684891376055
 31
0.0
  0
LINE
  5
280
330
2
100
AcDbEntity
  8
4
100
AcDbLine
 10
195.0736603528409
 20
247.5848913760551
 30
0.0
 11
195.0736603528409
 21
343.5848913760551
 31
0.0
  0
LINE
  5
281
330
2
100
AcDbEntity
  8
4
100
AcDbLine
 10
194.0736603528409
 20
331.5848913760551
 30
0.0
 11
194.0736603528409
 21
259.5848913760551
 31
0.0
  0
ARC
  5
282
330
2
100
AcDbEntity
  8
4
100
AcDbCircle
 10
284.5940543586277
 20
211.0644973702681
 30
0.0
 40
5.0
100
AcDbArc
 50
97.49498095927966
 51
172.5050190407131
  0
ARC
  5
283
330
2
100
AcDbEntity
  8
4
100
AcDbCircle
 10
287.2561323772776
 20
208.4024193516184
 30
0.0
 40
5.0
100
AcDbArc
 50
96.97379343035443
 51
173.0262065696509
  0
ARC
  5
284
330
2
100
AcDbEntity
  8
4
100
AcDbCircle
 10
374.2422681190097
 20
206.0680339116373
 30
0.0
 40
7.0
100
AcDbArc
 50
186.2614549438293
 51
265.1485788721413
  0
ARC
  5
285
330
2
100
AcDbEntity
  8
4
100
AcDbCircle
 10
374.2422681190097
 20
139.1017488404727
 30
0.0
 40
7.0
100
AcDbArc
 50
94.85142112785866
 51
173.7385450561707
  0
ARC
  5
286
330
2
100
AcDbEntity
  8
4
100
AcDbCircle
 10
358.8911883284042
 20
136.7673634004916
 30
0.0
 40
5.0
100
AcDbArc
 50
276.9737934303544
 51
353.0262065696245
  0
ARC
  5
287
330
2
100
AcDbEntity
  8
4
100
AcDbCircle
 10
361.5532663470539
 20
134.1052853818419
 30
0.0
 40
5.0
100
AcDbArc
 50
277.494980959279
 51
352.5050190407131
  0
ARC
  5
288
330
2
100
AcDbEntity
  8
4
100
AcDbCircle
 10
356.556802888423
 20
121.4162836098862
 30
0.0
 40
7.0
100
AcDbArc
 50
96.26145494383444
 51
175.1485788721372
  0
ARC
  5
289
330
2
100
AcDbEntity
  8
4
100
AcDbCircle
 10
348.4118229621901
 20
72.75014033423508
 30
0.0
 40
3.0
100
AcDbArc
 50
175.1485788721372
 51
284.2410316353826
  0
LINE
  5
28A
330
2
100
AcDbEntity
  8
4
100
AcDbLine
 10
349.5818813700884
 20
122.0082885195561
 30
0.0
 11
345.4225708829039
 21
73.00385672409357
 31
0.0
  0
ARC
  5
28B
330
2
100
AcDbEntity
  8
4
100
AcDbCircle
 10
289.5905178172587
 20
121.4162836098862
 30
0.0
 40
7.0
100
AcDbArc
 50
4.851421127862851
 51
83.73854505616558
  0
ARC
  5
28C
330
2
100
AcDbEntity
  8
4
100
AcDbCircle
 10
297.7354977434917
 20
72.75014033423508
 30
0.0
 40
3.0
100
AcDbArc
 50
255.7589683646174
 51
4.851421127862851
  0
LINE
  5
28D
330
2
100
AcDbEntity
  8
4
100
AcDbLine
 10
296.5654393355934
 20
122.0082885195561
 30
0.0
 11
300.7247498227779
 21
73.00385672409357
 31
0.0
  0
ARC
  5
28E
330
2
100
AcDbEntity
  8
4
100
AcDbCircle
 10
323.0736603528409
 20
429.5848913760551
 30
0.0
 40
300.0
100
AcDbArc
 50
263.0262065696456
 51
276.9737934303545
  0
ARC
  5
28F
330
2
100
AcDbEntity
  8
4
100
AcDbCircle
 10
323.0736603528409
 20
426.5848913760551
 30
0.0
 40
300.0
100
AcDbArc
 50
262.5050190407206
 51
277.4949809592794
  0
ARC
  5
290
330
2
100
AcDbEntity
  8
4
100
AcDbCircle
 10
271.905052586672
 20
206.0680339116373
 30
0.0
 40
7.0
100
AcDbArc
 50
274.8514211278587
 51
353.7385450561706
  0
ARC
  5
291
330
2
100
AcDbEntity
  8
4
100
AcDbCircle
 10
271.905052586672
 20
139.1017488404727
 30
0.0
 40
7.0
100
AcDbArc
 50
6.26145494382934
 51
85.14857887214136
  0
ARC
  5
292
330
2
100
AcDbEntity
  8
4
100
AcDbCircle
 10
223.2389093110208
 20
197.9230539854043
 30
0.0
 40
3.0
100
AcDbArc
 50
165.758968364622
 51
274.8514211278585
  0
ARC
  5
293
330
2
100
AcDbEntity
  8
4
100
AcDbCircle
 10
223.2389093110208
 20
147.2467287667059
 30
0.0
 40
3.0
100
AcDbArc
 50
85.14857887214148
 51
194.241031635378
  0
LINE
  5
294
330
2
100
AcDbEntity
  8
4
100
AcDbLine
 10
193.0736603528409
 20
172.5848913760551
 30
0.0
 11
193.0736603528409
 21
140.5848913760551
 31
0.0
  0
LINE
  5
295
330
2
100
AcDbEntity
  8
4
100
AcDbLine
 10
223.4926257008796
 20
194.9338019061179
 30
0.0
 11
272.4970574963419
 21
199.0931123933026
 31
0.0
  0
LINE
  5
296
330
2
100
AcDbEntity
  8
4
100
AcDbLine
 10
223.4926257008796
 20
150.2359808459921
 30
0.0
 11
272.4970574963419
 21
146.0766703588074
 31
0.0
  0
LINE
  5
297
330
2
100
AcDbEntity
  8
4
100
AcDbLine
 10
191.0736603528409
 20
82.91289137605509
 30
0.0
 11
191.0736603528409
 21
97.99747835974858
 31
0.0
  0
ARC
  5
298
330
2
100
AcDbEntity
  8
4
100
AcDbCircle
 10
284.5940543586279
 20
134.1052853818419
 30
0.0
 40
5.0
100
AcDbArc
 50
187.4949809592869
 51
262.5050190407204
  0
ARC
  5
299
330
2
100
AcDbEntity
  8
4
100
AcDbCircle
 10
287.2561323772776
 20
136.7673634004916
 30
0.0
 40
5.0
100
AcDbArc
 50
186.9737934303755
 51
263.0262065696456
  0
ARC
  5
29A
330
2
100
AcDbEntity
  8
4
100
AcDbCircle
 10
577.0736603528409
 20
172.5848913760551
 30
0.0
 40
300.0
100
AcDbArc
 50
172.5050190407131
 51
187.494980959287
  0
ARC
  5
29B
330
2
100
AcDbEntity
  8
4
100
AcDbCircle
 10
580.0736603528409
 20
172.5848913760551
 30
0.0
 40
300.0
100
AcDbArc
 50
173.0262065696508
 51
186.9737934303492
  0
ARC
  5
29C
330
2
100
AcDbEntity
  8
4
100
AcDbCircle
 10
66.07366035284088
 20
172.5848913760551
 30
0.0
 40
300.0
100
AcDbArc
 50
353.0262065696508
 51
6.973793430349181
  0
ARC
  5
29D
330
2
100
AcDbEntity
  8
4
100
AcDbCircle
 10
69.07366035284088
 20
172.5848913760551
 30
0.0
 40
300.0
100
AcDbArc
 50
352.5050190407131
 51
7.494980959286954
  0
ARC
  5
29E
330
2
100
AcDbEntity
  8
4
100
AcDbCircle
 10
323.0736603528409
 20
-127.4151086239449
 30
0.0
 40
430.0
100
AcDbArc
 50
74.94273554507474
 51
105.0572644549253
  0
LINE
  5
29F
330
2
100
AcDbEntity
  8
4
100
AcDbLine
 10
447.1736603528406
 20
344.5848913760551
 30
0.0
 11
198.9736603528412
 21
344.5848913760549
 31
0.0
  0
LINE
  5
2A0
330
2
100
AcDbEntity
  8
4
100
AcDbLine
 10
422.6546950048024
 20
194.9338019061179
 30
0.0
 11
373.6502632093399
 21
199.0931123933024
 31
0.0
  0
LINE
  5
2A1
330
2
100
AcDbEntity
  8
4
100
AcDbLine
 10
422.6546950048022
 20
150.2359808459921
 30
0.0
 11
373.6502632093399
 21
146.0766703588074
 31
0.0
  0
LINE
  5
2A2
330
2
100
AcDbEntity
  8
4
100
AcDbLine
 10
216.2736103528408
 20
349.5848913760549
 30
0.0
 11
216.2736103528408
 21
346.999931376055
 31
0.0
  0
LINE
  5
2A3
330
2
100
AcDbEntity
  8
4
100
AcDbLine
 10
225.8737103528409
 20
349.5848913760549
 30
0.0
 11
225.8737103528409
 21
346.999931376055
 31
0.0
  0
LINE
  5
2A4
330
2
100
AcDbEntity
  8
L-CENTER
 48
3.0
100
AcDbLine
 10
221.0736603528409
 20
358.3139780692886
 30
0.0
 11
221.0736603528409
 21
336.9627442168953
 31
0.0
  0
LINE
  5
2A5
330
2
100
AcDbEntity
  8
4
100
AcDbLine
 10
267.5736603528409
 20
346.5848913760551
 30
0.0
 11
267.5736603528409
 21
348.0848913760551
 31
0.0
  0
LINE
  5
2A6
330
2
100
AcDbEntity
  8
L-CENTER
 48
3.0
100
AcDbLine
 10
256.0736603528409
 20
360.0943528216549
 30
0.0
 11
256.0736603528409
 21
338.0943528216549
 31
0.0
  0
LINE
  5
2A7
330
2
100
AcDbEntity
  8
4
100
AcDbLine
 10
244.5736603528409
 20
346.5848913760551
 30
0.0
 11
244.5736603528409
 21
348.0848913760551
 31
0.0
  0
LINE
  5
2A9
330
2
100
AcDbEntity
  8
4
100
AcDbLine
 10
429.8737103528409
 20
349.5848913760549
 30
0.0
 11
429.8737103528409
 21
346.999931376055
 31
0.0
  0
LINE
  5
2AA
330
2
100
AcDbEntity
  8
L-CENTER
 48
3.0
100
AcDbLine
 10
425.0736603528409
 20
358.3139780692886
 30
0.0
 11
425.0736603528409
 21
336.9627442168953
 31
0.0
  0
LINE
  5
2AB
330
2
100
AcDbEntity
  8
4
100
AcDbLine
 10
420.2736103528408
 20
349.5848913760549
 30
0.0
 11
420.2736103528408
 21
346.999931376055
 31
0.0
  0
LINE
  5
2AD
330
2
100
AcDbEntity
  8
4
100
AcDbLine
 10
186.5736603528409
 20
130.0848913760551
 30
0.0
 11
181.5736603528409
 21
130.0848913760551
 31
0.0
  0
LINE
  5
2AE
330
2
100
AcDbEntity
  8
4
100
AcDbLine
 10
181.5736603528409
 20
137.5848913760551
 30
0.0
 11
188.5736603528409
 21
137.5848913760551
 31
0.0
  0
LINE
  5
2AF
330
2
100
AcDbEntity
  8
4
100
AcDbLine
 10
188.5736603528409
 20
136.5848913760551
 30
0.0
 11
190.0736603528409
 21
136.5848913760551
 31
0.0
  0
LINE
  5
2B0
330
2
100
AcDbEntity
  8
4
100
AcDbLine
 10
188.5736603528409
 20
107.5848913760551
 30
0.0
 11
181.5736603528409
 21
107.5848913760551
 31
0.0
  0
LINE
  5
2B1
330
2
100
AcDbEntity
  8
4
100
AcDbLine
 10
188.5736603528409
 20
108.5848913760551
 30
0.0
 11
190.0736603528409
 21
108.5848913760551
 31
0.0
  0
LINE
  5
2B2
330
2
100
AcDbEntity
  8
4
100
AcDbLine
 10
186.5736603528409
 20
115.0848913760551
 30
0.0
 11
181.5736603528409
 21
115.0848913760551
 31
0.0
  0
LINE
  5
2B3
330
2
100
AcDbEntity
  8
4
100
AcDbLine
 10
181.5736603528409
 20
107.5848913760551
 30
0.0
 11
181.5736603528409
 21
137.5848913760551
 31
0.0
  0
LINE
  5
2B4
330
2
100
AcDbEntity
  8
4
100
AcDbLine
 10
190.0736603528409
 20
108.5848913760551
 30
0.0
 11
190.0736603528409
 21
136.5848913760551
 31
0.0
  0
LINE
  5
2B5
330
2
100
AcDbEntity
  8
4
100
AcDbLine
 10
188.5736603528409
 20
107.5848913760551
 30
0.0
 11
188.5736603528409
 21
137.5848913760551
 31
0.0
  0
LINE
  5
2B6
330
2
100
AcDbEntity
  8
4
100
AcDbLine
 10
186.5736603528409
 20
107.5848913760551
 30
0.0
 11
186.5736603528409
 21
137.5848913760551
 31
0.0
  0
LINE
  5
2B7
330
2
100
AcDbEntity
  8
4
100
AcDbLine
 10
189.5736603528409
 20
69.58489137605511
 30
0.0
 11
189.5736603528409
 21
81.58489137605511
 31
0.0
  0
LINE
  5
2B8
330
2
100
AcDbEntity
  8
4
100
AcDbLine
 10
190.0736603528409
 20
140.5848913760551
 30
0.0
 11
190.0736603528409
 21
104.5848913760551
 31
0.0
  0
LINE
  5
2B9
330
2
100
AcDbEntity
  8
L-CENTER
 48
3.0
100
AcDbLine
 10
536.8466133320843
 20
295.5848913760551
 30
0.0
 11
188.5978814600479
 21
295.5848913760551
 31
0.0
  0
LINE
  5
2BA
330
2
100
AcDbEntity
  8
4
100
AcDbLine
 10
189.5736603528409
 20
69.58489137605511
 30
0.0
 11
191.0736603528409
 21
69.58489137605511
 31
0.0
  0
LINE
  5
2BB
330
2
100
AcDbEntity
  8
L-CENTER
 48
3.0
100
AcDbLine
 10
184.8701795854457
 20
75.58489137605511
 30
0.0
 11
200.2999446587017
 21
75.58489137605511
 31
0.0
  0
LINE
  5
2BC
330
2
100
AcDbEntity
  8
4
100
AcDbLine
 10
191.0736603528409
 20
104.5848913760551
 30
0.0
 11
190.0736603528409
 21
104.5848913760551
 31
0.0
  0
LINE
  5
2BD
330
2
100
AcDbEntity
  8
4
100
AcDbLine
 10
189.5736603528409
 20
81.58489137605511
 30
0.0
 11
191.0736603528409
 21
81.58489137605511
 31
0.0
  0
LINE
  5
2BE
330
2
100
AcDbEntity
  8
L-CENTER
 48
3.0
100
AcDbLine
 10
204.5689098862216
 20
122.5848913760551
 30
0.0
 11
177.0018613311091
 21
122.5848913760551
 31
0.0
  0
LINE
  5
2BF
330
2
100
AcDbEntity
  8
L-CENTER
 48
3.0
100
AcDbLine
 10
185.9312740013091
 20
172.5848913760551
 30
0.0
 11
460.2160467043726
 21
172.5848913760551
 31
0.0
  0
ARC
  5
2C0
330
2
100
AcDbEntity
  8
4
100
AcDbCircle
 10
623.0736603528406
 20
172.5848913760551
 30
0.0
 40
430.0
100
AcDbArc
 50
164.9427355450777
 51
180.0
  0
LINE
  5
2C1
330
2
100
AcDbEntity
  8
4
100
AcDbLine
 10
193.0736603528409
 20
140.5848913760551
 30
0.0
 11
190.0736603528409
 21
140.5848913760551
 31
0.0
  0
ARC
  5
2C5
330
2
100
AcDbEntity
  8
4
100
AcDbCircle
 10
471.0736603528409
 20
60.58489137605511
 30
0.0
 40
2.0
100
AcDbArc
 50
0.0
 51
90.0
  0
LINE
  5
2C8
330
2
100
AcDbEntity
  8
4
100
AcDbLine
 10
473.0736603528409
 20
32.58489137605511
 30
0.0
 11
473.0736603528409
 21
60.58489137605511
 31
0.0
  0
TEXT
  5
2CB
330
2
100
AcDbEntity
  8
3
100
AcDbText
 10
589.039706558536
 20
21.83050250307275
 30
0.0
 40
9.0
  1
LB5-05
  7
KANJI
 72
     1
 11
613.789706558536
 21
21.83050250307275
 31
0.0
100
AcDbText
  0
ARC
  5
2CD
330
2
100
AcDbEntity
  8
4
100
AcDbCircle
 10
458.0736603528409
 20
67.58489137605511
 30
0.0
 40
5.0
100
AcDbArc
 50
180.0
 51
270.0
  0
LINE
  5
2CE
330
2
100
AcDbEntity
  8
4
100
AcDbLine
 10
461.7004225328013
 20
32.58489137605511
 30
0.0
 11
461.7004225328013
 21
62.58489137605511
 31
0.0
  0
ARC
  5
2CF
330
2
100
AcDbEntity
  8
4
100
AcDbCircle
 10
440.8309696741939
 20
66.58489137605511
 30
0.0
 40
4.0
100
AcDbArc
 50
162.5763272197884
 51
270.0
  0
LINE
  5
2D0
330
2
100
AcDbEntity
  8
4
100
AcDbLine
 10
443.7004225328013
 20
32.58489137605511
 30
0.0
 11
443.7004225328011
 21
62.58489137605511
 31
0.0
  0
LWPOLYLINE
  5
2D1
330
2
100
AcDbEntity
  8
4
100
AcDbPolyline
 90
       44
 70
     0
 43
0.0
 10
432.4094543351806
 20
62.58489137605511
 10
433.2452936568098
 20
61.51507594537611
 10
433.5723236568099
 20
61.08309994537581
 10
433.8756806568099
 20
60.65463694537584
 10
434.5253066568101
 20
59.40786394537599
 10
434.6155736568099
 20
59.01099994537594
 10
434.6229776568101
 20
58.62642094537591
 10
434.5356746568098
 20
58.255890945376
 10
434.3194406568098
 20
57.85687294537593
 10
434.0091626568099
 20
57.47044294537613
 10
433.64528665681
 20
57.08924194537599
 10
433.26826165681
 20
56.70591694537598
 10
432.91853065681
 20
56.31310894537592
 10
432.63654865681
 20
55.90345894537609
 10
432.4641626568098
 20
55.50501694537593
 10
432.37328965681
 20
55.08814294537592
 10
432.35310565681
 20
54.65505094537593
 10
432.6084716568099
 20
53.28064594537591
 10
433.1104166568101
 20
51.84010894537596
 10
433.5667106568099
 20
50.39330494537603
 10
433.65815665681
 20
49.91999194537584
 10
433.70123665681
 20
49.45484794537583
 10
433.6851266568099
 20
49.00009594537596
 10
433.5530696568099
 20
48.38586394537606
 10
433.3133276568099
 20
47.79160294537587
 10
432.99430765681
 20
47.21277394537583
 10
431.84554765681
 20
45.52356694537593
 10
431.4933986568099
 20
44.96114194537586
 10
431.2039646568099
 20
44.39148394537597
 10
431.0056526568099
 20
43.81005694537589
 10
430.9235126568099
 20
43.28372194537587
 10
430.9215206568099
 20
42.74613394537596
 10
430.9865276568099
 20
42.19877194537594
 10
431.45210065681
 20
40.51278094537588
 10
432.0474416568098
 20
38.79190294537602
 10
432.21338065681
 20
38.21740894537584
 10
432.34115665681
 20
37.6449339453759
 10
432.4176236568099
 20
37.07595994537587
 10
432.4143116568101
 20
36.17868994537594
 10
432.27457165681
 20
35.29194394537581
 10
432.0256856568099
 20
34.4136189453759
 10
431.6949416568098
 20
33.54160894537608
 10
431.3096246568098
 20
32.67380794537598
 10
431.2672461198134
 20
32.58489137605511
  0
LINE
  5
2D3
330
2
100
AcDbEntity
  8
4
100
AcDbLine
 10
423.0736603528409
 20
32.58489137605511
 30
0.0
 11
423.0736603528409
 21
36.58489137605488
 31
0.0
  0
ARC
  5
2D4
330
2
100
AcDbEntity
  8
4
100
AcDbCircle
 10
420.0736603528411
 20
60.58489137605511
 30
0.0
 40
2.0
100
AcDbArc
 50
90.0
 51
180.0
  0
ARC
  5
2D5
330
2
100
AcDbEntity
  8
4
100
AcDbCircle
 10
413.0736603528411
 20
46.99706260272183
 30
0.0
 40
5.0
100
AcDbArc
 50
0.0
 51
101.9405439606022
  0
LINE
  5
2D6
330
2
100
AcDbEntity
  8
4
100
AcDbLine
 10
418.0736603528411
 20
41.58489137605511
 30
0.0
 11
418.0736603528411
 21
60.58489137605511
 31
0.0
  0
ARC
  5
2D7
330
2
100
AcDbEntity
  8
4
100
AcDbCircle
 10
418.0736603528409
 20
36.58489137605511
 30
0.0
 40
5.0
100
AcDbArc
 50
0.0
 51
90.0
  0
LINE
  5
2DC
330
2
100
AcDbEntity
  8
4
100
AcDbLine
 10
473.0736603528409
 20
32.58489137605511
 30
0.0
 11
423.0736603528409
 21
32.58489137605511
 31
0.0
  0
LINE
  5
2DD
330
2
100
AcDbEntity
  8
4
100
AcDbLine
 10
471.0736603528409
 20
62.58489137605511
 30
0.0
 11
420.0736603528411
 21
62.58489137605511
 31
0.0
  0
ARC
  5
2E9
330
2
100
AcDbEntity
  8
4
100
AcDbCircle
 10
226.0736603528406
 20
60.58489137605511
 30
0.0
 40
2.0
100
AcDbArc
 50
0.0
 51
90.0
  0
ARC
  5
2EA
330
2
100
AcDbEntity
  8
4
100
AcDbCircle
 10
228.0736603528409
 20
36.58489137605511
 30
0.0
 40
5.0
100
AcDbArc
 50
90.0
 51
180.0
  0
ARC
  5
2EB
330
2
100
AcDbEntity
  8
4
100
AcDbCircle
 10
233.0736603528406
 20
46.99706260272183
 30
0.0
 40
5.0
100
AcDbArc
 50
78.05945603939776
 51
180.0
  0
LINE
  5
2EC
330
2
100
AcDbEntity
  8
4
100
AcDbLine
 10
228.0736603528406
 20
41.58489137605511
 30
0.0
 11
228.0736603528406
 21
60.58489137605511
 31
0.0
  0
ARC
  5
2ED
330
2
100
AcDbEntity
  8
4
100
AcDbCircle
 10
205.3163510314879
 20
66.58489137605511
 30
0.0
 40
4.0
100
AcDbArc
 50
270.0
 51
17.42367278021146
  0
LINE
  5
2EE
330
2
100
AcDbEntity
  8
4
100
AcDbLine
 10
223.0736603528409
 20
32.58489137605511
 30
0.0
 11
223.0736603528409
 21
36.58489137605488
 31
0.0
  0
ARC
  5
316
330
2
100
AcDbEntity
  8
4
100
AcDbCircle
 10
323.0736603528409
 20
472.5848913760551
 30
0.0
 40
430.0
100
AcDbArc
 50
258.0594560393932
 51
281.9405439606068
  0
LINE
  5
317
330
2
100
AcDbEntity
  8
4
100
AcDbLine
 10
418.0736603528409
 20
41.58489137605511
 30
0.0
 11
228.0736603528409
 21
41.58489137605511
 31
0.0
  0
ARC
  5
321
330
2
100
AcDbEntity
  8
4
100
AcDbCircle
 10
175.0736603528406
 20
60.58489137605511
 30
0.0
 40
2.0
100
AcDbArc
 50
90.0
 51
180.0
  0
LINE
  5
322
330
2
100
AcDbEntity
  8
4
100
AcDbLine
 10
173.0736603528409
 20
32.58489137605511
 30
0.0
 11
173.0736603528406
 21
60.58489137605511
 31
0.0
  0
LINE
  5
33A
330
2
100
AcDbEntity
  8
4
100
AcDbLine
 10
175.0736603528409
 20
62.58489137605511
 30
0.0
 11
226.0736603528406
 21
62.58489137605511
 31
0.0
  0
LINE
  5
33B
330
2
100
AcDbEntity
  8
4
100
AcDbLine
 10
223.0736603528409
 20
32.58489137605511
 30
0.0
 11
173.0736603528409
 21
32.58489137605511
 31
0.0
  0
ARC
  5
33C
330
2
100
AcDbEntity
  8
4
100
AcDbCircle
 10
186.0736603528409
 20
67.58489137605511
 30
0.0
 40
5.0
100
AcDbArc
 50
270.0
 51
0.0
  0
ARC
  5
33D
330
2
100
AcDbEntity
  8
4
100
AcDbCircle
 10
188.0736603528409
 20
67.58489137605511
 30
0.0
 40
5.0
100
AcDbArc
 50
270.0
 51
0.0
  0
LINE
  5
33E
330
2
100
AcDbEntity
  8
4
100
AcDbLine
 10
193.0736603528409
 20
172.5848913760551
 30
0.0
 11
193.0736603528409
 21
67.58489137605511
 31
0.0
  0
ARC
  5
33F
330
2
100
AcDbEntity
  8
4
100
AcDbCircle
 10
543.0736603528406
 20
172.5848913760551
 30
0.0
 40
350.0
100
AcDbArc
 50
180.0
 51
197.4236727802115
  0
ARC
  5
340
330
2
100
AcDbEntity
  8
4
100
AcDbCircle
 10
323.0736603528409
 20
172.5848913760551
 30
0.0
 40
128.0
100
AcDbArc
 50
90.0
 51
270.0
  0
ARC
  5
341
330
2
100
AcDbEntity
  8
4
100
AcDbCircle
 10
323.0736603528409
 20
172.5848913760551
 30
0.0
 40
106.0
100
AcDbArc
 50
102.4557926259054
 51
270.0
  0
ARC
  5
342
330
2
100
AcDbEntity
  8
4
100
AcDbCircle
 10
103.0736603528411
 20
172.5848913760551
 30
0.0
 40
350.0
100
AcDbArc
 50
342.5763272197885
 51
0.0
  0
LINE
  5
343
330
2
100
AcDbEntity
  8
4
100
AcDbLine
 10
453.0736603528409
 20
172.5848913760551
 30
0.0
 11
453.0736603528409
 21
67.58489137605511
 31
0.0
  0
ARC
  5
344
330
2
100
AcDbEntity
  8
4
100
AcDbCircle
 10
323.0736603528409
 20
172.5848913760551
 30
0.0
 40
128.0
100
AcDbArc
 50
270.0
 51
90.0
  0
ARC
  5
345
330
2
100
AcDbEntity
  8
4
100
AcDbCircle
 10
323.0736603528409
 20
172.5848913760551
 30
0.0
 40
106.0
100
AcDbArc
 50
270.0
 51
77.54420737409461
  0
LINE
  5
346
330
2
100
AcDbEntity
  8
L-CENTER
 48
3.0
100
AcDbLine
 10
323.0736603528409
 20
35.44250502452337
 30
0.0
 11
323.0736603528409
 21
350.5622134056371
 31
0.0
  0
LINE
  5
347
330
2
100
AcDbEntity
  8
L-CENTER
 48
3.0
100
AcDbLine
 10
193.0736603528413
 20
73.58489137605511
 30
0.0
 11
193.0736603528413
 21
21.58489137605511
 31
0.0
  0
LINE
  5
348
330
2
100
AcDbEntity
  8
4
100
AcDbLine
 10
191.0736603528409
 20
67.58489137605511
 30
0.0
 11
191.0736603528409
 21
120.8517975269183
 31
0.0
  0
LINE
  5
349
330
2
100
AcDbEntity
  8
L-CENTER
 48
3.0
100
AcDbLine
 10
453.0736603528413
 20
73.58489137605511
 30
0.0
 11
453.0736603528413
 21
21.58489137605511
 31
0.0
  0
LINE
  5
465
330
2
100
AcDbEntity
  8
4
100
AcDbLine
 10
399.5736603528408
 20
309.5848913760551
 30
0.0
 11
387.0736603528408
 21
309.5848913760551
 31
0.0
  0
LINE
  5
466
330
2
100
AcDbEntity
  8
4
100
AcDbLine
 10
399.5736603528408
 20
333.5848913760551
 30
0.0
 11
387.0736603528408
 21
333.5848913760551
 31
0.0
  0
LINE
  5
467
330
2
100
AcDbEntity
  8
4
100
AcDbLine
 10
363.0736603528405
 20
305.584891376055
 30
0.0
 11
439.0736603528408
 21
305.5848913760551
 31
0.0
  0
LINE
  5
468
330
2
100
AcDbEntity
  8
4
100
AcDbLine
 10
363.0736603528405
 20
337.5848913760551
 30
0.0
 11
439.0736603528408
 21
337.5848913760551
 31
0.0
  0
ARC
  5
469
330
2
100
AcDbEntity
  8
4
100
AcDbCircle
 10
323.073660352841
 20
265.5848913760551
 30
0.0
 40
18.0
100
AcDbArc
 50
180.0
 51
0.0
  0
LINE
  5
46A
330
2
100
AcDbEntity
  8
4
100
AcDbLine
 10
371.0736603528408
 20
332.5848913760551
 30
0.0
 11
371.0736603528408
 21
316.5848913760551
 31
0.0
  0
LINE
  5
46B
330
2
100
AcDbEntity
  8
4
100
AcDbLine
 10
386.0736603528408
 20
310.5848913760551
 30
0.0
 11
386.0736603528408
 21
332.5848913760551
 31
0.0
  0
LINE
  5
46C
330
2
100
AcDbEntity
  8
4
100
AcDbLine
 10
365.0736603528408
 20
332.5848913760551
 30
0.0
 11
365.0736603528408
 21
310.5848913760551
 31
0.0
  0
LINE
  5
46D
330
2
100
AcDbEntity
  8
4
100
AcDbLine
 10
361.0736603528405
 20
335.5848913760551
 30
0.0
 11
361.0736603528408
 21
307.5848913760551
 31
0.0
  0
LINE
  5
46F
330
2
100
AcDbEntity
  8
4
100
AcDbLine
 10
341.073660352841
 20
265.5848913760551
 30
0.0
 11
341.073660352841
 21
272.184088159965
 31
0.0
  0
LINE
  5
470
330
2
100
AcDbEntity
  8
4
100
AcDbLine
 10
380.5736603528408
 20
309.5848913760551
 30
0.0
 11
366.0736603528408
 21
309.5848913760551
 31
0.0
  0
ARC
  5
471
330
2
100
AcDbEntity
  8
4
100
AcDbCircle
 10
366.0736603528408
 20
310.5848913760551
 30
0.0
 40
1.0
100
AcDbArc
 50
180.0
 51
270.0
  0
ARC
  5
472
330
2
100
AcDbEntity
  8
4
100
AcDbCircle
 10
363.0736603528405
 20
307.5848913760551
 30
0.0
 40
2.0
100
AcDbArc
 50
180.0
 51
270.0
  0
ARC
  5
473
330
2
100
AcDbEntity
  8
4
100
AcDbCircle
 10
387.0736603528408
 20
310.5848913760551
 30
0.0
 40
1.0
100
AcDbArc
 50
180.0
 51
270.0
  0
ARC
  5
474
330
2
100
AcDbEntity
  8
4
100
AcDbCircle
 10
380.5736603528408
 20
310.5848913760551
 30
0.0
 40
1.0
100
AcDbArc
 50
270.0
 51
0.0
  0
LINE
  5
475
330
2
100
AcDbEntity
  8
4
100
AcDbLine
 10
380.5736603528408
 20
315.5848913760551
 30
0.0
 11
372.0736603528408
 21
315.5848913760551
 31
0.0
  0
ARC
  5
476
330
2
100
AcDbEntity
  8
4
100
AcDbCircle
 10
372.0736603528408
 20
316.5848913760551
 30
0.0
 40
1.0
100
AcDbArc
 50
180.0
 51
270.0
  0
LINE
  5
477
330
2
100
AcDbEntity
  8
4
100
AcDbLine
 10
381.5736603528408
 20
314.5848913760551
 30
0.0
 11
381.5736603528408
 21
310.5848913760551
 31
0.0
  0
ARC
  5
478
330
2
100
AcDbEntity
  8
4
100
AcDbCircle
 10
380.5736603528408
 20
314.5848913760551
 30
0.0
 40
1.0
100
AcDbArc
 50
0.0
 51
90.0
  0
LINE
  5
479
330
2
100
AcDbEntity
  8
4
100
AcDbLine
 10
370.0736603528408
 20
333.5848913760551
 30
0.0
 11
366.0736603528408
 21
333.5848913760551
 31
0.0
  0
ARC
  5
47A
330
2
100
AcDbEntity
  8
4
100
AcDbCircle
 10
363.0736603528405
 20
335.5848913760551
 30
0.0
 40
2.0
100
AcDbArc
 50
90.0
 51
180.0
  0
ARC
  5
47B
330
2
100
AcDbEntity
  8
4
100
AcDbCircle
 10
366.0736603528408
 20
332.5848913760551
 30
0.0
 40
1.0
100
AcDbArc
 50
90.0
 51
180.0
  0
ARC
  5
47C
330
2
100
AcDbEntity
  8
4
100
AcDbCircle
 10
370.0736603528408
 20
332.5848913760551
 30
0.0
 40
1.0
100
AcDbArc
 50
0.0
 51
90.0
  0
ARC
  5
47D
330
2
100
AcDbEntity
  8
4
100
AcDbCircle
 10
387.0736603528408
 20
332.5848913760551
 30
0.0
 40
1.0
100
AcDbArc
 50
90.0
 51
180.0
  0
ARC
  5
47E
330
2
100
AcDbEntity
  8
4
100
AcDbCircle
 10
435.5736603528408
 20
324.5848913760551
 30
0.0
 40
3.0
100
AcDbArc
 50
90.0
 51
255.52248781407
  0
LINE
  5
47F
330
2
100
AcDbEntity
  8
4
100
AcDbLine
 10
419.0736603528408
 20
332.5848913760551
 30
0.0
 11
419.0736603528408
 21
325.493218289253
 31
0.0
  0
LINE
  5
480
330
2
100
AcDbEntity
  8
4
100
AcDbLine
 10
441.0736603528408
 20
335.5848913760551
 30
0.0
 11
441.0736603528408
 21
307.5848913760551
 31
0.0
  0
LINE
  5
481
330
2
100
AcDbEntity
  8
4
100
AcDbLine
 10
404.0736603528408
 20
326.0848913760551
 30
0.0
 11
404.0736603528408
 21
329.0848913760551
 31
0.0
  0
ARC
  5
482
330
2
100
AcDbEntity
  8
4
100
AcDbCircle
 10
399.5736603528408
 20
314.0848913760551
 30
0.0
 40
4.5
100
AcDbArc
 50
270.0
 51
0.0
  0
LINE
  5
483
330
2
100
AcDbEntity
  8
4
100
AcDbLine
 10
404.0736603528408
 20
314.0848913760551
 30
0.0
 11
404.0736603528408
 21
317.0848913760551
 31
0.0
  0
ARC
  5
484
330
2
100
AcDbEntity
  8
4
100
AcDbCircle
 10
399.5736603528408
 20
317.0848913760551
 30
0.0
 40
4.5
100
AcDbArc
 50
0.0
 51
40.00520088485374
  0
ARC
  5
485
330
2
100
AcDbEntity
  8
4
100
AcDbCircle
 10
404.9355630002224
 20
321.5848913760551
 30
0.0
 40
2.5
100
AcDbArc
 50
139.9947991151461
 51
220.0052008848539
  0
ARC
  5
486
330
2
100
AcDbEntity
  8
4
100
AcDbCircle
 10
399.5736603528408
 20
326.0848913760551
 30
0.0
 40
4.5
100
AcDbArc
 50
319.9947991151463
 51
0.0
  0
ARC
  5
487
330
2
100
AcDbEntity
  8
4
100
AcDbCircle
 10
409.5736603528408
 20
323.5848913760551
 30
0.0
 40
1.0
100
AcDbArc
 50
90.0
 51
180.0
  0
ARC
  5
488
330
2
100
AcDbEntity
  8
4
100
AcDbCircle
 10
409.5736603528408
 20
319.5848913760551
 30
0.0
 40
1.0
100
AcDbArc
 50
180.0
 51
270.0
  0
LINE
  5
489
330
2
100
AcDbEntity
  8
4
100
AcDbLine
 10
408.5736603528408
 20
323.5848913760551
 30
0.0
 11
408.5736603528408
 21
319.5848913760551
 31
0.0
  0
ARC
  5
48A
330
2
100
AcDbEntity
  8
4
100
AcDbCircle
 10
413.5736603528408
 20
323.5848913760551
 30
0.0
 40
1.0
100
AcDbArc
 50
0.0
 51
90.0
  0
ARC
  5
48B
330
2
100
AcDbEntity
  8
4
100
AcDbCircle
 10
413.5736603528408
 20
319.5848913760551
 30
0.0
 40
1.0
100
AcDbArc
 50
270.0
 51
0.0
  0
LINE
  5
48C
330
2
100
AcDbEntity
  8
4
100
AcDbLine
 10
413.5736603528408
 20
318.5848913760551
 30
0.0
 11
409.5736603528408
 21
318.5848913760551
 31
0.0
  0
LINE
  5
48D
330
2
100
AcDbEntity
  8
4
100
AcDbLine
 10
413.5736603528408
 20
324.5848913760551
 30
0.0
 11
409.5736603528408
 21
324.5848913760551
 31
0.0
  0
LINE
  5
48E
330
2
100
AcDbEntity
  8
4
100
AcDbLine
 10
414.5736603528408
 20
323.5848913760551
 30
0.0
 11
414.5736603528408
 21
319.5848913760551
 31
0.0
  0
ARC
  5
48F
330
2
100
AcDbEntity
  8
4
100
AcDbCircle
 10
432.0736603528408
 20
314.5848913760551
 30
0.0
 40
5.0
100
AcDbArc
 50
270.0
 51
0.0
  0
ARC
  5
490
330
2
100
AcDbEntity
  8
4
100
AcDbCircle
 10
420.0736603528408
 20
310.5848913760551
 30
0.0
 40
1.0
100
AcDbArc
 50
180.0
 51
270.0
  0
ARC
  5
491
330
2
100
AcDbEntity
  8
4
100
AcDbCircle
 10
439.0736603528408
 20
307.5848913760551
 30
0.0
 40
2.0
100
AcDbArc
 50
270.0
 51
0.0
  0
LINE
  5
492
330
2
100
AcDbEntity
  8
4
100
AcDbLine
 10
432.0736603528408
 20
309.5848913760551
 30
0.0
 11
420.0736603528408
 21
309.5848913760551
 31
0.0
  0
ARC
  5
493
330
2
100
AcDbEntity
  8
4
100
AcDbCircle
 10
419.0736603528408
 20
320.0848913760551
 30
0.0
 40
4.5
100
AcDbArc
 50
280.4756816963804
 51
79.52431830361964
  0
LINE
  5
494
330
2
100
AcDbEntity
  8
4
100
AcDbLine
 10
419.0736603528408
 20
314.6765644628572
 30
0.0
 11
419.0736603528408
 21
310.5848913760551
 31
0.0
  0
ARC
  5
495
330
2
100
AcDbEntity
  8
4
100
AcDbCircle
 10
420.0736603528408
 20
314.6765644628572
 30
0.0
 40
1.0
100
AcDbArc
 50
100.4756816963802
 51
180.0
  0
ARC
  5
496
330
2
100
AcDbEntity
  8
4
100
AcDbCircle
 10
420.0736603528405
 20
325.493218289253
 30
0.0
 40
1.0
100
AcDbArc
 50
180.0
 51
259.5243183036197
  0
ARC
  5
497
330
2
100
AcDbEntity
  8
4
100
AcDbCircle
 10
434.0736603528408
 20
318.775416356742
 30
0.0
 40
3.0
100
AcDbArc
 50
0.0
 51
75.52248781407
  0
LINE
  5
498
330
2
100
AcDbEntity
  8
4
100
AcDbLine
 10
437.0736603528408
 20
318.775416356742
 30
0.0
 11
437.0736603528408
 21
314.5848913760551
 31
0.0
  0
ARC
  5
499
330
2
100
AcDbEntity
  8
4
100
AcDbCircle
 10
399.5736603528408
 20
329.0848913760551
 30
0.0
 40
4.5
100
AcDbArc
 50
0.0
 51
90.0
  0
LINE
  5
49A
330
2
100
AcDbEntity
  8
4
100
AcDbLine
 10
436.0736603528408
 20
333.5848913760551
 30
0.0
 11
420.0736603528408
 21
333.5848913760551
 31
0.0
  0
ARC
  5
49B
330
2
100
AcDbEntity
  8
4
100
AcDbCircle
 10
420.0736603528408
 20
332.5848913760551
 30
0.0
 40
1.0
100
AcDbArc
 50
90.0
 51
180.0
  0
ARC
  5
49C
330
2
100
AcDbEntity
  8
4
100
AcDbCircle
 10
439.0736603528408
 20
335.5848913760551
 30
0.0
 40
2.0
100
AcDbArc
 50
0.0
 51
90.0
  0
ARC
  5
49D
330
2
100
AcDbEntity
  8
4
100
AcDbCircle
 10
436.0736603528408
 20
332.5848913760551
 30
0.0
 40
1.0
100
AcDbArc
 50
0.0
 51
90.0
  0
ARC
  5
49E
330
2
100
AcDbEntity
  8
4
100
AcDbCircle
 10
436.0736603528408
 20
328.5848913760551
 30
0.0
 40
1.0
100
AcDbArc
 50
270.0
 51
0.0
  0
LINE
  5
49F
330
2
100
AcDbEntity
  8
4
100
AcDbLine
 10
436.0736603528408
 20
327.5848913760551
 30
0.0
 11
435.5736603528408
 21
327.5848913760551
 31
0.0
  0
LINE
  5
4A0
330
2
100
AcDbEntity
  8
4
100
AcDbLine
 10
437.0736603528408
 20
332.5848913760551
 30
0.0
 11
437.0736603528408
 21
328.5848913760551
 31
0.0
  0
LINE
  5
4A2
330
2
100
AcDbEntity
  8
4
100
AcDbLine
 10
305.0736603528408
 20
265.5848913760551
 30
0.0
 11
305.0736603528408
 21
272.184088159965
 31
0.0
  0
LINE
  5
4A3
330
2
100
AcDbEntity
  8
4
100
AcDbLine
 10
799.647885785738
 20
307.82826409365
 30
0.0
 11
801.6010670505739
 21
335.7600575009251
 31
0.0
  0
ARC
  5
4A4
330
2
100
AcDbEntity
  8
4
100
AcDbCircle
 10
801.6430138862577
 20
307.6887511461616
 30
0.0
 40
2.0
100
AcDbArc
 50
175.999999999997
 51
265.9999999999905
  0
LINE
  5
4A5
330
2
100
AcDbEntity
  8
4
100
AcDbLine
 10
801.5035009387695
 20
305.693623045642
 30
0.0
 11
802.7935345685753
 21
305.6034151066098
 31
0.0
  0
ARC
  5
4A6
330
2
100
AcDbEntity
  8
4
100
AcDbCircle
 10
803.5961951510935
 20
335.6205445534367
 30
0.0
 40
2.0
100
AcDbArc
 50
85.9999999999905
 51
175.999999999997
  0
LINE
  5
4A7
330
2
100
AcDbEntity
  8
4
100
AcDbLine
 10
803.7357080985817
 20
337.6156726539565
 30
0.0
 11
805.1708536481972
 21
337.5153175009971
 31
0.0
  0
ARC
  5
523
330
2
100
AcDbEntity
  8
4
100
AcDbCircle
 10
345.073660352841
 20
272.184088159965
 30
0.0
 40
4.0
100
AcDbArc
 50
77.54420737409448
 51
180.0
  0
ARC
  5
524
330
2
100
AcDbEntity
  8
4
100
AcDbCircle
 10
301.0736603528408
 20
272.184088159965
 30
0.0
 40
4.0
100
AcDbArc
 50
0.0
 51
102.4557926259055
  0
LINE
  5
562
330
2
100
AcDbEntity
  8
4
100
AcDbLine
 10
671.6501183029111
 20
154.5848913760528
 30
0.0
 11
671.6501183029111
 21
195.0848913760551
 31
0.0
  0
LINE
  5
563
330
2
100
AcDbEntity
  8
4
100
AcDbLine
 10
741.6501183029116
 20
191.5848913760551
 30
0.0
 11
741.6501183029116
 21
195.0848913760551
 31
0.0
  0
LINE
  5
564
330
2
100
AcDbEntity
  8
4
100
AcDbLine
 10
746.6501183029116
 20
152.5848913760551
 30
0.0
 11
746.6501183029116
 21
192.5848913760551
 31
0.0
  0
LINE
  5
565
330
2
100
AcDbEntity
  8
4
100
AcDbLine
 10
765.6501183029109
 20
203.5848913760551
 30
0.0
 11
764.6501183029109
 21
203.5848913760551
 31
0.0
  0
LINE
  5
566
330
2
100
AcDbEntity
  8
4
100
AcDbLine
 10
765.6501183029109
 20
141.5848913760551
 30
0.0
 11
764.6501183029113
 21
141.5848913760551
 31
0.0
  0
LINE
  5
567
330
2
100
AcDbEntity
  8
4
100
AcDbLine
 10
764.6501183029113
 20
141.5848913760551
 30
0.0
 11
764.6501183029109
 21
203.5848913760551
 31
0.0
  0
LINE
  5
568
330
2
100
AcDbEntity
  8
4
100
AcDbLine
 10
764.650118302911
 20
192.5848913760551
 30
0.0
 11
746.6501183029106
 21
192.5848913760551
 31
0.0
  0
LINE
  5
569
330
2
100
AcDbEntity
  8
4
100
AcDbLine
 10
764.6501183029112
 20
152.5848913760551
 30
0.0
 11
746.6501183029106
 21
152.5848913760551
 31
0.0
  0
LINE
  5
56A
330
2
100
AcDbEntity
  8
4
100
AcDbLine
 10
741.6501183029116
 20
195.0848913760551
 30
0.0
 11
671.6501183029111
 21
195.0848913760551
 31
0.0
  0
LINE
  5
56B
330
2
100
AcDbEntity
  8
4
100
AcDbLine
 10
746.6501183029106
 20
153.5848913760551
 30
0.0
 11
672.6501183029088
 21
153.5848913760551
 31
0.0
  0
LINE
  5
56C
330
2
100
AcDbEntity
  8
4
100
AcDbLine
 10
746.6501183029106
 20
191.5848913760551
 30
0.0
 11
672.6501183029102
 21
191.5848913760551
 31
0.0
  0
LINE
  5
573
330
2
100
AcDbEntity
  8
4
100
AcDbLine
 10
318.0736603528411
 20
195.084891376055
 30
0.0
 11
328.0736603528409
 21
195.084891376055
 31
0.0
  0
LINE
  5
574
330
2
100
AcDbEntity
  8
4
100
AcDbLine
 10
318.0736603528413
 20
187.084891376055
 30
0.0
 11
328.0736603528409
 21
187.084891376055
 31
0.0
  0
LINE
  5
575
330
2
100
AcDbEntity
  8
4
100
AcDbLine
 10
318.0736603528411
 20
195.084891376055
 30
0.0
 11
318.0736603528413
 21
187.084891376055
 31
0.0
  0
LINE
  5
576
330
2
100
AcDbEntity
  8
4
100
AcDbLine
 10
328.0736603528409
 20
195.084891376055
 30
0.0
 11
328.0736603528409
 21
187.084891376055
 31
0.0
  0
ARC
  5
577
330
2
100
AcDbEntity
  8
4
100
AcDbCircle
 10
323.0736603528409
 20
172.584891376055
 30
0.0
 40
19.0
100
AcDbArc
 50
105.2575232904553
 51
74.74247670954186
  0
CIRCLE
  5
579
330
2
100
AcDbEntity
  8
4
100
AcDbCircle
 10
323.0736603528409
 20
172.5848913760551
 30
0.0
 40
31.0
  0
LINE
  5
58D
330
2
100
AcDbEntity
  8
4
100
AcDbLine
 10
303.0736603528396
 20
632.0476323646385
 30
0.0
 11
303.0736603528394
 21
614.0476323646355
 31
0.0
  0
LINE
  5
58E
330
2
100
AcDbEntity
  8
4
100
AcDbLine
 10
304.073660352838
 20
540.0476323646355
 30
0.0
 11
305.073660352838
 21
539.0476323646355
 31
0.0
  0
LINE
  5
58F
330
2
100
AcDbEntity
  8
4
100
AcDbLine
 10
304.073660352838
 20
540.0476323646355
 30
0.0
 11
318.073660352838
 21
540.0476323646351
 31
0.0
  0
ARC
  5
590
330
2
100
AcDbEntity
  8
4
100
AcDbCircle
 10
323.0736603528393
 20
604.0476323646351
 30
0.0
 40
5.0
100
AcDbArc
 50
89.9999999999987
 51
180.0
  0
LINE
  5
591
330
2
100
AcDbEntity
  8
4
100
AcDbLine
 10
323.0736603528393
 20
609.0476323646351
 30
0.0
 11
323.0736603528393
 21
609.0476323646351
 31
0.0
  0
ARC
  5
592
330
2
100
AcDbEntity
  8
4
100
AcDbCircle
 10
303.0736603528395
 20
613.0476323646355
 30
0.0
 40
1.0
100
AcDbArc
 50
0.0
 51
90.0
  0
LINE
  5
593
330
2
100
AcDbEntity
  8
4
100
AcDbLine
 10
304.0736603528394
 20
613.0476323646355
 30
0.0
 11
304.073660352838
 21
540.0476323646355
 31
0.0
  0
LINE
  5
594
330
2
100
AcDbEntity
  8
4
100
AcDbLine
 10
318.0736603528392
 20
604.0476323646351
 30
0.0
 11
318.073660352838
 21
539.0476323646351
 31
0.0
  0
LINE
  5
595
330
2
100
AcDbEntity
  8
4
100
AcDbLine
 10
341.073660352838
 20
539.0476323646349
 30
0.0
 11
342.073660352838
 21
540.0476323646346
 31
0.0
  0
LINE
  5
596
330
2
100
AcDbEntity
  8
4
100
AcDbLine
 10
328.073660352838
 20
540.0476323646351
 30
0.0
 11
342.073660352838
 21
540.0476323646346
 31
0.0
  0
LINE
  5
597
330
2
100
AcDbEntity
  8
4
100
AcDbLine
 10
305.073660352838
 20
539.0476323646355
 30
0.0
 11
341.073660352838
 21
539.0476323646349
 31
0.0
  0
ARC
  5
598
330
2
100
AcDbEntity
  8
4
100
AcDbCircle
 10
323.0736603528393
 20
604.0476323646351
 30
0.0
 40
5.0
100
AcDbArc
 50
0.0
 51
89.9999999999987
  0
ARC
  5
599
330
2
100
AcDbEntity
  8
4
100
AcDbCircle
 10
343.0736603528395
 20
613.0476323646346
 30
0.0
 40
1.0
100
AcDbArc
 50
90.0
 51
180.0
  0
LINE
  5
59A
330
2
100
AcDbEntity
  8
4
100
AcDbLine
 10
343.0736603528396
 20
632.0476323646374
 30
0.0
 11
343.0736603528394
 21
614.0476323646346
 31
0.0
  0
LINE
  5
59B
330
2
100
AcDbEntity
  8
4
100
AcDbLine
 10
303.0736603528394
 20
614.0476323646355
 30
0.0
 11
343.0736603528394
 21
614.0476323646346
 31
0.0
  0
LINE
  5
59C
330
2
100
AcDbEntity
  8
4
100
AcDbLine
 10
342.0736603528394
 20
613.0476323646346
 30
0.0
 11
342.073660352838
 21
540.0476323646346
 31
0.0
  0
LINE
  5
59D
330
2
100
AcDbEntity
  8
4
100
AcDbLine
 10
328.0736603528392
 20
604.0476323646351
 30
0.0
 11
328.073660352838
 21
539.0476323646351
 31
0.0
  0
LINE
  5
59E
330
2
100
AcDbEntity
  8
4
100
AcDbLine
 10
354.0736603528393
 20
632.047632364637
 30
0.0
 11
354.0736603528393
 21
633.047632364637
 31
0.0
  0
LINE
  5
59F
330
2
100
AcDbEntity
  8
4
100
AcDbLine
 10
292.0736603528393
 20
632.0476323646388
 30
0.0
 11
292.0736603528396
 21
633.0476323646379
 31
0.0
  0
LINE
  5
5A0
330
2
100
AcDbEntity
  8
4
100
AcDbLine
 10
354.0736603528393
 20
632.047632364637
 30
0.0
 11
292.0736603528393
 21
632.0476323646388
 31
0.0
  0
LINE
  5
5B1
330
2
100
AcDbEntity
  8
4
100
AcDbLine
 10
1030.650118302911
 20
153.5848913760526
 30
0.0
 11
1031.650118302911
 21
154.5848913760526
 31
0.0
  0
LINE
  5
5B2
330
2
100
AcDbEntity
  8
4
100
AcDbLine
 10
1030.650118302911
 20
153.5848913760526
 30
0.0
 11
1030.650118302912
 21
191.5848913760551
 31
0.0
  0
LINE
  5
5B3
330
2
100
AcDbEntity
  8
4
100
AcDbLine
 10
1031.650118302912
 20
190.5848913760526
 30
0.0
 11
1030.650118302912
 21
191.5848913760526
 31
0.0
  0
LINE
  5
5B4
330
2
100
AcDbEntity
  8
4
100
AcDbLine
 10
672.6501183029113
 20
153.5848913760526
 30
0.0
 11
671.6501183029113
 21
154.5848913760526
 31
0.0
  0
LINE
  5
5B5
330
2
100
AcDbEntity
  8
4
100
AcDbLine
 10
672.6501183029113
 20
153.5848913760526
 30
0.0
 11
672.6501183029102
 21
191.5848913760551
 31
0.0
  0
LINE
  5
5B6
330
2
100
AcDbEntity
  8
4
100
AcDbLine
 10
671.6501183029106
 20
190.5848913760526
 30
0.0
 11
672.6501183029104
 21
191.5848913760526
 31
0.0
  0
ENDSEC
  0
SECTION
  2
OBJECTS
  0
DICTIONARY
  5
C
330
0
100
AcDbDictionary
281
     1
  3
ACAD_CIP_PREVIOUS_PRODUCT_INFO
350
4FA
  3
ACAD_COLOR
350
4A
  3
ACAD_DETAILVIEWSTYLE
350
4F4
  3
ACAD_GROUP
350
37
  3
ACAD_LAYOUT
350
19
  3
ACAD_MATERIAL
350
E
  3
ACAD_MLEADERSTYLE
350
4D
  3
ACAD_MLINESTYLE
350
38
  3
ACAD_PLOTSETTINGS
350
39
  3
ACAD_PLOTSTYLENAME
350
B
  3
ACAD_SCALELIST
350
4B
  3
ACAD_SECTIONVIEWSTYLE
350
4F2
  3
ACAD_TABLESTYLE
350
4C
  3
ACAD_VISUALSTYLE
350
2F
  3
ACDBHEADERROUNDTRIPXREC
350
5BA
  3
AcDbVariableDictionary
350
4D1
  3
DWGPROPS
350
5BD
  0
DICTIONARY
  5
31
330
2C
100
AcDbDictionary
280
     1
281
     1
  3
ACAD_XREC_ROUNDTRIP
360
5BE
  0
DICTIONARY
  5
22
330
21
100
AcDbDictionary
280
     1
281
     1
  3
ACAD_LAYERSTATES
360
23
  0
DICTIONARY
  5
8
330
7
100
AcDbDictionary
280
     1
281
     1
  3
ADSK_XREC_LAYER_RECONCILED
360
9
  0
DICTIONARY
  5
352
330
351
100
AcDbDictionary
280
     1
281
     1
  3
ADSK_XREC_LAYER_RECONCILED
360
353
  0
DICTIONARY
  5
4F
330
4E
100
AcDbDictionary
280
     1
281
     1
  3
ADSK_XREC_LAYER_RECONCILED
360
50
  0
DICTIONARY
  5
69
330
68
100
AcDbDictionary
280
     1
281
     1
  3
ADSK_XREC_LAYER_RECONCILED
360
6A
  0
DICTIONARY
  5
9E
330
9D
100
AcDbDictionary
280
     1
281
     1
  3
ADSK_XREC_LAYER_RECONCILED
360
9F
  0
DICTIONARY
  5
14A
330
149
100
AcDbDictionary
280
     1
281
     1
  3
ADSK_XREC_LAYER_RECONCILED
360
14B
  0
DICTIONARY
  5
3
330
2
100
AcDbDictionary
280
     1
281
     1
  3
ACAD_SORTENTS
360
4CF
  0
XRECORD
  5
4FA
102
{ACAD_REACTORS
330
C
102
}
330
C
100
AcDbXrecord
280
     1
300
ACD
300
2014
300
ACD_F_S
  0
DICTIONARY
  5
4A
102
{ACAD_REACTORS
330
C
102
}
330
C
100
AcDbDictionary
281
     1
  0
DICTIONARY
  5
4F4
102
{ACAD_REACTORS
330
C
102
}
330
C
100
AcDbDictionary
281
     1
  3
Imperial24
350
4F5
  0
DICTIONARY
  5
37
102
{ACAD_REACTORS
330
C
102
}
330
C
100
AcDbDictionary
281
     1
  0
DICTIONARY
  5
19
102
{ACAD_REACTORS
330
C
102
}
330
C
100
AcDbDictionary
281
     1
  3
Model
350
18
  3
レイアウト1
350
20
  0
DICTIONARY
  5
E
102
{ACAD_REACTORS
330
C
102
}
330
C
100
AcDbDictionary
281
     1
  3
ByBlock
350
42
  3
ByLayer
350
3A
  3
Global
350
D
  0
DICTIONARY
  5
4D
102
{ACAD_REACTORS
330
C
102
}
330
C
100
AcDbDictionary
281
     1
  3
Standard
350
4F1
  0
DICTIONARY
  5
38
102
{ACAD_REACTORS
330
C
102
}
330
C
100
AcDbDictionary
281
     1
  3
STANDARD
350
52
  0
DICTIONARY
  5
39
102
{ACAD_REACTORS
330
C
102
}
330
C
100
AcDbDictionary
281
     1
  0
ACDBDICTIONARYWDFLT
  5
B
102
{ACAD_REACTORS
330
C
102
}
330
C
100
AcDbDictionary
281
     1
  3
Normal
350
A
100
AcDbDictionaryWithDefault
340
A
  0
DICTIONARY
  5
4B
102
{ACAD_REACTORS
330
C
102
}
330
C
100
AcDbDictionary
281
     1
  3
A0
350
56
  3
A1
350
57
  3
A2
350
58
  3
A3
350
59
  3
A4
350
5A
  3
A5
350
5B
  3
A6
350
5C
  3
A7
350
5D
  3
A8
350
5E
  3
A9
350
5F
  3
B0
350
60
  3
B1
350
61
  3
B2
350
62
  3
B3
350
63
  3
B4
350
64
  3
B5
350
65
  3
B6
350
66
  0
DICTIONARY
  5
4F2
102
{ACAD_REACTORS
330
C
102
}
330
C
100
AcDbDictionary
281
     1
  3
Imperial24
350
4F3
  0
DICTIONARY
  5
4C
102
{ACAD_REACTORS
330
C
102
}
330
C
100
AcDbDictionary
281
     1
  3
Standard
350
53
  0
DICTIONARY
  5
2F
102
{ACAD_REACTORS
330
C
102
}
330
C
100
AcDbDictionary
281
     1
  3
2dWireframe
350
2E
  3
Basic
350
4E0
  3
Brighten
350
4E4
  3
ColorChange
350
4E8
  3
Conceptual
350
4E2
  3
Dim
350
4E3
  3
EdgeColorOff
350
4F0
  3
Facepattern
350
4E7
  3
Flat
350
4DC
  3
FlatWithEdges
350
4DD
  3
Gouraud
350
4DE
  3
GouraudWithEdges
350
4DF
  3
Hidden
350
4E1
  3
JitterOff
350
4EE
  3
Linepattern
350
4E6
  3
OverhangOff
350
4EF
  3
Realistic
350
54
  3
Shaded
350
4ED
  3
Shaded with edges
350
4EC
  3
Shades of Gray
350
4E9
  3
Sketchy
350
4EA
  3
Thicken
350
4E5
  3
Wireframe
350
55
  3
X-Ray
350
4EB
  0
DICTIONARY
  5
5BA
102
{ACAD_REACTORS
330
C
102
}
330
C
100
AcDbDictionary
281
     1
  3
COLORDICT
350
5BB
  3
MATERIALDICT
350
5BC
  0
DICTIONARY
  5
4D1
102
{ACAD_REACTORS
330
C
102
}
330
C
100
AcDbDictionary
281
     1
  3
CANNOSCALE
350
4D7
  3
CMLEADERSTYLE
350
4D3
  3
CTABLESTYLE
350
4D2
  3
CVIEWDETAILSTYLE
350
4D4
  3
CVIEWSECTIONSTYLE
350
4D5
  3
DIMASSOC
350
5B8
  3
HIDETEXT
350
5B9
  3
LAYEREVAL
350
4D9
  3
LAYERNOTIFY
350
4DA
  3
LIGHTINGUNITS
350
4D8
  3
MSLTSCALE
350
4D6
  3
XCLIPFRAME
350
55E
  0
XRECORD
  5
5BD
102
{ACAD_REACTORS
330
C
102
}
330
C
100
AcDbXrecord
280
     1
  1
DWGPROPS COOKIE
  2

  3

  4

  6

  7

  8
sg-d04
  9

300
=
301
=
302
=
303
=
304
=
305
=
306
=
307
=
308
=
309
=
 40
0.0
 41
2457417.220968299
 42
2457871.455504063
  1

 90
        0
  0
XRECORD
  5
5BE
102
{ACAD_REACTORS
330
31
102
}
330
31
100
AcDbXrecord
280
     1
102
VTR_0.000_0.000_1.000_1.000_VISUALSTYLE
340
2E
102
VTR_0.000_0.000_1.000_1.000_GRIDDISPLAY
 70
     3
102
VTR_0.000_0.000_1.000_1.000_GRIDMAJOR
 70
     5
102
VTR_0.000_0.000_1.000_1.000_DEFAULTLIGHTING
280
     1
102
VTR_0.000_0.000_1.000_1.000_DEFAULTLIGHTINGTYPE
 70
     1
102
VTR_0.000_0.000_1.000_1.000_BRIGHTNESS
141
0.0
102
VTR_0.000_0.000_1.000_1.000_CONTRAST
142
0.0
  0
DICTIONARY
  5
23
102
{ACAD_REACTORS
330
22
102
}
330
22
100
AcDbDictionary
281
     1
  0
XRECORD
  5
9
102
{ACAD_REACTORS
330
8
102
}
330
8
100
AcDbXrecord
280
     1
290
     1
  0
XRECORD
  5
353
102
{ACAD_REACTORS
330
352
102
}
330
352
100
AcDbXrecord
280
     1
290
     1
  0
XRECORD
  5
50
102
{ACAD_REACTORS
330
4F
102
}
330
4F
100
AcDbXrecord
280
     1
290
     1
  0
XRECORD
  5
6A
102
{ACAD_REACTORS
330
69
102
}
330
69
100
AcDbXrecord
280
     1
290
     1
  0
XRECORD
  5
9F
102
{ACAD_REACTORS
330
9E
102
}
330
9E
100
AcDbXrecord
280
     1
290
     1
  0
XRECORD
  5
14B
102
{ACAD_REACTORS
330
14A
102
}
330
14A
100
AcDbXrecord
280
     1
290
     1
  0
SORTENTSTABLE
  5
4CF
102
{ACAD_REACTORS
330
3
102
}
330
3
100
AcDbSortentsTable
330
2
331
0
  5
158
331
136
  5
137
331
137
  5
138
331
138
  5
139
331
139
  5
13A
331
13A
  5
13B
331
13B
  5
13C
331
13C
  5
13D
331
13D
  5
13E
331
13E
  5
13F
331
13F
  5
140
331
140
  5
141
331
141
  5
142
331
142
  5
143
331
143
  5
144
331
144
  5
145
331
145
  5
146
331
146
  5
147
331
147
  5
148
331
15C
  5
15D
331
15D
  5
15E
331
15E
  5
15F
331
15F
  5
160
331
160
  5
161
331
161
  5
162
331
163
  5
164
331
164
  5
165
331
165
  5
166
331
166
  5
167
331
167
  5
168
331
168
  5
169
331
169
  5
16A
331
16A
  5
16B
331
170
  5
171
331
171
  5
172
331
172
  5
173
331
173
  5
174
331
174
  5
175
331
175
  5
176
331
176
  5
177
331
177
  5
178
331
178
  5
179
331
179
  5
17A
331
17A
  5
17B
331
17B
  5
17C
331
17C
  5
17D
331
17D
  5
17E
331
17E
  5
17F
331
17F
  5
180
331
180
  5
181
331
181
  5
182
331
182
  5
183
331
183
  5
184
331
184
  5
185
331
185
  5
186
331
186
  5
187
331
187
  5
188
331
188
  5
189
331
189
  5
18A
331
18A
  5
18B
331
18B
  5
18C
331
18C
  5
18D
331
193
  5
194
331
194
  5
195
331
195
  5
196
331
196
  5
197
331
197
  5
198
331
198
  5
199
331
19A
  5
19B
331
19B
  5
19C
331
19C
  5
19D
331
19D
  5
19E
331
19E
  5
19F
331
19F
  5
1A0
331
1A0
  5
1A1
331
1A1
  5
1A2
331
1A2
  5
1A3
331
1A3
  5
1A4
331
1AE
  5
1AF
331
1AF
  5
1B0
331
1B0
  5
1B1
331
1B1
  5
1B2
331
1B2
  5
1B3
331
1B3
  5
1B4
331
1B4
  5
1B5
331
1B5
  5
1B6
331
1B6
  5
1B7
331
1B7
  5
1B8
331
1B8
  5
1B9
331
1B9
  5
1BA
331
1BA
  5
1BB
331
1BB
  5
1BC
331
1BC
  5
1BD
331
1BD
  5
1BE
331
1BE
  5
1BF
331
1BF
  5
1C0
331
1C0
  5
1C1
331
1C1
  5
1C2
331
1C2
  5
1C3
331
1C3
  5
1C4
331
1C4
  5
1C5
331
1C5
  5
1C6
331
1C6
  5
1C7
331
1C7
  5
1C8
331
1C8
  5
1C9
331
1C9
  5
1CA
331
1CA
  5
1CB
331
1CB
  5
1CC
331
1CC
  5
1CD
331
1CD
  5
1CE
331
1CE
  5
1CF
331
1CF
  5
1D0
331
1D0
  5
1D1
331
1D1
  5
1D2
331
1D2
  5
1D3
331
1D3
  5
1D4
331
1D4
  5
1D5
331
1D5
  5
1D6
331
1D6
  5
1D7
331
1D7
  5
1D8
331
1D8
  5
1D9
331
1D9
  5
1DA
331
1DA
  5
1DB
331
1DB
  5
1DD
331
1EC
  5
1EE
331
1ED
  5
1EF
331
1EE
  5
1F0
331
1EF
  5
1F1
331
1F2
  5
1F4
331
1F3
  5
1F5
331
1F4
  5
1F6
331
1F6
  5
1F8
331
1F9
  5
1FB
331
1FA
  5
1FC
331
1FB
  5
1FD
331
200
  5
202
331
203
  5
205
331
204
  5
206
331
209
  5
20B
331
212
  5
214
331
213
  5
215
331
214
  5
216
331
215
  5
217
331
216
  5
218
331
217
  5
219
331
218
  5
21A
331
219
  5
21B
331
21A
  5
21C
331
21B
  5
21D
331
21C
  5
21E
331
21D
  5
21F
331
21E
  5
220
331
21F
  5
221
331
220
  5
222
331
22A
  5
22C
331
22B
  5
22D
331
22C
  5
22E
331
22D
  5
22F
331
22E
  5
230
331
22F
  5
231
331
230
  5
232
331
231
  5
233
331
232
  5
234
331
233
  5
235
331
234
  5
236
331
239
  5
23B
331
23A
  5
23C
331
23B
  5
23D
331
23C
  5
23E
331
23D
  5
23F
331
23E
  5
240
331
23F
  5
241
331
240
  5
242
331
241
  5
243
331
242
  5
244
331
243
  5
245
331
244
  5
246
331
245
  5
247
331
246
  5
248
331
247
  5
249
331
248
  5
24A
331
249
  5
24B
331
24A
  5
24C
331
24D
  5
24F
331
24E
  5
250
331
24F
  5
251
331
250
  5
252
331
251
  5
253
331
252
  5
254
331
253
  5
255
331
254
  5
256
331
255
  5
257
331
256
  5
258
331
257
  5
259
331
258
  5
25A
331
259
  5
25B
331
25A
  5
25C
331
25B
  5
25D
331
25C
  5
25E
331
25D
  5
25F
331
25E
  5
260
331
25F
  5
261
331
260
  5
262
331
261
  5
263
331
262
  5
264
331
263
  5
265
331
264
  5
266
331
265
  5
267
331
266
  5
268
331
267
  5
269
331
268
  5
26A
331
269
  5
26B
331
26A
  5
26C
331
26B
  5
26D
331
26C
  5
26E
331
26D
  5
26F
331
26E
  5
270
331
26F
  5
271
331
270
  5
272
331
271
  5
273
331
272
  5
274
331
273
  5
275
331
274
  5
276
331
275
  5
277
331
276
  5
278
331
277
  5
279
331
278
  5
27A
331
279
  5
27B
331
27A
  5
27C
331
27B
  5
27D
331
27C
  5
27E
331
27D
  5
27F
331
27E
  5
280
331
27F
  5
281
331
280
  5
282
331
281
  5
283
331
282
  5
284
331
283
  5
285
331
284
  5
286
331
285
  5
287
331
286
  5
288
331
287
  5
289
331
288
  5
28A
331
289
  5
28B
331
28A
  5
28C
331
28B
  5
28D
331
28C
  5
28E
331
28D
  5
28F
331
28E
  5
290
331
28F
  5
291
331
290
  5
292
331
291
  5
293
331
292
  5
294
331
293
  5
295
331
294
  5
296
331
295
  5
297
331
296
  5
298
331
297
  5
299
331
298
  5
29A
331
299
  5
29B
331
29A
  5
29C
331
29B
  5
29D
331
29C
  5
29E
331
29D
  5
29F
331
29E
  5
2A0
331
29F
  5
2A1
331
2A0
  5
2A2
331
2A1
  5
2A3
331
2A2
  5
2A4
331
2A3
  5
2A5
331
2A4
  5
2A6
331
2A5
  5
2A7
331
2A6
  5
2A8
331
2A7
  5
2A9
331
2A9
  5
2AB
331
2AA
  5
2AC
331
2AB
  5
2AD
331
2AD
  5
2AF
331
2AE
  5
2B0
331
2AF
  5
2B1
331
2B0
  5
2B2
331
2B1
  5
2B3
331
2B2
  5
2B4
331
2B3
  5
2B5
331
2B4
  5
2B6
331
2B5
  5
2B7
331
2B6
  5
2B8
331
2B7
  5
2B9
331
2B8
  5
2BA
331
2B9
  5
2BB
331
2BA
  5
2BC
331
2BB
  5
2BD
331
2BC
  5
2BE
331
2BD
  5
2BF
331
2BE
  5
2C0
331
2BF
  5
2C1
331
2C0
  5
2C2
331
2C1
  5
2C3
331
2C5
  5
2C7
331
2C8
  5
2CA
331
2CB
  5
2CD
331
2CD
  5
2CF
331
2CE
  5
2D0
331
2CF
  5
2D1
331
2D0
  5
2D2
331
2D1
  5
2D3
331
2D3
  5
2D5
331
2D4
  5
2D6
331
2D5
  5
2D7
331
2D6
  5
2D8
331
2D7
  5
2D9
331
2DC
  5
2DE
331
2DD
  5
2DF
331
2E9
  5
2EB
331
2EA
  5
2EC
331
2EB
  5
2ED
331
2EC
  5
2EE
331
2ED
  5
2EF
331
2EE
  5
2F0
331
316
  5
318
331
317
  5
319
331
321
  5
323
331
322
  5
324
331
33A
  5
33C
331
33B
  5
33D
331
33C
  5
33E
331
33D
  5
33F
331
33E
  5
340
331
33F
  5
341
331
340
  5
342
331
341
  5
343
331
342
  5
345
331
343
  5
346
331
344
  5
347
331
345
  5
348
331
346
  5
34A
331
347
  5
34B
331
348
  5
34C
331
349
  5
34D
331
465
  5
469
331
466
  5
46A
331
467
  5
46B
331
468
  5
46C
331
469
  5
46D
331
46A
  5
46F
331
46B
  5
470
331
46C
  5
471
331
46D
  5
472
331
46F
  5
473
331
470
  5
474
331
471
  5
475
331
472
  5
476
331
473
  5
477
331
474
  5
478
331
475
  5
479
331
476
  5
47A
331
477
  5
47B
331
478
  5
47C
331
479
  5
47D
331
47A
  5
47E
331
47B
  5
47F
331
47C
  5
480
331
47D
  5
481
331
47E
  5
482
331
47F
  5
483
331
480
  5
484
331
481
  5
485
331
482
  5
486
331
483
  5
487
331
484
  5
488
331
485
  5
489
331
486
  5
48A
331
487
  5
48B
331
488
  5
48C
331
489
  5
48D
331
48A
  5
48E
331
48B
  5
48F
331
48C
  5
490
331
48D
  5
491
331
48E
  5
492
331
48F
  5
493
331
490
  5
494
331
491
  5
495
331
492
  5
496
331
493
  5
497
331
494
  5
498
331
495
  5
499
331
496
  5
49A
331
497
  5
49B
331
498
  5
49C
331
499
  5
49D
331
49A
  5
49E
331
49B
  5
49F
331
49C
  5
4A0
331
49D
  5
4A2
331
49E
  5
4A3
331
49F
  5
4A4
331
4A0
  5
4A5
331
4A2
  5
4A6
331
4A3
  5
4A7
331
4A4
  5
4A8
331
4A5
  5
4A9
331
4A6
  5
4AA
331
4A7
  5
4AB
331
523
  5
349
331
524
  5
344
331
562
  5
564
331
563
  5
565
331
564
  5
566
331
565
  5
567
331
566
  5
568
331
567
  5
569
331
568
  5
56A
331
569
  5
56B
331
56A
  5
56C
331
56B
  5
56D
331
56C
  5
56E
331
573
  5
575
331
574
  5
576
331
575
  5
577
331
576
  5
578
331
577
  5
579
331
579
  5
57B
331
58D
  5
58E
331
58E
  5
58F
331
58F
  5
590
331
590
  5
591
331
591
  5
592
331
592
  5
593
331
593
  5
594
331
594
  5
595
331
595
  5
596
331
596
  5
597
331
597
  5
598
331
598
  5
599
331
599
  5
59A
331
59A
  5
59B
331
59B
  5
59C
331
59C
  5
59D
331
59D
  5
59E
331
59E
  5
59F
331
59F
  5
5A0
331
5A0
  5
5A1
  0
ACDBDETAILVIEWSTYLE
  5
4F5
102
{ACAD_REACTORS
330
4F4
102
}
102
{ACAD_XDICTIONARY
360
50C
102
}
330
4F4
100
AcDbModelDocViewStyle
 70
     0
  3
Imperial24
290
     0
100
AcDbDetailViewStyle
 70
     0
 71
     0
 90
        3
 71
     1
340
25
 40
0.24
340
0
 40
0.24
300

 40
0.36
280
     3
 71
     2
340
16
 90
       25
 71
     3
340
25
 40
0.24
 90
        1
 40
0.75
 90
        1
300
%<\AcVar ViewType \f "%tc1">% %<\AcVar ViewDetailId>%\PSCALE %<\AcVar ViewScale \f "%sn">%
 71
     4
340
16
 90
       25
340
16
 90
       25
280
     0
  0
LAYOUT
  5
18
102
{ACAD_REACTORS
330
19
102
}
330
19
100
AcDbPlotSettings
  1

  2
Bullzip PDF Printer.pc3
  4
A3
  6

 40
0.2
 41
0.0
 42
0.0
 43
0.0
 44
420.2
 45
297.1
 46
25.0
 47
12.0
 48
59.99999986
 49
0.0
140
1205.999997235
141
817.4999980924995
142
1.0
143
3.0
 70
 11936
 72
     1
 73
     0
 74
     4
  7
monochrome.ctb
 75
     0
147
0.3333333333333333
148
-59.99999986
149
0.0
100
AcDbLayout
  1
Model
 70
     0
 71
     0
 10
0.0
 20
0.0
 11
12.0
 21
9.0
 12
0.0
 22
0.0
 32
0.0
 14
163.0736603528406
 24
21.58489137605511
 34
0.0
 15
1037.686481718533
 25
905.0839957802586
 35
0.0
146
0.0
 13
0.0
 23
0.0
 33
0.0
 16
1.0
 26
0.0
 36
0.0
 17
0.0
 27
1.0
 37
0.0
 76
     0
330
2
331
2D
1001
ACAD_PSEXT
1000
Bullzip PDF Printer.pc3
1000
Bullzip PDF Printer
1000
BULLZIP
1000
Bullzip PDF Printer 10.1.0.1871
1070
     0
  0
LAYOUT
  5
20
102
{ACAD_REACTORS
330
19
102
}
330
19
100
AcDbPlotSettings
  1

  2
RICOH imagio Neo 250 RP-GL/2
  4

  6

 40
0.0
 41
0.0
 42
0.0
 43
0.0
 44
0.0
 45
0.0
 46
0.0
 47
0.0
 48
0.0
 49
0.0
140
0.0
141
0.0
142
1.0
143
1.0
 70
   688
 72
     0
 73
     0
 74
     5
  7
monochrome.ctb
 75
    16
147
1.0
148
0.0
149
0.0
100
AcDbLayout
  1
レイアウト1
 70
     0
 71
     1
 10
0.0
 20
0.0
 11
12.0
 21
9.0
 12
0.0
 22
0.0
 32
0.0
 14
1.000000000000000E+20
 24
1.000000000000000E+20
 34
1.000000000000000E+20
 15
-1.000000000000000E+20
 25
-1.000000000000000E+20
 35
-1.000000000000000E+20
146
0.0
 13
0.0
 23
0.0
 33
0.0
 16
1.0
 26
0.0
 36
0.0
 17
0.0
 27
1.0
 37
0.0
 76
     0
330
1B
  0
MATERIAL
  5
42
102
{ACAD_REACTORS
330
E
102
}
102
{ACAD_XDICTIONARY
360
5C0
102
}
330
E
100
AcDbMaterial
  1
ByBlock
 72
     0
 73
     2
 43
0.0208333333333333
 43
0.0
 43
0.0
 43
0.0
 43
0.0
 43
0.0208333333333333
 43
0.0
 43
0.0
 43
0.0
 43
0.0
 43
1.0
 43
0.0
 43
0.0
 43
0.0
 43
0.0
 43
1.0
 77
     0
 78
     2
 47
0.0208333333333333
 47
0.0
 47
0.0
 47
0.0
 47
0.0
 47
0.0208333333333333
 47
0.0
 47
0.0
 47
0.0
 47
0.0
 47
1.0
 47
0.0
 47
0.0
 47
0.0
 47
0.0
 47
1.0
171
     0
172
     2
 49
0.0208333333333333
 49
0.0
 49
0.0
 49
0.0
 49
0.0
 49
0.0208333333333333
 49
0.0
 49
0.0
 49
0.0
 49
0.0
 49
1.0
 49
0.0
 49
0.0
 49
0.0
 49
0.0
 49
1.0
175
     0
176
     2
142
0.0208333333333333
142
0.0
142
0.0
142
0.0
142
0.0
142
0.0208333333333333
142
0.0
142
0.0
142
0.0
142
0.0
142
1.0
142
0.0
142
0.0
142
0.0
142
0.0
142
1.0
179
     0
270
     2
144
0.0208333333333333
144
0.0
144
0.0
144
0.0
144
0.0
144
0.0208333333333333
144
0.0
144
0.0
144
0.0
144
0.0
144
1.0
144
0.0
144
0.0
144
0.0
144
0.0
144
1.0
274
     2
147
0.0208333333333333
147
0.0
147
0.0
147
0.0
147
0.0
147
0.0208333333333333
147
0.0
147
0.0
147
0.0
147
0.0
147
1.0
147
0.0
147
0.0
147
0.0
147
0.0
147
1.0
  0
MATERIAL
  5
3A
102
{ACAD_REACTORS
330
E
102
}
102
{ACAD_XDICTIONARY
360
5C2
102
}
330
E
100
AcDbMaterial
  1
ByLayer
 72
     0
 73
     2
 43
0.0208333333333333
 43
0.0
 43
0.0
 43
0.0
 43
0.0
 43
0.0208333333333333
 43
0.0
 43
0.0
 43
0.0
 43
0.0
 43
1.0
 43
0.0
 43
0.0
 43
0.0
 43
0.0
 43
1.0
 77
     0
 78
     2
 47
0.0208333333333333
 47
0.0
 47
0.0
 47
0.0
 47
0.0
 47
0.0208333333333333
 47
0.0
 47
0.0
 47
0.0
 47
0.0
 47
1.0
 47
0.0
 47
0.0
 47
0.0
 47
0.0
 47
1.0
171
     0
172
     2
 49
0.0208333333333333
 49
0.0
 49
0.0
 49
0.0
 49
0.0
 49
0.0208333333333333
 49
0.0
 49
0.0
 49
0.0
 49
0.0
 49
1.0
 49
0.0
 49
0.0
 49
0.0
 49
0.0
 49
1.0
175
     0
176
     2
142
0.0208333333333333
142
0.0
142
0.0
142
0.0
142
0.0
142
0.0208333333333333
142
0.0
142
0.0
142
0.0
142
0.0
142
1.0
142
0.0
142
0.0
142
0.0
142
0.0
142
1.0
179
     0
270
     2
144
0.0208333333333333
144
0.0
144
0.0
144
0.0
144
0.0
144
0.0208333333333333
144
0.0
144
0.0
144
0.0
144
0.0
144
1.0
144
0.0
144
0.0
144
0.0
144
0.0
144
1.0
274
     2
147
0.0208333333333333
147
0.0
147
0.0
147
0.0
147
0.0
147
0.0208333333333333
147
0.0
147
0.0
147
0.0
147
0.0
147
1.0
147
0.0
147
0.0
147
0.0
147
0.0
147
1.0
  0
MATERIAL
  5
D
102
{ACAD_REACTORS
330
E
102
}
102
{ACAD_XDICTIONARY
360
5C4
102
}
330
E
100
AcDbMaterial
  1
Global
 72
     0
 73
     2
 43
0.0208333333333333
 43
0.0
 43
0.0
 43
0.0
 43
0.0
 43
0.0208333333333333
 43
0.0
 43
0.0
 43
0.0
 43
0.0
 43
1.0
 43
0.0
 43
0.0
 43
0.0
 43
0.0
 43
1.0
 77
     0
 78
     2
 47
0.0208333333333333
 47
0.0
 47
0.0
 47
0.0
 47
0.0
 47
0.0208333333333333
 47
0.0
 47
0.0
 47
0.0
 47
0.0
 47
1.0
 47
0.0
 47
0.0
 47
0.0
 47
0.0
 47
1.0
171
     0
172
     2
 49
0.0208333333333333
 49
0.0
 49
0.0
 49
0.0
 49
0.0
 49
0.0208333333333333
 49
0.0
 49
0.0
 49
0.0
 49
0.0
 49
1.0
 49
0.0
 49
0.0
 49
0.0
 49
0.0
 49
1.0
175
     0
176
     2
142
0.0208333333333333
142
0.0
142
0.0
142
0.0
142
0.0
142
0.0208333333333333
142
0.0
142
0.0
142
0.0
142
0.0
142
1.0
142
0.0
142
0.0
142
0.0
142
0.0
142
1.0
179
     0
270
     2
144
0.0208333333333333
144
0.0
144
0.0
144
0.0
144
0.0
144
0.0208333333333333
144
0.0
144
0.0
144
0.0
144
0.0
144
1.0
144
0.0
144
0.0
144
0.0
144
0.0
144
1.0
274
     2
147
0.0208333333333333
147
0.0
147
0.0
147
0.0
147
0.0
147
0.0208333333333333
147
0.0
147
0.0
147
0.0
147
0.0
147
1.0
147
0.0
147
0.0
147
0.0
147
0.0
147
1.0
1001
ACAD
1070
    -1
1070
     3
1070
     0
1000

1071
        0
  0
MLEADERSTYLE
  5
4F1
102
{ACAD_REACTORS
330
4D
102
}
102
{ACAD_XDICTIONARY
360
5C6
102
}
330
4D
100
AcDbMLeaderStyle
170
     2
171
     1
172
     0
 90
        2
 40
0.0
 41
0.0
173
     1
 91
-1056964608
340
28
 92
       -2
290
     1
 42
0.09
291
     1
 43
0.36
  3
Standard
341
0
 44
0.18
300

342
25
174
     1
178
     6
175
     1
176
     0
 93
-1056964608
 45
0.18
292
     0
297
     0
 46
0.18
343
0
 94
-1056964608
 47
1.0
 49
1.0
140
1.0
293
     1
141
0.0
294
     1
177
     0
142
1.0
295
     1
296
     0
143
0.125
1001
ACAD_MLEADERVER
1070
     2
  0
MLINESTYLE
  5
52
102
{ACAD_REACTORS
330
38
102
}
330
38
100
AcDbMlineStyle
  2
STANDARD
 70
     0
  3

 62
     0
 51
90.0
 52
90.0
 71
     2
 49
0.5
 62
   256
  6
BYLAYER
 49
-0.5
 62
   256
  6
BYLAYER
  0
ACDBPLACEHOLDER
  5
A
102
{ACAD_REACTORS
330
B
102
}
330
B
  0
SCALE
  5
56
102
{ACAD_REACTORS
330
4B
102
}
330
4B
100
AcDbScale
 70
     0
300
1:1
140
1.0
141
1.0
290
     1
  0
SCALE
  5
57
102
{ACAD_REACTORS
330
4B
102
}
330
4B
100
AcDbScale
 70
     0
300
1/128" = 1'-0"
140
0.0078125
141
12.0
290
     0
  0
SCALE
  5
58
102
{ACAD_REACTORS
330
4B
102
}
330
4B
100
AcDbScale
 70
     0
300
1/64" = 1'-0"
140
0.015625
141
12.0
290
     0
  0
SCALE
  5
59
102
{ACAD_REACTORS
330
4B
102
}
330
4B
100
AcDbScale
 70
     0
300
1/32" = 1'-0"
140
0.03125
141
12.0
290
     0
  0
SCALE
  5
5A
102
{ACAD_REACTORS
330
4B
102
}
330
4B
100
AcDbScale
 70
     0
300
1/16" = 1'-0"
140
0.0625
141
12.0
290
     0
  0
SCALE
  5
5B
102
{ACAD_REACTORS
330
4B
102
}
330
4B
100
AcDbScale
 70
     0
300
3/32" = 1'-0"
140
0.09375
141
12.0
290
     0
  0
SCALE
  5
5C
102
{ACAD_REACTORS
330
4B
102
}
330
4B
100
AcDbScale
 70
     0
300
1/8" = 1'-0"
140
0.125
141
12.0
290
     0
  0
SCALE
  5
5D
102
{ACAD_REACTORS
330
4B
102
}
330
4B
100
AcDbScale
 70
     0
300
3/16" = 1'-0"
140
0.1875
141
12.0
290
     0
  0
SCALE
  5
5E
102
{ACAD_REACTORS
330
4B
102
}
330
4B
100
AcDbScale
 70
     0
300
1/4" = 1'-0"
140
0.25
141
12.0
290
     0
  0
SCALE
  5
5F
102
{ACAD_REACTORS
330
4B
102
}
330
4B
100
AcDbScale
 70
     0
300
3/8" = 1'-0"
140
0.375
141
12.0
290
     0
  0
SCALE
  5
60
102
{ACAD_REACTORS
330
4B
102
}
330
4B
100
AcDbScale
 70
     0
300
1/2" = 1'-0"
140
0.5
141
12.0
290
     0
  0
SCALE
  5
61
102
{ACAD_REACTORS
330
4B
102
}
330
4B
100
AcDbScale
 70
     0
300
3/4" = 1'-0"
140
0.75
141
12.0
290
     0
  0
SCALE
  5
62
102
{ACAD_REACTORS
330
4B
102
}
330
4B
100
AcDbScale
 70
     0
300
1" = 1'-0"
140
1.0
141
12.0
290
     0
  0
SCALE
  5
63
102
{ACAD_REACTORS
330
4B
102
}
330
4B
100
AcDbScale
 70
     0
300
1-1/2" = 1'-0"
140
1.5
141
12.0
290
     0
  0
SCALE
  5
64
102
{ACAD_REACTORS
330
4B
102
}
330
4B
100
AcDbScale
 70
     0
300
3" = 1'-0"
140
3.0
141
12.0
290
     0
  0
SCALE
  5
65
102
{ACAD_REACTORS
330
4B
102
}
330
4B
100
AcDbScale
 70
     0
300
6" = 1'-0"
140
6.0
141
12.0
290
     0
  0
SCALE
  5
66
102
{ACAD_REACTORS
330
4B
102
}
330
4B
100
AcDbScale
 70
     0
300
1'-0" = 1'-0"
140
12.0
141
12.0
290
     0
  0
ACDBSECTIONVIEWSTYLE
  5
4F3
102
{ACAD_REACTORS
330
4F2
102
}
102
{ACAD_XDICTIONARY
360
50A
102
}
330
4F2
100
AcDbModelDocViewStyle
 70
     0
  3
Imperial24
290
     0
100
AcDbSectionViewStyle
 70
     0
 71
     0
 90
       78
 71
     1
340
25
 40
0.24
340
0
340
0
 40
0.24
300
I, O, Q, S, X, Z
 40
0.48
 90
        3
 40
0.18
 90
        1
 71
     2
340
16
 90
       25
340
16
 90
       50
 40
0.24
 40
0.0
 40
0.24
 71
     3
340
25
 40
0.24
 90
        1
 40
0.75
 90
        1
300
%<\AcVar ViewType \f "%tc1">% %<\AcVar ViewSectionStartId>%-%<\AcVar ViewSectionEndId>%\PSCALE %<\AcVar ViewScale \f "%sn">%
 71
     4
300
ANSI31
 40
1.0
 90
        0
290
     0
290
     0
 90
        6
 40
0.0
 40
1.570796326794897
 40
0.2617993877991494
 40
1.308996938995747
 40
-0.2617993877991494
 40
1.832595714594046
  0
TABLESTYLE
  5
53
102
{ACAD_REACTORS
330
4C
102
}
330
4C
100
AcDbTableStyle
  3
Standard
 70
     0
 71
     0
 40
0.06
 41
0.06
280
     0
281
     0
  7
STANDARD
140
0.18
170
     2
 62
     0
 63
   257
283
     0
274
    -2
284
     1
 64
     0
275
    -2
285
     1
 65
     0
276
    -2
286
     1
 66
     0
277
    -2
287
     1
 67
     0
278
    -2
288
     1
 68
     0
279
    -2
289
     1
 69
     0
  7
STANDARD
140
0.25
170
     5
 62
     0
 63
   257
283
     0
274
    -2
284
     1
 64
     0
275
    -2
285
     1
 65
     0
276
    -2
286
     1
 66
     0
277
    -2
287
     1
 67
     0
278
    -2
288
     1
 68
     0
279
    -2
289
     1
 69
     0
  7
STANDARD
140
0.18
170
     5
 62
     0
 63
   257
283
     0
274
    -2
284
     1
 64
     0
275
    -2
285
     1
 65
     0
276
    -2
286
     1
 66
     0
277
    -2
287
     1
 67
     0
278
    -2
288
     1
 68
     0
279
    -2
289
     1
 69
     0
  0
VISUALSTYLE
  5
2E
102
{ACAD_REACTORS
330
2F
102
}
102
{ACAD_XDICTIONARY
360
5C9
102
}
330
2F
100
AcDbVisualStyle
  2
2dWireframe
 70
     4
 71
     0
 72
     2
 73
     0
 90
        0
 40
0.6
 41
30.0
 62
     5
 63
     7
 74
     1
 91
        4
 64
     7
 65
   257
 75
     1
175
     1
 42
1.0
 92
        0
 66
   257
 43
1.0
 76
     1
 77
     6
 78
     2
 67
     7
 79
     5
170
     0
171
     0
290
     0
174
     0
 93
        1
 44
0.0
173
     0
291
     0
 45
0.0
1001
ACAD
1000
AcDbSavedByObjectVersion
1070
     0
  0
VISUALSTYLE
  5
4E0
102
{ACAD_REACTORS
330
2F
102
}
102
{ACAD_XDICTIONARY
360
5CB
102
}
330
2F
100
AcDbVisualStyle
  2
Basic
 70
     7
 71
     1
 72
     0
 73
     1
 90
        0
 40
0.6
 41
30.0
 62
     5
 63
     7
 74
     0
 91
        4
 64
     7
 65
   257
 75
     1
175
     1
 42
1.0
 92
        8
 66
     7
 43
1.0
 76
     1
 77
     6
 78
     2
 67
     7
 79
     5
170
     0
171
     0
290
     0
174
     0
 93
        1
 44
0.0
173
     0
291
     1
 45
0.0
1001
ACAD
1000
AcDbSavedByObjectVersion
1070
     0
  0
VISUALSTYLE
  5
4E4
102
{ACAD_REACTORS
330
2F
102
}
102
{ACAD_XDICTIONARY
360
5CD
102
}
330
2F
100
AcDbVisualStyle
  2
Brighten
 70
    12
 71
     2
 72
     2
 73
     0
 90
        0
 40
0.6
 41
30.0
 62
     5
 63
     7
 74
     1
 91
        4
 64
     7
 65
   257
 75
     1
175
     1
 42
1.0
 92
        8
 66
     7
 43
1.0
 76
     1
 77
     6
 78
     2
 67
     7
 79
     5
170
     0
171
     0
290
     0
174
     0
 93
        1
 44
50.0
173
     0
291
     1
 45
0.0
1001
ACAD
1000
AcDbSavedByObjectVersion
1070
     0
  0
VISUALSTYLE
  5
4E8
102
{ACAD_REACTORS
330
2F
102
}
102
{ACAD_XDICTIONARY
360
5CF
102
}
330
2F
100
AcDbVisualStyle
  2
ColorChange
 70
    16
 71
     2
 72
     2
 73
     3
 90
        0
 40
0.6
 41
30.0
 62
     5
 63
     8
 74
     1
 91
        4
 64
     7
 65
   257
 75
     1
175
     1
 42
1.0
 92
        8
 66
     8
 43
1.0
 76
     1
 77
     6
 78
     2
 67
     7
 79
     5
170
     0
171
     0
290
     0
174
     0
 93
        1
 44
0.0
173
     0
291
     1
 45
0.0
1001
ACAD
1000
AcDbSavedByObjectVersion
1070
     0
  0
VISUALSTYLE
  5
4E2
102
{ACAD_REACTORS
330
2F
102
}
102
{ACAD_XDICTIONARY
360
5D1
102
}
330
2F
100
AcDbVisualStyle
  2
Conceptual
 70
     9
 71
     3
 72
     2
 73
     0
 90
        0
 40
0.6
 41
30.0
 62
     5
 63
     7
 74
     2
 91
        2
 64
     7
 65
   257
 75
     1
175
     1
 42
179.0
 92
        8
 66
     7
 43
1.0
 76
     1
 77
     6
 78
     2
 67
     7
 79
     3
170
     0
171
     0
290
     0
174
     0
 93
        1
 44
0.0
173
     0
291
     0
 45
0.0
1001
ACAD
1000
AcDbSavedByObjectVersion
1070
     0
  0
VISUALSTYLE
  5
4E3
102
{ACAD_REACTORS
330
2F
102
}
102
{ACAD_XDICTIONARY
360
5D3
102
}
330
2F
100
AcDbVisualStyle
  2
Dim
 70
    11
 71
     2
 72
     2
 73
     0
 90
        0
 40
0.6
 41
30.0
 62
     5
 63
     7
 74
     1
 91
        4
 64
     7
 65
   257
 75
     1
175
     1
 42
1.0
 92
        8
 66
     7
 43
1.0
 76
     1
 77
     6
 78
     2
 67
     7
 79
     5
170
     0
171
     0
290
     0
174
     0
 93
        1
 44
-50.0
173
     0
291
     1
 45
0.0
1001
ACAD
1000
AcDbSavedByObjectVersion
1070
     0
  0
VISUALSTYLE
  5
4F0
102
{ACAD_REACTORS
330
2F
102
}
102
{ACAD_XDICTIONARY
360
5D5
102
}
330
2F
100
AcDbVisualStyle
  2
EdgeColorOff
 70
    22
 71
     2
 72
     2
 73
     0
 90
        0
 40
0.6
 41
30.0
 62
     5
 63
     7
 74
     1
 91
        4
 64
     7
 65
   257
 75
     1
175
     1
 42
1.0
 92
        8
 66
     7
 43
1.0
 76
     1
 77
     6
 78
     2
 67
     7
 79
     5
170
     0
171
     0
290
     0
174
     0
 93
        1
 44
0.0
173
     0
291
     1
 45
0.0
1001
ACAD
1000
AcDbSavedByObjectVersion
1070
     0
  0
VISUALSTYLE
  5
4E7
102
{ACAD_REACTORS
330
2F
102
}
102
{ACAD_XDICTIONARY
360
5D7
102
}
330
2F
100
AcDbVisualStyle
  2
Facepattern
 70
    15
 71
     2
 72
     2
 73
     0
 90
        0
 40
0.6
 41
30.0
 62
     5
 63
     7
 74
     1
 91
        4
 64
     7
 65
   257
 75
     1
175
     1
 42
1.0
 92
        8
 66
     7
 43
1.0
 76
     1
 77
     6
 78
     2
 67
     7
 79
     5
170
     0
171
     0
290
     0
174
     0
 93
        1
 44
0.0
173
     0
291
     1
 45
0.0
1001
ACAD
1000
AcDbSavedByObjectVersion
1070
     0
  0
VISUALSTYLE
  5
4DC
102
{ACAD_REACTORS
330
2F
102
}
102
{ACAD_XDICTIONARY
360
5D9
102
}
330
2F
100
AcDbVisualStyle
  2
Flat
 70
     0
 71
     2
 72
     1
 73
     1
 90
        2
 40
0.6
 41
30.0
 62
     5
 63
     7
 74
     0
 91
        0
 64
     7
 65
   257
 75
     1
175
     1
 42
1.0
 92
        8
 66
     7
 43
1.0
 76
     1
 77
     6
 78
     2
 67
     7
 79
     5
170
     0
171
     0
290
     0
174
     0
 93
       13
 44
0.0
173
     0
291
     1
 45
0.0
1001
ACAD
1000
AcDbSavedByObjectVersion
1070
     0
  0
VISUALSTYLE
  5
4DD
102
{ACAD_REACTORS
330
2F
102
}
102
{ACAD_XDICTIONARY
360
5DB
102
}
330
2F
100
AcDbVisualStyle
  2
FlatWithEdges
 70
     1
 71
     2
 72
     1
 73
     1
 90
        2
 40
0.6
 41
30.0
 62
     5
 63
     7
 74
     1
 91
        0
 64
     7
 65
   257
 75
     1
175
     1
 42
1.0
 92
        0
 66
   257
 43
1.0
 76
     1
 77
     6
 78
     2
 67
     7
 79
     5
170
     0
171
     0
290
     0
174
     0
 93
       13
 44
0.0
173
     0
291
     1
 45
0.0
1001
ACAD
1000
AcDbSavedByObjectVersion
1070
     0
  0
VISUALSTYLE
  5
4DE
102
{ACAD_REACTORS
330
2F
102
}
102
{ACAD_XDICTIONARY
360
5DD
102
}
330
2F
100
AcDbVisualStyle
  2
Gouraud
 70
     2
 71
     2
 72
     2
 73
     1
 90
        2
 40
0.6
 41
30.0
 62
     5
 63
     7
 74
     0
 91
        0
 64
     7
 65
   257
 75
     1
175
     1
 42
1.0
 92
        0
 66
     7
 43
1.0
 76
     1
 77
     6
 78
     2
 67
     7
 79
     5
170
     0
171
     0
290
     0
174
     0
 93
       13
 44
0.0
173
     0
291
     1
 45
0.0
1001
ACAD
1000
AcDbSavedByObjectVersion
1070
     0
  0
VISUALSTYLE
  5
4DF
102
{ACAD_REACTORS
330
2F
102
}
102
{ACAD_XDICTIONARY
360
5DF
102
}
330
2F
100
AcDbVisualStyle
  2
GouraudWithEdges
 70
     3
 71
     2
 72
     2
 73
     1
 90
        2
 40
0.6
 41
30.0
 62
     5
 63
     7
 74
     1
 91
        0
 64
     7
 65
   257
 75
     1
175
     1
 42
1.0
 92
        0
 66
   257
 43
1.0
 76
     1
 77
     6
 78
     2
 67
     7
 79
     5
170
     0
171
     0
290
     0
174
     0
 93
       13
 44
0.0
173
     0
291
     1
 45
0.0
1001
ACAD
1000
AcDbSavedByObjectVersion
1070
     0
  0
VISUALSTYLE
  5
4E1
102
{ACAD_REACTORS
330
2F
102
}
102
{ACAD_XDICTIONARY
360
5E1
102
}
330
2F
100
AcDbVisualStyle
  2
Hidden
 70
     6
 71
     1
 72
     2
 73
     2
 90
        0
 40
0.6
 41
30.0
 62
     5
 63
     7
 74
     2
 91
        2
 64
     7
 65
   257
 75
     2
175
     1
 42
40.0
 92
        0
 66
   257
 43
1.0
 76
     1
 77
     6
 78
     2
 67
     7
 79
     3
170
     0
171
     0
290
     0
174
     0
 93
        1
 44
0.0
173
     0
291
     0
 45
0.0
1001
ACAD
1000
AcDbSavedByObjectVersion
1070
     0
  0
VISUALSTYLE
  5
4EE
102
{ACAD_REACTORS
330
2F
102
}
102
{ACAD_XDICTIONARY
360
5E3
102
}
330
2F
100
AcDbVisualStyle
  2
JitterOff
 70
    20
 71
     2
 72
     2
 73
     0
 90
        0
 40
0.6
 41
30.0
 62
     5
 63
     7
 74
     1
 91
        4
 64
     7
 65
   257
 75
     1
175
     1
 42
1.0
 92
       10
 66
     7
 43
1.0
 76
     1
 77
     6
 78
     2
 67
     7
 79
     5
170
     0
171
     0
290
     0
174
     0
 93
        1
 44
0.0
173
     0
291
     1
 45
0.0
1001
ACAD
1000
AcDbSavedByObjectVersion
1070
     0
  0
VISUALSTYLE
  5
4E6
102
{ACAD_REACTORS
330
2F
102
}
102
{ACAD_XDICTIONARY
360
5E5
102
}
330
2F
100
AcDbVisualStyle
  2
Linepattern
 70
    14
 71
     2
 72
     2
 73
     0
 90
        0
 40
0.6
 41
30.0
 62
     5
 63
     7
 74
     1
 91
        4
 64
     7
 65
   257
 75
     7
175
     7
 42
1.0
 92
        8
 66
     7
 43
1.0
 76
     1
 77
     6
 78
     2
 67
     7
 79
     5
170
     0
171
     0
290
     0
174
     0
 93
        1
 44
0.0
173
     0
291
     1
 45
0.0
1001
ACAD
1000
AcDbSavedByObjectVersion
1070
     0
  0
VISUALSTYLE
  5
4EF
102
{ACAD_REACTORS
330
2F
102
}
102
{ACAD_XDICTIONARY
360
5E7
102
}
330
2F
100
AcDbVisualStyle
  2
OverhangOff
 70
    21
 71
     2
 72
     2
 73
     0
 90
        0
 40
0.6
 41
30.0
 62
     5
 63
     7
 74
     1
 91
        4
 64
     7
 65
   257
 75
     1
175
     1
 42
1.0
 92
        9
 66
     7
 43
1.0
 76
     1
 77
     6
 78
     2
 67
     7
 79
     5
170
     0
171
     0
290
     0
174
     0
 93
        1
 44
0.0
173
     0
291
     1
 45
0.0
1001
ACAD
1000
AcDbSavedByObjectVersion
1070
     0
  0
VISUALSTYLE
  5
54
102
{ACAD_REACTORS
330
2F
102
}
102
{ACAD_XDICTIONARY
360
5E9
102
}
330
2F
100
AcDbVisualStyle
  2
Realistic
 70
     8
 71
     2
 72
     3
 73
     0
 90
        2
 40
0.6
 41
30.0
 62
     5
 63
     7
 74
     0
 91
        0
 64
     7
 65
   257
 75
     1
175
     1
 42
1.0
 92
        8
 66
   257
 43
1.0
 76
     1
 77
     6
 78
     2
 67
     7
 79
     3
170
     0
171
     0
290
     0
174
     0
 93
       13
 44
0.0
173
     0
291
     0
 45
0.0
1001
ACAD
1000
AcDbSavedByObjectVersion
1070
     0
  0
VISUALSTYLE
  5
4ED
102
{ACAD_REACTORS
330
2F
102
}
102
{ACAD_XDICTIONARY
360
5EB
102
}
330
2F
100
AcDbVisualStyle
  2
Shaded
 70
    27
 71
     2
 72
     2
 73
     1
 90
        2
 40
0.6
 41
30.0
 62
     5
 63
     7
 74
     0
 91
        4
 64
     7
 65
   257
 75
     1
175
     1
 42
1.0
 92
        8
 66
   257
 43
1.0
 76
     1
 77
     6
 78
     2
 67
     8
 79
     3
170
     0
171
     0
290
     0
174
     0
 93
        5
 44
0.0
173
     0
291
     0
 45
0.0
1001
ACAD
1000
AcDbSavedByObjectVersion
1070
     0
  0
VISUALSTYLE
  5
4EC
102
{ACAD_REACTORS
330
2F
102
}
102
{ACAD_XDICTIONARY
360
5ED
102
}
330
2F
100
AcDbVisualStyle
  2
Shaded with edges
 70
    26
 71
     2
 72
     2
 73
     1
 90
        2
 40
0.6
 41
30.0
 62
     5
 63
     7
 74
     1
 91
       10
 64
     7
 65
   257
 75
     2
175
     1
 42
1.0
 92
        8
 66
   257
 43
1.0
 76
     1
 77
     6
 78
     2
 67
     7
 79
     3
170
     0
171
     0
290
     0
174
     0
 93
        5
 44
0.0
173
     0
291
     0
 45
0.0
1001
ACAD
1000
AcDbSavedByObjectVersion
1070
     0
  0
VISUALSTYLE
  5
4E9
102
{ACAD_REACTORS
330
2F
102
}
102
{ACAD_XDICTIONARY
360
5EF
102
}
330
2F
100
AcDbVisualStyle
  2
Shades of Gray
 70
    23
 71
     2
 72
     2
 73
     3
 90
        0
 40
0.6
 41
30.0
 62
     5
 63
     7
 74
     2
 91
        2
 64
     7
 65
     7
 75
     1
175
     1
 42
40.0
 92
        8
 66
     7
 43
1.0
 76
     1
 77
     6
 78
     2
 67
     7
 79
     3
170
     0
171
     0
290
     0
174
     0
 93
        1
 44
0.0
173
     0
291
     0
 45
0.0
1001
ACAD
1000
AcDbSavedByObjectVersion
1070
     0
  0
VISUALSTYLE
  5
4EA
102
{ACAD_REACTORS
330
2F
102
}
102
{ACAD_XDICTIONARY
360
5F1
102
}
330
2F
100
AcDbVisualStyle
  2
Sketchy
 70
    24
 71
     1
 72
     2
 73
     2
 90
        0
 40
0.6
 41
30.0
 62
     5
 63
     7
 74
     2
 91
        2
 64
     7
 65
     7
 75
     1
175
     1
 42
40.0
 92
       11
 66
     7
 43
1.0
 76
     1
 77
     6
 78
     2
 67
     7
 79
     6
170
     0
171
     0
290
     0
174
     0
 93
        1
 44
0.0
173
     0
291
     0
 45
0.0
1001
ACAD
1000
AcDbSavedByObjectVersion
1070
     0
  0
VISUALSTYLE
  5
4E5
102
{ACAD_REACTORS
330
2F
102
}
102
{ACAD_XDICTIONARY
360
5F3
102
}
330
2F
100
AcDbVisualStyle
  2
Thicken
 70
    13
 71
     2
 72
     2
 73
     0
 90
        0
 40
0.6
 41
30.0
 62
     5
 63
     7
 74
     1
 91
        4
 64
     7
 65
   257
 75
     1
175
     1
 42
1.0
 92
       12
 66
     7
 43
1.0
 76
     1
 77
     6
 78
     2
 67
     7
 79
     5
170
     0
171
     0
290
     0
174
     0
 93
        1
 44
0.0
173
     0
291
     1
 45
0.0
1001
ACAD
1000
AcDbSavedByObjectVersion
1070
     0
  0
VISUALSTYLE
  5
55
102
{ACAD_REACTORS
330
2F
102
}
102
{ACAD_XDICTIONARY
360
5F5
102
}
330
2F
100
AcDbVisualStyle
  2
Wireframe
 70
     5
 71
     0
 72
     2
 73
     0
 90
        0
 40
0.6
 41
30.0
 62
     5
 63
     7
 74
     1
 91
        4
 64
     7
 65
   257
 75
     1
175
     1
 42
1.0
 92
        0
 66
   257
 43
1.0
 76
     1
 77
     6
 78
     2
 67
     7
 79
     3
170
     0
171
     0
290
     0
174
     0
 93
        1
 44
0.0
173
     0
291
     0
 45
0.0
1001
ACAD
1000
AcDbSavedByObjectVersion
1070
     0
  0
VISUALSTYLE
  5
4EB
102
{ACAD_REACTORS
330
2F
102
}
102
{ACAD_XDICTIONARY
360
5F7
102
}
330
2F
100
AcDbVisualStyle
  2
X-Ray
 70
    25
 71
     2
 72
     2
 73
     1
 90
        1
 40
0.5
 41
30.0
 62
     5
 63
     7
 74
     1
 91
        0
 64
     7
 65
   257
 75
     1
175
     1
 42
1.0
 92
        8
 66
     7
 43
1.0
 76
     1
 77
     6
 78
     2
 67
     7
 79
     3
170
     0
171
     0
290
     0
174
     0
 93
       13
 44
0.0
173
     0
291
     0
 45
0.0
1001
ACAD
1000
AcDbSavedByObjectVersion
1070
     0
  0
XRECORD
  5
5BB
102
{ACAD_REACTORS
330
5BA
102
}
330
5BA
100
AcDbXrecord
280
     1
340
4A
  0
XRECORD
  5
5BC
102
{ACAD_REACTORS
330
5BA
102
}
330
5BA
100
AcDbXrecord
280
     1
340
E
  0
DICTIONARYVAR
  5
4D7
102
{ACAD_REACTORS
330
4D1
102
}
330
4D1
100
DictionaryVariables
280
     0
  1
1:1
  0
DICTIONARYVAR
  5
4D3
102
{ACAD_REACTORS
330
4D1
102
}
330
4D1
100
DictionaryVariables
280
     0
  1
Standard
  0
DICTIONARYVAR
  5
4D2
102
{ACAD_REACTORS
330
4D1
102
}
330
4D1
100
DictionaryVariables
280
     0
  1
Standard
  0
DICTIONARYVAR
  5
4D4
102
{ACAD_REACTORS
330
4D1
102
}
330
4D1
100
DictionaryVariables
280
     0
  1
Imperial24
  0
DICTIONARYVAR
  5
4D5
102
{ACAD_REACTORS
330
4D1
102
}
330
4D1
100
DictionaryVariables
280
     0
  1
Imperial24
  0
DICTIONARYVAR
  5
5B8
102
{ACAD_REACTORS
330
4D1
102
}
330
4D1
100
DictionaryVariables
280
     0
  1
0
  0
DICTIONARYVAR
  5
5B9
102
{ACAD_REACTORS
330
4D1
102
}
330
4D1
100
DictionaryVariables
280
     0
  1
1
  0
DICTIONARYVAR
  5
4D9
102
{ACAD_REACTORS
330
4D1
102
}
330
4D1
100
DictionaryVariables
280
     0
  1
1
  0
DICTIONARYVAR
  5
4DA
102
{ACAD_REACTORS
330
4D1
102
}
330
4D1
100
DictionaryVariables
280
     0
  1
15
  0
DICTIONARYVAR
  5
4D8
102
{ACAD_REACTORS
330
4D1
102
}
330
4D1
100
DictionaryVariables
280
     0
  1
0
  0
DICTIONARYVAR
  5
4D6
102
{ACAD_REACTORS
330
4D1
102
}
330
4D1
100
DictionaryVariables
280
     0
  1
0
  0
DICTIONARYVAR
  5
55E
102
{ACAD_REACTORS
330
4D1
102
}
330
4D1
100
DictionaryVariables
280
     0
  1
0
  0
DICTIONARY
  5
50C
330
4F5
100
AcDbDictionary
280
     1
281
     1
  3
ACAD_XREC_ROUNDTRIP
360
5BF
  0
DICTIONARY
  5
5C0
330
42
100
AcDbDictionary
280
     1
281
     1
  3
ACAD_XREC_ROUNDTRIP
360
5C1
  0
DICTIONARY
  5
5C2
330
3A
100
AcDbDictionary
280
     1
281
     1
  3
ACAD_XREC_ROUNDTRIP
360
5C3
  0
DICTIONARY
  5
5C4
330
D
100
AcDbDictionary
280
     1
281
     1
  3
ACAD_XREC_ROUNDTRIP
360
5C5
  0
DICTIONARY
  5
5C6
330
4F1
100
AcDbDictionary
280
     1
281
     1
  3
ACAD_XREC_ROUNDTRIP
360
5C7
  0
DICTIONARY
  5
50A
330
4F3
100
AcDbDictionary
280
     1
281
     1
  3
ACAD_XREC_ROUNDTRIP
360
5C8
  0
DICTIONARY
  5
5C9
330
2E
100
AcDbDictionary
280
     1
281
     1
  3
ACAD_XREC_ROUNDTRIP
360
5CA
  0
DICTIONARY
  5
5CB
330
4E0
100
AcDbDictionary
280
     1
281
     1
  3
ACAD_XREC_ROUNDTRIP
360
5CC
  0
DICTIONARY
  5
5CD
330
4E4
100
AcDbDictionary
280
     1
281
     1
  3
ACAD_XREC_ROUNDTRIP
360
5CE
  0
DICTIONARY
  5
5CF
330
4E8
100
AcDbDictionary
280
     1
281
     1
  3
ACAD_XREC_ROUNDTRIP
360
5D0
  0
DICTIONARY
  5
5D1
330
4E2
100
AcDbDictionary
280
     1
281
     1
  3
ACAD_XREC_ROUNDTRIP
360
5D2
  0
DICTIONARY
  5
5D3
330
4E3
100
AcDbDictionary
280
     1
281
     1
  3
ACAD_XREC_ROUNDTRIP
360
5D4
  0
DICTIONARY
  5
5D5
330
4F0
100
AcDbDictionary
280
     1
281
     1
  3
ACAD_XREC_ROUNDTRIP
360
5D6
  0
DICTIONARY
  5
5D7
330
4E7
100
AcDbDictionary
280
     1
281
     1
  3
ACAD_XREC_ROUNDTRIP
360
5D8
  0
DICTIONARY
  5
5D9
330
4DC
100
AcDbDictionary
280
     1
281
     1
  3
ACAD_XREC_ROUNDTRIP
360
5DA
  0
DICTIONARY
  5
5DB
330
4DD
100
AcDbDictionary
280
     1
281
     1
  3
ACAD_XREC_ROUNDTRIP
360
5DC
  0
DICTIONARY
  5
5DD
330
4DE
100
AcDbDictionary
280
     1
281
     1
  3
ACAD_XREC_ROUNDTRIP
360
5DE
  0
DICTIONARY
  5
5DF
330
4DF
100
AcDbDictionary
280
     1
281
     1
  3
ACAD_XREC_ROUNDTRIP
360
5E0
  0
DICTIONARY
  5
5E1
330
4E1
100
AcDbDictionary
280
     1
281
     1
  3
ACAD_XREC_ROUNDTRIP
360
5E2
  0
DICTIONARY
  5
5E3
330
4EE
100
AcDbDictionary
280
     1
281
     1
  3
ACAD_XREC_ROUNDTRIP
360
5E4
  0
DICTIONARY
  5
5E5
330
4E6
100
AcDbDictionary
280
     1
281
     1
  3
ACAD_XREC_ROUNDTRIP
360
5E6
  0
DICTIONARY
  5
5E7
330
4EF
100
AcDbDictionary
280
     1
281
     1
  3
ACAD_XREC_ROUNDTRIP
360
5E8
  0
DICTIONARY
  5
5E9
330
54
100
AcDbDictionary
280
     1
281
     1
  3
ACAD_XREC_ROUNDTRIP
360
5EA
  0
DICTIONARY
  5
5EB
330
4ED
100
AcDbDictionary
280
     1
281
     1
  3
ACAD_XREC_ROUNDTRIP
360
5EC
  0
DICTIONARY
  5
5ED
330
4EC
100
AcDbDictionary
280
     1
281
     1
  3
ACAD_XREC_ROUNDTRIP
360
5EE
  0
DICTIONARY
  5
5EF
330
4E9
100
AcDbDictionary
280
     1
281
     1
  3
ACAD_XREC_ROUNDTRIP
360
5F0
  0
DICTIONARY
  5
5F1
330
4EA
100
AcDbDictionary
280
     1
281
     1
  3
ACAD_XREC_ROUNDTRIP
360
5F2
  0
DICTIONARY
  5
5F3
330
4E5
100
AcDbDictionary
280
     1
281
     1
  3
ACAD_XREC_ROUNDTRIP
360
5F4
  0
DICTIONARY
  5
5F5
330
55
100
AcDbDictionary
280
     1
281
     1
  3
ACAD_XREC_ROUNDTRIP
360
5F6
  0
DICTIONARY
  5
5F7
330
4EB
100
AcDbDictionary
280
     1
281
     1
  3
ACAD_XREC_ROUNDTRIP
360
5F8
  0
XRECORD
  5
5BF
102
{ACAD_REACTORS
330
50C
102
}
330
50C
100
AcDbXrecord
280
     1
102
DISPLAYNAME
  1
Imperial24
102
FLAGS
 90
        0
  0
XRECORD
  5
5C1
102
{ACAD_REACTORS
330
5C0
102
}
330
5C0
100
AcDbXrecord
280
     1
102
MATERIAL
148
0.0
149
0.0
149
0.0
 93
        0
 94
      127
282
     0
 72
     0
 77
     0
171
     0
175
     0
179
     0
273
     0
  0
XRECORD
  5
5C3
102
{ACAD_REACTORS
330
5C2
102
}
330
5C2
100
AcDbXrecord
280
     1
102
MATERIAL
148
0.0
149
0.0
149
0.0
 93
        0
 94
      127
282
     0
 72
     0
 77
     0
171
     0
175
     0
179
     0
273
     0
  0
XRECORD
  5
5C5
102
{ACAD_REACTORS
330
5C4
102
}
330
5C4
100
AcDbXrecord
280
     1
102
MATERIAL
148
0.0
149
0.0
149
0.0
 93
        0
 94
      127
282
     0
 72
     0
 77
     0
171
     0
175
     0
179
     0
273
     0
  0
XRECORD
  5
5C7
102
{ACAD_REACTORS
330
5C6
102
}
330
5C6
100
AcDbXrecord
280
     1
102
ACAD_ROUNDTRIP_2012_MLEADER_STYLE
298
     1
  0
XRECORD
  5
5C8
102
{ACAD_REACTORS
330
50A
102
}
330
50A
100
AcDbXrecord
280
     1
102
DISPLAYNAME
  1
Imperial24
102
FLAGS
 90
        0
  0
XRECORD
  5
5CA
102
{ACAD_REACTORS
330
5C9
102
}
330
5C9
100
AcDbXrecord
280
     1
102
RTVSPropertyOp0
 70
     1
102
RTVSPropertyOp1
 70
     1
102
RTVSPropertyOp2
 70
     1
102
RTVSPropertyOp3
 70
     1
102
RTVSPropertyOp4
 70
     1
102
RTVSPropertyOp5
 70
     1
102
RTVSPropertyOp6
 70
     1
102
RTVSPropertyOp7
 70
     1
102
RTVSPropertyOp8
 70
     1
102
RTVSPropertyOp9
 70
     1
102
RTVSPropertyOp10
 70
     1
102
RTVSPropertyOp11
 70
     1
102
RTVSPropertyOp12
 70
     1
102
RTVSPropertyOp13
 70
     1
102
RTVSPropertyOp14
 70
     1
102
RTVSPropertyOp15
 70
     1
102
RTVSPropertyOp16
 70
     1
102
RTVSPropertyOp17
 70
     1
102
RTVSPropertyOp18
 70
     1
102
RTVSPropertyOp19
 70
     1
102
RTVSPropertyOp20
 70
     1
102
RTVSPropertyOp21
 70
     1
102
RTVSPropertyOp22
 70
     1
102
RTVSPropertyOp23
 70
     1
102
RTVSPropertyOp24
 70
     1
102
RTVSPropertyOp25
 70
     1
102
RTVSPropertyOp26
 70
     1
102
RTVSPropertyOp27
 70
     1
102
RTVSPropertyOp28
 70
     1
102
RTVSPropertyOp29
 70
     1
102
RTVSPropertyOp30
 70
     1
102
RTVSPropertyOp31
 70
     1
102
RTVSPropertyOp32
 70
     1
102
RTVSPropertyOp33
 70
     1
102
RTVSPropertyOp34
 70
     1
102
RTVSPropertyOp35
 70
     1
102
RTVSPropertyOp36
 70
     1
102
RTVSPropertyOp37
 70
     1
102
RTVSPropertyOp38
 70
     1
102
RTVSPropertyOp39
 70
     1
102
RTVSPropertyOp40
 70
     1
102
RTVSPropertyOp41
 70
     1
102
RTVSPropertyOp42
 70
     1
102
RTVSPropertyOp43
 70
     1
102
RTVSPropertyOp44
 70
     1
102
RTVSPropertyOp45
 70
     1
102
RTVSPropertyOp46
 70
     1
102
RTVSPropertyOp47
 70
     1
102
RTVSPropertyOp48
 70
     1
102
RTVSPropertyOp49
 70
     1
102
RTVSPropertyOp50
 70
     1
102
RTVSPropertyOp51
 70
     0
102
RTVSPropertyOp52
 70
     0
102
RTVSPropertyOp53
 70
     1
102
RTVSPropertyOp54
 70
     1
102
RTVSPropertyOp55
 70
     1
102
RTVSPropertyOp56
 70
     1
102
RTVSPropertyOp57
 70
     1
102
RTVSPost2010Prop28
280
     1
102
RTVSPost2010PropOp28
 70
     1
102
RTVSPost2010Prop29
280
     1
102
RTVSPost2010PropOp29
 70
     1
102
RTVSPost2010Prop30
280
     0
102
RTVSPost2010PropOp30
 70
     1
102
RTVSPost2010Prop31
280
     0
102
RTVSPost2010PropOp31
 70
     1
102
RTVSPost2010Prop32
280
     0
102
RTVSPost2010PropOp32
 70
     1
102
RTVSPost2010Prop33
280
     0
102
RTVSPost2010PropOp33
 70
     1
102
RTVSPost2010Prop34
280
     0
102
RTVSPost2010PropOp34
 70
     1
102
RTVSPost2010Prop35
280
     0
102
RTVSPost2010PropOp35
 70
     1
102
RTVSPost2010Prop36
280
     0
102
RTVSPost2010PropOp36
 70
     1
102
RTVSPost2010Prop37
 90
       50
102
RTVSPost2010PropOp37
 70
     1
102
RTVSPost2010Prop38
140
0.0
102
RTVSPost2010PropOp38
 70
     1
102
RTVSPost2010Prop39
140
1.0
102
RTVSPost2010PropOp39
 70
     1
102
RTVSPost2010Prop40
 90
        0
102
RTVSPost2010PropOp40
 70
     1
102
RTVSPost2010Prop41ColorIndex
 90
       18
102
RTVSPost2010Prop41ColorRGB
 90
        0
102
RTVSPost2010PropOp41
 70
     1
102
RTVSPost2010Prop42
 90
       50
102
RTVSPost2010PropOp42
 70
     1
102
RTVSPost2010Prop43
 90
        3
102
RTVSPost2010PropOp43
 70
     1
102
RTVSPost2010Prop44ColorIndex
 90
        5
102
RTVSPost2010Prop44ColorRGB
 90
      255
102
RTVSPost2010PropOp44
 70
     1
102
RTVSPost2010Prop45
280
     0
102
RTVSPost2010PropOp45
 70
     1
102
RTVSPost2010Prop46
 90
       50
102
RTVSPost2010PropOp46
 70
     1
102
RTVSPost2010Prop47
 90
       50
102
RTVSPost2010PropOp47
 70
     1
102
RTVSPost2010Prop48
 90
       50
102
RTVSPost2010PropOp48
 70
     1
102
RTVSPost2010Prop49
280
     0
102
RTVSPost2010PropOp49
 70
     1
102
RTVSPost2010Prop50
 90
       50
102
RTVSPost2010PropOp50
 70
     1
102
RTVSPost2010Prop51ColorIndex
 90
      256
102
RTVSPost2010Prop51ColorRGB
 90
-16777216
102
RTVSPost2010PropOp51
 70
     0
102
RTVSPost2010Prop52
140
1.0
102
RTVSPost2010PropOp52
 70
     0
102
RTVSPost2010Prop53
 90
        2
102
RTVSPost2010PropOp53
 70
     1
102
RTVSPost2010Prop54
  1
strokes_ogs.tif
102
RTVSPost2010PropOp54
 70
     1
102
RTVSPost2010Prop55
280
     0
102
RTVSPost2010PropOp55
 70
     1
102
RTVSPost2010Prop56
140
1.0
102
RTVSPost2010PropOp56
 70
     1
102
RTVSPost2010Prop57
140
1.0
102
RTVSPost2010PropOp57
 70
     1
  0
XRECORD
  5
5CC
102
{ACAD_REACTORS
330
5CB
102
}
330
5CB
100
AcDbXrecord
280
     1
102
RTVSPropertyOp0
 70
     1
102
RTVSPropertyOp1
 70
     1
102
RTVSPropertyOp2
 70
     1
102
RTVSPropertyOp3
 70
     1
102
RTVSPropertyOp4
 70
     1
102
RTVSPropertyOp5
 70
     1
102
RTVSPropertyOp6
 70
     1
102
RTVSPropertyOp7
 70
     1
102
RTVSPropertyOp8
 70
     1
102
RTVSPropertyOp9
 70
     1
102
RTVSPropertyOp10
 70
     1
102
RTVSPropertyOp11
 70
     1
102
RTVSPropertyOp12
 70
     1
102
RTVSPropertyOp13
 70
     1
102
RTVSPropertyOp14
 70
     1
102
RTVSPropertyOp15
 70
     1
102
RTVSPropertyOp16
 70
     1
102
RTVSPropertyOp17
 70
     1
102
RTVSPropertyOp18
 70
     1
102
RTVSPropertyOp19
 70
     1
102
RTVSPropertyOp20
 70
     1
102
RTVSPropertyOp21
 70
     1
102
RTVSPropertyOp22
 70
     1
102
RTVSPropertyOp23
 70
     1
102
RTVSPropertyOp24
 70
     1
102
RTVSPropertyOp25
 70
     1
102
RTVSPropertyOp26
 70
     1
102
RTVSPropertyOp27
 70
     1
102
RTVSPropertyOp28
 70
     1
102
RTVSPropertyOp29
 70
     1
102
RTVSPropertyOp30
 70
     1
102
RTVSPropertyOp31
 70
     1
102
RTVSPropertyOp32
 70
     1
102
RTVSPropertyOp33
 70
     1
102
RTVSPropertyOp34
 70
     1
102
RTVSPropertyOp35
 70
     1
102
RTVSPropertyOp36
 70
     1
102
RTVSPropertyOp37
 70
     1
102
RTVSPropertyOp38
 70
     1
102
RTVSPropertyOp39
 70
     1
102
RTVSPropertyOp40
 70
     1
102
RTVSPropertyOp41
 70
     1
102
RTVSPropertyOp42
 70
     1
102
RTVSPropertyOp43
 70
     1
102
RTVSPropertyOp44
 70
     1
102
RTVSPropertyOp45
 70
     1
102
RTVSPropertyOp46
 70
     1
102
RTVSPropertyOp47
 70
     1
102
RTVSPropertyOp48
 70
     1
102
RTVSPropertyOp49
 70
     1
102
RTVSPropertyOp50
 70
     1
102
RTVSPropertyOp51
 70
     0
102
RTVSPropertyOp52
 70
     0
102
RTVSPropertyOp53
 70
     1
102
RTVSPropertyOp54
 70
     1
102
RTVSPropertyOp55
 70
     1
102
RTVSPropertyOp56
 70
     1
102
RTVSPropertyOp57
 70
     1
102
RTVSPost2010Prop28
280
     0
102
RTVSPost2010PropOp28
 70
     1
102
RTVSPost2010Prop29
280
     1
102
RTVSPost2010PropOp29
 70
     1
102
RTVSPost2010Prop30
280
     1
102
RTVSPost2010PropOp30
 70
     1
102
RTVSPost2010Prop31
280
     0
102
RTVSPost2010PropOp31
 70
     1
102
RTVSPost2010Prop32
280
     0
102
RTVSPost2010PropOp32
 70
     1
102
RTVSPost2010Prop33
280
     0
102
RTVSPost2010PropOp33
 70
     1
102
RTVSPost2010Prop34
280
     0
102
RTVSPost2010PropOp34
 70
     1
102
RTVSPost2010Prop35
280
     0
102
RTVSPost2010PropOp35
 70
     1
102
RTVSPost2010Prop36
280
     0
102
RTVSPost2010PropOp36
 70
     1
102
RTVSPost2010Prop37
 90
       50
102
RTVSPost2010PropOp37
 70
     1
102
RTVSPost2010Prop38
140
0.0
102
RTVSPost2010PropOp38
 70
     1
102
RTVSPost2010Prop39
140
1.0
102
RTVSPost2010PropOp39
 70
     1
102
RTVSPost2010Prop40
 90
        0
102
RTVSPost2010PropOp40
 70
     1
102
RTVSPost2010Prop41ColorIndex
 90
       18
102
RTVSPost2010Prop41ColorRGB
 90
        0
102
RTVSPost2010PropOp41
 70
     1
102
RTVSPost2010Prop42
 90
       50
102
RTVSPost2010PropOp42
 70
     1
102
RTVSPost2010Prop43
 90
        3
102
RTVSPost2010PropOp43
 70
     1
102
RTVSPost2010Prop44ColorIndex
 90
        5
102
RTVSPost2010Prop44ColorRGB
 90
      255
102
RTVSPost2010PropOp44
 70
     1
102
RTVSPost2010Prop45
280
     0
102
RTVSPost2010PropOp45
 70
     1
102
RTVSPost2010Prop46
 90
       50
102
RTVSPost2010PropOp46
 70
     1
102
RTVSPost2010Prop47
 90
       50
102
RTVSPost2010PropOp47
 70
     1
102
RTVSPost2010Prop48
 90
       50
102
RTVSPost2010PropOp48
 70
     1
102
RTVSPost2010Prop49
280
     0
102
RTVSPost2010PropOp49
 70
     1
102
RTVSPost2010Prop50
 90
       50
102
RTVSPost2010PropOp50
 70
     1
102
RTVSPost2010Prop51ColorIndex
 90
      256
102
RTVSPost2010Prop51ColorRGB
 90
-16777216
102
RTVSPost2010PropOp51
 70
     0
102
RTVSPost2010Prop52
140
1.0
102
RTVSPost2010PropOp52
 70
     0
102
RTVSPost2010Prop53
 90
        2
102
RTVSPost2010PropOp53
 70
     1
102
RTVSPost2010Prop54
  1
strokes_ogs.tif
102
RTVSPost2010PropOp54
 70
     1
102
RTVSPost2010Prop55
280
     0
102
RTVSPost2010PropOp55
 70
     1
102
RTVSPost2010Prop56
140
1.0
102
RTVSPost2010PropOp56
 70
     1
102
RTVSPost2010Prop57
140
1.0
102
RTVSPost2010PropOp57
 70
     1
  0
XRECORD
  5
5CE
102
{ACAD_REACTORS
330
5CD
102
}
330
5CD
100
AcDbXrecord
280
     1
102
RTVSPropertyOp0
 70
     1
102
RTVSPropertyOp1
 70
     1
102
RTVSPropertyOp2
 70
     1
102
RTVSPropertyOp3
 70
     1
102
RTVSPropertyOp4
 70
     1
102
RTVSPropertyOp5
 70
     1
102
RTVSPropertyOp6
 70
     1
102
RTVSPropertyOp7
 70
     1
102
RTVSPropertyOp8
 70
     1
102
RTVSPropertyOp9
 70
     1
102
RTVSPropertyOp10
 70
     1
102
RTVSPropertyOp11
 70
     1
102
RTVSPropertyOp12
 70
     1
102
RTVSPropertyOp13
 70
     1
102
RTVSPropertyOp14
 70
     1
102
RTVSPropertyOp15
 70
     1
102
RTVSPropertyOp16
 70
     1
102
RTVSPropertyOp17
 70
     1
102
RTVSPropertyOp18
 70
     1
102
RTVSPropertyOp19
 70
     1
102
RTVSPropertyOp20
 70
     1
102
RTVSPropertyOp21
 70
     1
102
RTVSPropertyOp22
 70
     1
102
RTVSPropertyOp23
 70
     1
102
RTVSPropertyOp24
 70
     1
102
RTVSPropertyOp25
 70
     1
102
RTVSPropertyOp26
 70
     1
102
RTVSPropertyOp27
 70
     1
102
RTVSPropertyOp28
 70
     1
102
RTVSPropertyOp29
 70
     1
102
RTVSPropertyOp30
 70
     1
102
RTVSPropertyOp31
 70
     1
102
RTVSPropertyOp32
 70
     1
102
RTVSPropertyOp33
 70
     1
102
RTVSPropertyOp34
 70
     1
102
RTVSPropertyOp35
 70
     1
102
RTVSPropertyOp36
 70
     1
102
RTVSPropertyOp37
 70
     1
102
RTVSPropertyOp38
 70
     1
102
RTVSPropertyOp39
 70
     1
102
RTVSPropertyOp40
 70
     1
102
RTVSPropertyOp41
 70
     1
102
RTVSPropertyOp42
 70
     1
102
RTVSPropertyOp43
 70
     1
102
RTVSPropertyOp44
 70
     1
102
RTVSPropertyOp45
 70
     1
102
RTVSPropertyOp46
 70
     1
102
RTVSPropertyOp47
 70
     1
102
RTVSPropertyOp48
 70
     1
102
RTVSPropertyOp49
 70
     1
102
RTVSPropertyOp50
 70
     1
102
RTVSPropertyOp51
 70
     0
102
RTVSPropertyOp52
 70
     0
102
RTVSPropertyOp53
 70
     1
102
RTVSPropertyOp54
 70
     1
102
RTVSPropertyOp55
 70
     1
102
RTVSPropertyOp56
 70
     1
102
RTVSPropertyOp57
 70
     1
102
RTVSPost2010Prop28
280
     0
102
RTVSPost2010PropOp28
 70
     1
102
RTVSPost2010Prop29
280
     1
102
RTVSPost2010PropOp29
 70
     1
102
RTVSPost2010Prop30
280
     1
102
RTVSPost2010PropOp30
 70
     1
102
RTVSPost2010Prop31
280
     0
102
RTVSPost2010PropOp31
 70
     1
102
RTVSPost2010Prop32
280
     0
102
RTVSPost2010PropOp32
 70
     1
102
RTVSPost2010Prop33
280
     0
102
RTVSPost2010PropOp33
 70
     1
102
RTVSPost2010Prop34
280
     0
102
RTVSPost2010PropOp34
 70
     1
102
RTVSPost2010Prop35
280
     0
102
RTVSPost2010PropOp35
 70
     1
102
RTVSPost2010Prop36
280
     0
102
RTVSPost2010PropOp36
 70
     1
102
RTVSPost2010Prop37
 90
       50
102
RTVSPost2010PropOp37
 70
     1
102
RTVSPost2010Prop38
140
0.0
102
RTVSPost2010PropOp38
 70
     1
102
RTVSPost2010Prop39
140
1.0
102
RTVSPost2010PropOp39
 70
     1
102
RTVSPost2010Prop40
 90
        0
102
RTVSPost2010PropOp40
 70
     1
102
RTVSPost2010Prop41ColorIndex
 90
       18
102
RTVSPost2010Prop41ColorRGB
 90
        0
102
RTVSPost2010PropOp41
 70
     1
102
RTVSPost2010Prop42
 90
       50
102
RTVSPost2010PropOp42
 70
     1
102
RTVSPost2010Prop43
 90
        3
102
RTVSPost2010PropOp43
 70
     1
102
RTVSPost2010Prop44ColorIndex
 90
        5
102
RTVSPost2010Prop44ColorRGB
 90
      255
102
RTVSPost2010PropOp44
 70
     1
102
RTVSPost2010Prop45
280
     0
102
RTVSPost2010PropOp45
 70
     1
102
RTVSPost2010Prop46
 90
       50
102
RTVSPost2010PropOp46
 70
     1
102
RTVSPost2010Prop47
 90
       50
102
RTVSPost2010PropOp47
 70
     1
102
RTVSPost2010Prop48
 90
       50
102
RTVSPost2010PropOp48
 70
     1
102
RTVSPost2010Prop49
280
     0
102
RTVSPost2010PropOp49
 70
     1
102
RTVSPost2010Prop50
 90
       50
102
RTVSPost2010PropOp50
 70
     1
102
RTVSPost2010Prop51ColorIndex
 90
      256
102
RTVSPost2010Prop51ColorRGB
 90
-16777216
102
RTVSPost2010PropOp51
 70
     0
102
RTVSPost2010Prop52
140
1.0
102
RTVSPost2010PropOp52
 70
     0
102
RTVSPost2010Prop53
 90
        2
102
RTVSPost2010PropOp53
 70
     1
102
RTVSPost2010Prop54
  1
strokes_ogs.tif
102
RTVSPost2010PropOp54
 70
     1
102
RTVSPost2010Prop55
280
     0
102
RTVSPost2010PropOp55
 70
     1
102
RTVSPost2010Prop56
140
1.0
102
RTVSPost2010PropOp56
 70
     1
102
RTVSPost2010Prop57
140
1.0
102
RTVSPost2010PropOp57
 70
     1
  0
XRECORD
  5
5D0
102
{ACAD_REACTORS
330
5CF
102
}
330
5CF
100
AcDbXrecord
280
     1
102
RTVSPropertyOp0
 70
     1
102
RTVSPropertyOp1
 70
     1
102
RTVSPropertyOp2
 70
     1
102
RTVSPropertyOp3
 70
     1
102
RTVSPropertyOp4
 70
     1
102
RTVSPropertyOp5
 70
     1
102
RTVSPropertyOp6
 70
     1
102
RTVSPropertyOp7
 70
     1
102
RTVSPropertyOp8
 70
     1
102
RTVSPropertyOp9
 70
     1
102
RTVSPropertyOp10
 70
     1
102
RTVSPropertyOp11
 70
     1
102
RTVSPropertyOp12
 70
     1
102
RTVSPropertyOp13
 70
     1
102
RTVSPropertyOp14
 70
     1
102
RTVSPropertyOp15
 70
     1
102
RTVSPropertyOp16
 70
     1
102
RTVSPropertyOp17
 70
     1
102
RTVSPropertyOp18
 70
     1
102
RTVSPropertyOp19
 70
     1
102
RTVSPropertyOp20
 70
     1
102
RTVSPropertyOp21
 70
     1
102
RTVSPropertyOp22
 70
     1
102
RTVSPropertyOp23
 70
     1
102
RTVSPropertyOp24
 70
     1
102
RTVSPropertyOp25
 70
     1
102
RTVSPropertyOp26
 70
     1
102
RTVSPropertyOp27
 70
     1
102
RTVSPropertyOp28
 70
     1
102
RTVSPropertyOp29
 70
     1
102
RTVSPropertyOp30
 70
     1
102
RTVSPropertyOp31
 70
     1
102
RTVSPropertyOp32
 70
     1
102
RTVSPropertyOp33
 70
     1
102
RTVSPropertyOp34
 70
     1
102
RTVSPropertyOp35
 70
     1
102
RTVSPropertyOp36
 70
     1
102
RTVSPropertyOp37
 70
     1
102
RTVSPropertyOp38
 70
     1
102
RTVSPropertyOp39
 70
     1
102
RTVSPropertyOp40
 70
     1
102
RTVSPropertyOp41
 70
     1
102
RTVSPropertyOp42
 70
     1
102
RTVSPropertyOp43
 70
     1
102
RTVSPropertyOp44
 70
     1
102
RTVSPropertyOp45
 70
     1
102
RTVSPropertyOp46
 70
     1
102
RTVSPropertyOp47
 70
     1
102
RTVSPropertyOp48
 70
     1
102
RTVSPropertyOp49
 70
     1
102
RTVSPropertyOp50
 70
     1
102
RTVSPropertyOp51
 70
     0
102
RTVSPropertyOp52
 70
     0
102
RTVSPropertyOp53
 70
     1
102
RTVSPropertyOp54
 70
     1
102
RTVSPropertyOp55
 70
     1
102
RTVSPropertyOp56
 70
     1
102
RTVSPropertyOp57
 70
     1
102
RTVSPost2010Prop28
280
     0
102
RTVSPost2010PropOp28
 70
     1
102
RTVSPost2010Prop29
280
     1
102
RTVSPost2010PropOp29
 70
     1
102
RTVSPost2010Prop30
280
     1
102
RTVSPost2010PropOp30
 70
     1
102
RTVSPost2010Prop31
280
     0
102
RTVSPost2010PropOp31
 70
     1
102
RTVSPost2010Prop32
280
     0
102
RTVSPost2010PropOp32
 70
     1
102
RTVSPost2010Prop33
280
     0
102
RTVSPost2010PropOp33
 70
     1
102
RTVSPost2010Prop34
280
     0
102
RTVSPost2010PropOp34
 70
     1
102
RTVSPost2010Prop35
280
     0
102
RTVSPost2010PropOp35
 70
     1
102
RTVSPost2010Prop36
280
     0
102
RTVSPost2010PropOp36
 70
     1
102
RTVSPost2010Prop37
 90
       50
102
RTVSPost2010PropOp37
 70
     1
102
RTVSPost2010Prop38
140
0.0
102
RTVSPost2010PropOp38
 70
     1
102
RTVSPost2010Prop39
140
1.0
102
RTVSPost2010PropOp39
 70
     1
102
RTVSPost2010Prop40
 90
        0
102
RTVSPost2010PropOp40
 70
     1
102
RTVSPost2010Prop41ColorIndex
 90
       18
102
RTVSPost2010Prop41ColorRGB
 90
        0
102
RTVSPost2010PropOp41
 70
     1
102
RTVSPost2010Prop42
 90
       50
102
RTVSPost2010PropOp42
 70
     1
102
RTVSPost2010Prop43
 90
        3
102
RTVSPost2010PropOp43
 70
     1
102
RTVSPost2010Prop44ColorIndex
 90
        5
102
RTVSPost2010Prop44ColorRGB
 90
      255
102
RTVSPost2010PropOp44
 70
     1
102
RTVSPost2010Prop45
280
     0
102
RTVSPost2010PropOp45
 70
     1
102
RTVSPost2010Prop46
 90
       50
102
RTVSPost2010PropOp46
 70
     1
102
RTVSPost2010Prop47
 90
       50
102
RTVSPost2010PropOp47
 70
     1
102
RTVSPost2010Prop48
 90
       50
102
RTVSPost2010PropOp48
 70
     1
102
RTVSPost2010Prop49
280
     0
102
RTVSPost2010PropOp49
 70
     1
102
RTVSPost2010Prop50
 90
       50
102
RTVSPost2010PropOp50
 70
     1
102
RTVSPost2010Prop51ColorIndex
 90
      256
102
RTVSPost2010Prop51ColorRGB
 90
-16777216
102
RTVSPost2010PropOp51
 70
     0
102
RTVSPost2010Prop52
140
1.0
102
RTVSPost2010PropOp52
 70
     0
102
RTVSPost2010Prop53
 90
        2
102
RTVSPost2010PropOp53
 70
     1
102
RTVSPost2010Prop54
  1
strokes_ogs.tif
102
RTVSPost2010PropOp54
 70
     1
102
RTVSPost2010Prop55
280
     0
102
RTVSPost2010PropOp55
 70
     1
102
RTVSPost2010Prop56
140
1.0
102
RTVSPost2010PropOp56
 70
     1
102
RTVSPost2010Prop57
140
1.0
102
RTVSPost2010PropOp57
 70
     1
  0
XRECORD
  5
5D2
102
{ACAD_REACTORS
330
5D1
102
}
330
5D1
100
AcDbXrecord
280
     1
102
RTVSPropertyOp0
 70
     1
102
RTVSPropertyOp1
 70
     1
102
RTVSPropertyOp2
 70
     1
102
RTVSPropertyOp3
 70
     1
102
RTVSPropertyOp4
 70
     1
102
RTVSPropertyOp5
 70
     1
102
RTVSPropertyOp6
 70
     1
102
RTVSPropertyOp7
 70
     1
102
RTVSPropertyOp8
 70
     1
102
RTVSPropertyOp9
 70
     1
102
RTVSPropertyOp10
 70
     1
102
RTVSPropertyOp11
 70
     1
102
RTVSPropertyOp12
 70
     1
102
RTVSPropertyOp13
 70
     1
102
RTVSPropertyOp14
 70
     1
102
RTVSPropertyOp15
 70
     1
102
RTVSPropertyOp16
 70
     1
102
RTVSPropertyOp17
 70
     1
102
RTVSPropertyOp18
 70
     1
102
RTVSPropertyOp19
 70
     1
102
RTVSPropertyOp20
 70
     1
102
RTVSPropertyOp21
 70
     1
102
RTVSPropertyOp22
 70
     1
102
RTVSPropertyOp23
 70
     1
102
RTVSPropertyOp24
 70
     1
102
RTVSPropertyOp25
 70
     1
102
RTVSPropertyOp26
 70
     1
102
RTVSPropertyOp27
 70
     1
102
RTVSPropertyOp28
 70
     1
102
RTVSPropertyOp29
 70
     1
102
RTVSPropertyOp30
 70
     1
102
RTVSPropertyOp31
 70
     1
102
RTVSPropertyOp32
 70
     1
102
RTVSPropertyOp33
 70
     1
102
RTVSPropertyOp34
 70
     1
102
RTVSPropertyOp35
 70
     1
102
RTVSPropertyOp36
 70
     1
102
RTVSPropertyOp37
 70
     1
102
RTVSPropertyOp38
 70
     1
102
RTVSPropertyOp39
 70
     1
102
RTVSPropertyOp40
 70
     1
102
RTVSPropertyOp41
 70
     1
102
RTVSPropertyOp42
 70
     1
102
RTVSPropertyOp43
 70
     1
102
RTVSPropertyOp44
 70
     1
102
RTVSPropertyOp45
 70
     1
102
RTVSPropertyOp46
 70
     1
102
RTVSPropertyOp47
 70
     1
102
RTVSPropertyOp48
 70
     1
102
RTVSPropertyOp49
 70
     1
102
RTVSPropertyOp50
 70
     1
102
RTVSPropertyOp51
 70
     0
102
RTVSPropertyOp52
 70
     0
102
RTVSPropertyOp53
 70
     1
102
RTVSPropertyOp54
 70
     1
102
RTVSPropertyOp55
 70
     1
102
RTVSPropertyOp56
 70
     1
102
RTVSPropertyOp57
 70
     1
102
RTVSPost2010Prop28
280
     0
102
RTVSPost2010PropOp28
 70
     1
102
RTVSPost2010Prop29
280
     1
102
RTVSPost2010PropOp29
 70
     1
102
RTVSPost2010Prop30
280
     1
102
RTVSPost2010PropOp30
 70
     1
102
RTVSPost2010Prop31
280
     0
102
RTVSPost2010PropOp31
 70
     1
102
RTVSPost2010Prop32
280
     0
102
RTVSPost2010PropOp32
 70
     1
102
RTVSPost2010Prop33
280
     0
102
RTVSPost2010PropOp33
 70
     1
102
RTVSPost2010Prop34
280
     0
102
RTVSPost2010PropOp34
 70
     1
102
RTVSPost2010Prop35
280
     0
102
RTVSPost2010PropOp35
 70
     1
102
RTVSPost2010Prop36
280
     0
102
RTVSPost2010PropOp36
 70
     1
102
RTVSPost2010Prop37
 90
       50
102
RTVSPost2010PropOp37
 70
     1
102
RTVSPost2010Prop38
140
0.0
102
RTVSPost2010PropOp38
 70
     1
102
RTVSPost2010Prop39
140
1.0
102
RTVSPost2010PropOp39
 70
     1
102
RTVSPost2010Prop40
 90
        0
102
RTVSPost2010PropOp40
 70
     1
102
RTVSPost2010Prop41ColorIndex
 90
       18
102
RTVSPost2010Prop41ColorRGB
 90
        0
102
RTVSPost2010PropOp41
 70
     1
102
RTVSPost2010Prop42
 90
       50
102
RTVSPost2010PropOp42
 70
     1
102
RTVSPost2010Prop43
 90
        3
102
RTVSPost2010PropOp43
 70
     1
102
RTVSPost2010Prop44ColorIndex
 90
        5
102
RTVSPost2010Prop44ColorRGB
 90
      255
102
RTVSPost2010PropOp44
 70
     1
102
RTVSPost2010Prop45
280
     0
102
RTVSPost2010PropOp45
 70
     1
102
RTVSPost2010Prop46
 90
       50
102
RTVSPost2010PropOp46
 70
     1
102
RTVSPost2010Prop47
 90
       50
102
RTVSPost2010PropOp47
 70
     1
102
RTVSPost2010Prop48
 90
       50
102
RTVSPost2010PropOp48
 70
     1
102
RTVSPost2010Prop49
280
     0
102
RTVSPost2010PropOp49
 70
     1
102
RTVSPost2010Prop50
 90
       50
102
RTVSPost2010PropOp50
 70
     1
102
RTVSPost2010Prop51ColorIndex
 90
      256
102
RTVSPost2010Prop51ColorRGB
 90
-16777216
102
RTVSPost2010PropOp51
 70
     0
102
RTVSPost2010Prop52
140
1.0
102
RTVSPost2010PropOp52
 70
     0
102
RTVSPost2010Prop53
 90
        2
102
RTVSPost2010PropOp53
 70
     1
102
RTVSPost2010Prop54
  1
strokes_ogs.tif
102
RTVSPost2010PropOp54
 70
     1
102
RTVSPost2010Prop55
280
     0
102
RTVSPost2010PropOp55
 70
     1
102
RTVSPost2010Prop56
140
1.0
102
RTVSPost2010PropOp56
 70
     1
102
RTVSPost2010Prop57
140
1.0
102
RTVSPost2010PropOp57
 70
     1
  0
XRECORD
  5
5D4
102
{ACAD_REACTORS
330
5D3
102
}
330
5D3
100
AcDbXrecord
280
     1
102
RTVSPropertyOp0
 70
     1
102
RTVSPropertyOp1
 70
     1
102
RTVSPropertyOp2
 70
     1
102
RTVSPropertyOp3
 70
     1
102
RTVSPropertyOp4
 70
     1
102
RTVSPropertyOp5
 70
     1
102
RTVSPropertyOp6
 70
     1
102
RTVSPropertyOp7
 70
     1
102
RTVSPropertyOp8
 70
     1
102
RTVSPropertyOp9
 70
     1
102
RTVSPropertyOp10
 70
     1
102
RTVSPropertyOp11
 70
     1
102
RTVSPropertyOp12
 70
     1
102
RTVSPropertyOp13
 70
     1
102
RTVSPropertyOp14
 70
     1
102
RTVSPropertyOp15
 70
     1
102
RTVSPropertyOp16
 70
     1
102
RTVSPropertyOp17
 70
     1
102
RTVSPropertyOp18
 70
     1
102
RTVSPropertyOp19
 70
     1
102
RTVSPropertyOp20
 70
     1
102
RTVSPropertyOp21
 70
     1
102
RTVSPropertyOp22
 70
     1
102
RTVSPropertyOp23
 70
     1
102
RTVSPropertyOp24
 70
     1
102
RTVSPropertyOp25
 70
     1
102
RTVSPropertyOp26
 70
     1
102
RTVSPropertyOp27
 70
     1
102
RTVSPropertyOp28
 70
     1
102
RTVSPropertyOp29
 70
     1
102
RTVSPropertyOp30
 70
     1
102
RTVSPropertyOp31
 70
     1
102
RTVSPropertyOp32
 70
     1
102
RTVSPropertyOp33
 70
     1
102
RTVSPropertyOp34
 70
     1
102
RTVSPropertyOp35
 70
     1
102
RTVSPropertyOp36
 70
     1
102
RTVSPropertyOp37
 70
     1
102
RTVSPropertyOp38
 70
     1
102
RTVSPropertyOp39
 70
     1
102
RTVSPropertyOp40
 70
     1
102
RTVSPropertyOp41
 70
     1
102
RTVSPropertyOp42
 70
     1
102
RTVSPropertyOp43
 70
     1
102
RTVSPropertyOp44
 70
     1
102
RTVSPropertyOp45
 70
     1
102
RTVSPropertyOp46
 70
     1
102
RTVSPropertyOp47
 70
     1
102
RTVSPropertyOp48
 70
     1
102
RTVSPropertyOp49
 70
     1
102
RTVSPropertyOp50
 70
     1
102
RTVSPropertyOp51
 70
     0
102
RTVSPropertyOp52
 70
     0
102
RTVSPropertyOp53
 70
     1
102
RTVSPropertyOp54
 70
     1
102
RTVSPropertyOp55
 70
     1
102
RTVSPropertyOp56
 70
     1
102
RTVSPropertyOp57
 70
     1
102
RTVSPost2010Prop28
280
     0
102
RTVSPost2010PropOp28
 70
     1
102
RTVSPost2010Prop29
280
     1
102
RTVSPost2010PropOp29
 70
     1
102
RTVSPost2010Prop30
280
     1
102
RTVSPost2010PropOp30
 70
     1
102
RTVSPost2010Prop31
280
     0
102
RTVSPost2010PropOp31
 70
     1
102
RTVSPost2010Prop32
280
     0
102
RTVSPost2010PropOp32
 70
     1
102
RTVSPost2010Prop33
280
     0
102
RTVSPost2010PropOp33
 70
     1
102
RTVSPost2010Prop34
280
     0
102
RTVSPost2010PropOp34
 70
     1
102
RTVSPost2010Prop35
280
     0
102
RTVSPost2010PropOp35
 70
     1
102
RTVSPost2010Prop36
280
     0
102
RTVSPost2010PropOp36
 70
     1
102
RTVSPost2010Prop37
 90
       50
102
RTVSPost2010PropOp37
 70
     1
102
RTVSPost2010Prop38
140
0.0
102
RTVSPost2010PropOp38
 70
     1
102
RTVSPost2010Prop39
140
1.0
102
RTVSPost2010PropOp39
 70
     1
102
RTVSPost2010Prop40
 90
        0
102
RTVSPost2010PropOp40
 70
     1
102
RTVSPost2010Prop41ColorIndex
 90
       18
102
RTVSPost2010Prop41ColorRGB
 90
        0
102
RTVSPost2010PropOp41
 70
     1
102
RTVSPost2010Prop42
 90
       50
102
RTVSPost2010PropOp42
 70
     1
102
RTVSPost2010Prop43
 90
        3
102
RTVSPost2010PropOp43
 70
     1
102
RTVSPost2010Prop44ColorIndex
 90
        5
102
RTVSPost2010Prop44ColorRGB
 90
      255
102
RTVSPost2010PropOp44
 70
     1
102
RTVSPost2010Prop45
280
     0
102
RTVSPost2010PropOp45
 70
     1
102
RTVSPost2010Prop46
 90
       50
102
RTVSPost2010PropOp46
 70
     1
102
RTVSPost2010Prop47
 90
       50
102
RTVSPost2010PropOp47
 70
     1
102
RTVSPost2010Prop48
 90
       50
102
RTVSPost2010PropOp48
 70
     1
102
RTVSPost2010Prop49
280
     0
102
RTVSPost2010PropOp49
 70
     1
102
RTVSPost2010Prop50
 90
       50
102
RTVSPost2010PropOp50
 70
     1
102
RTVSPost2010Prop51ColorIndex
 90
      256
102
RTVSPost2010Prop51ColorRGB
 90
-16777216
102
RTVSPost2010PropOp51
 70
     0
102
RTVSPost2010Prop52
140
1.0
102
RTVSPost2010PropOp52
 70
     0
102
RTVSPost2010Prop53
 90
        2
102
RTVSPost2010PropOp53
 70
     1
102
RTVSPost2010Prop54
  1
strokes_ogs.tif
102
RTVSPost2010PropOp54
 70
     1
102
RTVSPost2010Prop55
280
     0
102
RTVSPost2010PropOp55
 70
     1
102
RTVSPost2010Prop56
140
1.0
102
RTVSPost2010PropOp56
 70
     1
102
RTVSPost2010Prop57
140
1.0
102
RTVSPost2010PropOp57
 70
     1
  0
XRECORD
  5
5D6
102
{ACAD_REACTORS
330
5D5
102
}
330
5D5
100
AcDbXrecord
280
     1
102
RTVSPropertyOp0
 70
     0
102
RTVSPropertyOp1
 70
     0
102
RTVSPropertyOp2
 70
     0
102
RTVSPropertyOp3
 70
     0
102
RTVSPropertyOp4
 70
     0
102
RTVSPropertyOp5
 70
     0
102
RTVSPropertyOp6
 70
     0
102
RTVSPropertyOp7
 70
     0
102
RTVSPropertyOp8
 70
     0
102
RTVSPropertyOp9
 70
     0
102
RTVSPropertyOp10
 70
     0
102
RTVSPropertyOp11
 70
     0
102
RTVSPropertyOp12
 70
     0
102
RTVSPropertyOp13
 70
     0
102
RTVSPropertyOp14
 70
     2
102
RTVSPropertyOp15
 70
     0
102
RTVSPropertyOp16
 70
     0
102
RTVSPropertyOp17
 70
     0
102
RTVSPropertyOp18
 70
     0
102
RTVSPropertyOp19
 70
     0
102
RTVSPropertyOp20
 70
     0
102
RTVSPropertyOp21
 70
     0
102
RTVSPropertyOp22
 70
     0
102
RTVSPropertyOp23
 70
     0
102
RTVSPropertyOp24
 70
     0
102
RTVSPropertyOp25
 70
     0
102
RTVSPropertyOp26
 70
     0
102
RTVSPropertyOp27
 70
     0
102
RTVSPropertyOp28
 70
     0
102
RTVSPropertyOp29
 70
     0
102
RTVSPropertyOp30
 70
     0
102
RTVSPropertyOp31
 70
     0
102
RTVSPropertyOp32
 70
     0
102
RTVSPropertyOp33
 70
     0
102
RTVSPropertyOp34
 70
     0
102
RTVSPropertyOp35
 70
     0
102
RTVSPropertyOp36
 70
     0
102
RTVSPropertyOp37
 70
     0
102
RTVSPropertyOp38
 70
     0
102
RTVSPropertyOp39
 70
     0
102
RTVSPropertyOp40
 70
     0
102
RTVSPropertyOp41
 70
     0
102
RTVSPropertyOp42
 70
     0
102
RTVSPropertyOp43
 70
     0
102
RTVSPropertyOp44
 70
     0
102
RTVSPropertyOp45
 70
     0
102
RTVSPropertyOp46
 70
     0
102
RTVSPropertyOp47
 70
     0
102
RTVSPropertyOp48
 70
     0
102
RTVSPropertyOp49
 70
     0
102
RTVSPropertyOp50
 70
     0
102
RTVSPropertyOp51
 70
     0
102
RTVSPropertyOp52
 70
     0
102
RTVSPropertyOp53
 70
     0
102
RTVSPropertyOp54
 70
     0
102
RTVSPropertyOp55
 70
     0
102
RTVSPropertyOp56
 70
     0
102
RTVSPropertyOp57
 70
     0
102
RTVSPost2010Prop28
280
     0
102
RTVSPost2010PropOp28
 70
     0
102
RTVSPost2010Prop29
280
     1
102
RTVSPost2010PropOp29
 70
     0
102
RTVSPost2010Prop30
280
     1
102
RTVSPost2010PropOp30
 70
     0
102
RTVSPost2010Prop31
280
     0
102
RTVSPost2010PropOp31
 70
     0
102
RTVSPost2010Prop32
280
     0
102
RTVSPost2010PropOp32
 70
     0
102
RTVSPost2010Prop33
280
     0
102
RTVSPost2010PropOp33
 70
     0
102
RTVSPost2010Prop34
280
     0
102
RTVSPost2010PropOp34
 70
     0
102
RTVSPost2010Prop35
280
     0
102
RTVSPost2010PropOp35
 70
     0
102
RTVSPost2010Prop36
280
     0
102
RTVSPost2010PropOp36
 70
     0
102
RTVSPost2010Prop37
 90
       50
102
RTVSPost2010PropOp37
 70
     0
102
RTVSPost2010Prop38
140
0.0
102
RTVSPost2010PropOp38
 70
     0
102
RTVSPost2010Prop39
140
1.0
102
RTVSPost2010PropOp39
 70
     0
102
RTVSPost2010Prop40
 90
        0
102
RTVSPost2010PropOp40
 70
     0
102
RTVSPost2010Prop41ColorIndex
 90
       18
102
RTVSPost2010Prop41ColorRGB
 90
        0
102
RTVSPost2010PropOp41
 70
     0
102
RTVSPost2010Prop42
 90
       50
102
RTVSPost2010PropOp42
 70
     0
102
RTVSPost2010Prop43
 90
        3
102
RTVSPost2010PropOp43
 70
     0
102
RTVSPost2010Prop44ColorIndex
 90
        5
102
RTVSPost2010Prop44ColorRGB
 90
      255
102
RTVSPost2010PropOp44
 70
     0
102
RTVSPost2010Prop45
280
     0
102
RTVSPost2010PropOp45
 70
     0
102
RTVSPost2010Prop46
 90
       50
102
RTVSPost2010PropOp46
 70
     0
102
RTVSPost2010Prop47
 90
       50
102
RTVSPost2010PropOp47
 70
     0
102
RTVSPost2010Prop48
 90
       50
102
RTVSPost2010PropOp48
 70
     0
102
RTVSPost2010Prop49
280
     0
102
RTVSPost2010PropOp49
 70
     0
102
RTVSPost2010Prop50
 90
       50
102
RTVSPost2010PropOp50
 70
     0
102
RTVSPost2010Prop51ColorIndex
 90
      256
102
RTVSPost2010Prop51ColorRGB
 90
-16777216
102
RTVSPost2010PropOp51
 70
     0
102
RTVSPost2010Prop52
140
1.0
102
RTVSPost2010PropOp52
 70
     0
102
RTVSPost2010Prop53
 90
        2
102
RTVSPost2010PropOp53
 70
     0
102
RTVSPost2010Prop54
  1
strokes_ogs.tif
102
RTVSPost2010PropOp54
 70
     0
102
RTVSPost2010Prop55
280
     0
102
RTVSPost2010PropOp55
 70
     0
102
RTVSPost2010Prop56
140
1.0
102
RTVSPost2010PropOp56
 70
     0
102
RTVSPost2010Prop57
140
1.0
102
RTVSPost2010PropOp57
 70
     0
  0
XRECORD
  5
5D8
102
{ACAD_REACTORS
330
5D7
102
}
330
5D7
100
AcDbXrecord
280
     1
102
RTVSPropertyOp0
 70
     1
102
RTVSPropertyOp1
 70
     1
102
RTVSPropertyOp2
 70
     1
102
RTVSPropertyOp3
 70
     1
102
RTVSPropertyOp4
 70
     1
102
RTVSPropertyOp5
 70
     1
102
RTVSPropertyOp6
 70
     1
102
RTVSPropertyOp7
 70
     1
102
RTVSPropertyOp8
 70
     1
102
RTVSPropertyOp9
 70
     1
102
RTVSPropertyOp10
 70
     1
102
RTVSPropertyOp11
 70
     1
102
RTVSPropertyOp12
 70
     1
102
RTVSPropertyOp13
 70
     1
102
RTVSPropertyOp14
 70
     1
102
RTVSPropertyOp15
 70
     1
102
RTVSPropertyOp16
 70
     1
102
RTVSPropertyOp17
 70
     1
102
RTVSPropertyOp18
 70
     1
102
RTVSPropertyOp19
 70
     1
102
RTVSPropertyOp20
 70
     1
102
RTVSPropertyOp21
 70
     1
102
RTVSPropertyOp22
 70
     1
102
RTVSPropertyOp23
 70
     1
102
RTVSPropertyOp24
 70
     1
102
RTVSPropertyOp25
 70
     1
102
RTVSPropertyOp26
 70
     1
102
RTVSPropertyOp27
 70
     1
102
RTVSPropertyOp28
 70
     1
102
RTVSPropertyOp29
 70
     1
102
RTVSPropertyOp30
 70
     1
102
RTVSPropertyOp31
 70
     1
102
RTVSPropertyOp32
 70
     1
102
RTVSPropertyOp33
 70
     1
102
RTVSPropertyOp34
 70
     1
102
RTVSPropertyOp35
 70
     1
102
RTVSPropertyOp36
 70
     1
102
RTVSPropertyOp37
 70
     1
102
RTVSPropertyOp38
 70
     1
102
RTVSPropertyOp39
 70
     1
102
RTVSPropertyOp40
 70
     1
102
RTVSPropertyOp41
 70
     1
102
RTVSPropertyOp42
 70
     1
102
RTVSPropertyOp43
 70
     1
102
RTVSPropertyOp44
 70
     1
102
RTVSPropertyOp45
 70
     1
102
RTVSPropertyOp46
 70
     1
102
RTVSPropertyOp47
 70
     1
102
RTVSPropertyOp48
 70
     1
102
RTVSPropertyOp49
 70
     1
102
RTVSPropertyOp50
 70
     1
102
RTVSPropertyOp51
 70
     0
102
RTVSPropertyOp52
 70
     0
102
RTVSPropertyOp53
 70
     1
102
RTVSPropertyOp54
 70
     1
102
RTVSPropertyOp55
 70
     1
102
RTVSPropertyOp56
 70
     1
102
RTVSPropertyOp57
 70
     1
102
RTVSPost2010Prop28
280
     0
102
RTVSPost2010PropOp28
 70
     1
102
RTVSPost2010Prop29
280
     1
102
RTVSPost2010PropOp29
 70
     1
102
RTVSPost2010Prop30
280
     1
102
RTVSPost2010PropOp30
 70
     1
102
RTVSPost2010Prop31
280
     0
102
RTVSPost2010PropOp31
 70
     1
102
RTVSPost2010Prop32
280
     0
102
RTVSPost2010PropOp32
 70
     1
102
RTVSPost2010Prop33
280
     0
102
RTVSPost2010PropOp33
 70
     1
102
RTVSPost2010Prop34
280
     0
102
RTVSPost2010PropOp34
 70
     1
102
RTVSPost2010Prop35
280
     0
102
RTVSPost2010PropOp35
 70
     1
102
RTVSPost2010Prop36
280
     0
102
RTVSPost2010PropOp36
 70
     1
102
RTVSPost2010Prop37
 90
       50
102
RTVSPost2010PropOp37
 70
     1
102
RTVSPost2010Prop38
140
0.0
102
RTVSPost2010PropOp38
 70
     1
102
RTVSPost2010Prop39
140
1.0
102
RTVSPost2010PropOp39
 70
     1
102
RTVSPost2010Prop40
 90
        0
102
RTVSPost2010PropOp40
 70
     1
102
RTVSPost2010Prop41ColorIndex
 90
       18
102
RTVSPost2010Prop41ColorRGB
 90
        0
102
RTVSPost2010PropOp41
 70
     1
102
RTVSPost2010Prop42
 90
       50
102
RTVSPost2010PropOp42
 70
     1
102
RTVSPost2010Prop43
 90
        3
102
RTVSPost2010PropOp43
 70
     1
102
RTVSPost2010Prop44ColorIndex
 90
        5
102
RTVSPost2010Prop44ColorRGB
 90
      255
102
RTVSPost2010PropOp44
 70
     1
102
RTVSPost2010Prop45
280
     0
102
RTVSPost2010PropOp45
 70
     1
102
RTVSPost2010Prop46
 90
       50
102
RTVSPost2010PropOp46
 70
     1
102
RTVSPost2010Prop47
 90
       50
102
RTVSPost2010PropOp47
 70
     1
102
RTVSPost2010Prop48
 90
       50
102
RTVSPost2010PropOp48
 70
     1
102
RTVSPost2010Prop49
280
     0
102
RTVSPost2010PropOp49
 70
     1
102
RTVSPost2010Prop50
 90
       50
102
RTVSPost2010PropOp50
 70
     1
102
RTVSPost2010Prop51ColorIndex
 90
      256
102
RTVSPost2010Prop51ColorRGB
 90
-16777216
102
RTVSPost2010PropOp51
 70
     0
102
RTVSPost2010Prop52
140
1.0
102
RTVSPost2010PropOp52
 70
     0
102
RTVSPost2010Prop53
 90
        2
102
RTVSPost2010PropOp53
 70
     1
102
RTVSPost2010Prop54
  1
strokes_ogs.tif
102
RTVSPost2010PropOp54
 70
     1
102
RTVSPost2010Prop55
280
     0
102
RTVSPost2010PropOp55
 70
     1
102
RTVSPost2010Prop56
140
1.0
102
RTVSPost2010PropOp56
 70
     1
102
RTVSPost2010Prop57
140
1.0
102
RTVSPost2010PropOp57
 70
     1
  0
XRECORD
  5
5DA
102
{ACAD_REACTORS
330
5D9
102
}
330
5D9
100
AcDbXrecord
280
     1
102
RTVSPropertyOp0
 70
     1
102
RTVSPropertyOp1
 70
     1
102
RTVSPropertyOp2
 70
     1
102
RTVSPropertyOp3
 70
     1
102
RTVSPropertyOp4
 70
     1
102
RTVSPropertyOp5
 70
     1
102
RTVSPropertyOp6
 70
     1
102
RTVSPropertyOp7
 70
     1
102
RTVSPropertyOp8
 70
     1
102
RTVSPropertyOp9
 70
     1
102
RTVSPropertyOp10
 70
     1
102
RTVSPropertyOp11
 70
     1
102
RTVSPropertyOp12
 70
     1
102
RTVSPropertyOp13
 70
     1
102
RTVSPropertyOp14
 70
     1
102
RTVSPropertyOp15
 70
     1
102
RTVSPropertyOp16
 70
     1
102
RTVSPropertyOp17
 70
     1
102
RTVSPropertyOp18
 70
     1
102
RTVSPropertyOp19
 70
     1
102
RTVSPropertyOp20
 70
     1
102
RTVSPropertyOp21
 70
     1
102
RTVSPropertyOp22
 70
     1
102
RTVSPropertyOp23
 70
     1
102
RTVSPropertyOp24
 70
     1
102
RTVSPropertyOp25
 70
     1
102
RTVSPropertyOp26
 70
     1
102
RTVSPropertyOp27
 70
     1
102
RTVSPropertyOp28
 70
     1
102
RTVSPropertyOp29
 70
     1
102
RTVSPropertyOp30
 70
     1
102
RTVSPropertyOp31
 70
     1
102
RTVSPropertyOp32
 70
     1
102
RTVSPropertyOp33
 70
     1
102
RTVSPropertyOp34
 70
     1
102
RTVSPropertyOp35
 70
     1
102
RTVSPropertyOp36
 70
     1
102
RTVSPropertyOp37
 70
     1
102
RTVSPropertyOp38
 70
     1
102
RTVSPropertyOp39
 70
     1
102
RTVSPropertyOp40
 70
     1
102
RTVSPropertyOp41
 70
     1
102
RTVSPropertyOp42
 70
     1
102
RTVSPropertyOp43
 70
     1
102
RTVSPropertyOp44
 70
     1
102
RTVSPropertyOp45
 70
     1
102
RTVSPropertyOp46
 70
     1
102
RTVSPropertyOp47
 70
     1
102
RTVSPropertyOp48
 70
     1
102
RTVSPropertyOp49
 70
     1
102
RTVSPropertyOp50
 70
     1
102
RTVSPropertyOp51
 70
     0
102
RTVSPropertyOp52
 70
     0
102
RTVSPropertyOp53
 70
     1
102
RTVSPropertyOp54
 70
     1
102
RTVSPropertyOp55
 70
     1
102
RTVSPropertyOp56
 70
     1
102
RTVSPropertyOp57
 70
     1
102
RTVSPost2010Prop28
280
     0
102
RTVSPost2010PropOp28
 70
     1
102
RTVSPost2010Prop29
280
     1
102
RTVSPost2010PropOp29
 70
     1
102
RTVSPost2010Prop30
280
     1
102
RTVSPost2010PropOp30
 70
     1
102
RTVSPost2010Prop31
280
     0
102
RTVSPost2010PropOp31
 70
     1
102
RTVSPost2010Prop32
280
     0
102
RTVSPost2010PropOp32
 70
     1
102
RTVSPost2010Prop33
280
     0
102
RTVSPost2010PropOp33
 70
     1
102
RTVSPost2010Prop34
280
     0
102
RTVSPost2010PropOp34
 70
     1
102
RTVSPost2010Prop35
280
     0
102
RTVSPost2010PropOp35
 70
     1
102
RTVSPost2010Prop36
280
     0
102
RTVSPost2010PropOp36
 70
     1
102
RTVSPost2010Prop37
 90
       50
102
RTVSPost2010PropOp37
 70
     1
102
RTVSPost2010Prop38
140
0.0
102
RTVSPost2010PropOp38
 70
     1
102
RTVSPost2010Prop39
140
1.0
102
RTVSPost2010PropOp39
 70
     1
102
RTVSPost2010Prop40
 90
        0
102
RTVSPost2010PropOp40
 70
     1
102
RTVSPost2010Prop41ColorIndex
 90
       18
102
RTVSPost2010Prop41ColorRGB
 90
        0
102
RTVSPost2010PropOp41
 70
     1
102
RTVSPost2010Prop42
 90
       50
102
RTVSPost2010PropOp42
 70
     1
102
RTVSPost2010Prop43
 90
        3
102
RTVSPost2010PropOp43
 70
     1
102
RTVSPost2010Prop44ColorIndex
 90
        5
102
RTVSPost2010Prop44ColorRGB
 90
      255
102
RTVSPost2010PropOp44
 70
     1
102
RTVSPost2010Prop45
280
     0
102
RTVSPost2010PropOp45
 70
     1
102
RTVSPost2010Prop46
 90
       50
102
RTVSPost2010PropOp46
 70
     1
102
RTVSPost2010Prop47
 90
       50
102
RTVSPost2010PropOp47
 70
     1
102
RTVSPost2010Prop48
 90
       50
102
RTVSPost2010PropOp48
 70
     1
102
RTVSPost2010Prop49
280
     0
102
RTVSPost2010PropOp49
 70
     1
102
RTVSPost2010Prop50
 90
       50
102
RTVSPost2010PropOp50
 70
     1
102
RTVSPost2010Prop51ColorIndex
 90
      256
102
RTVSPost2010Prop51ColorRGB
 90
-16777216
102
RTVSPost2010PropOp51
 70
     0
102
RTVSPost2010Prop52
140
1.0
102
RTVSPost2010PropOp52
 70
     0
102
RTVSPost2010Prop53
 90
        2
102
RTVSPost2010PropOp53
 70
     1
102
RTVSPost2010Prop54
  1
strokes_ogs.tif
102
RTVSPost2010PropOp54
 70
     1
102
RTVSPost2010Prop55
280
     0
102
RTVSPost2010PropOp55
 70
     1
102
RTVSPost2010Prop56
140
1.0
102
RTVSPost2010PropOp56
 70
     1
102
RTVSPost2010Prop57
140
1.0
102
RTVSPost2010PropOp57
 70
     1
  0
XRECORD
  5
5DC
102
{ACAD_REACTORS
330
5DB
102
}
330
5DB
100
AcDbXrecord
280
     1
102
RTVSPropertyOp0
 70
     1
102
RTVSPropertyOp1
 70
     1
102
RTVSPropertyOp2
 70
     1
102
RTVSPropertyOp3
 70
     1
102
RTVSPropertyOp4
 70
     1
102
RTVSPropertyOp5
 70
     1
102
RTVSPropertyOp6
 70
     1
102
RTVSPropertyOp7
 70
     1
102
RTVSPropertyOp8
 70
     1
102
RTVSPropertyOp9
 70
     1
102
RTVSPropertyOp10
 70
     1
102
RTVSPropertyOp11
 70
     1
102
RTVSPropertyOp12
 70
     1
102
RTVSPropertyOp13
 70
     1
102
RTVSPropertyOp14
 70
     1
102
RTVSPropertyOp15
 70
     1
102
RTVSPropertyOp16
 70
     1
102
RTVSPropertyOp17
 70
     1
102
RTVSPropertyOp18
 70
     1
102
RTVSPropertyOp19
 70
     1
102
RTVSPropertyOp20
 70
     1
102
RTVSPropertyOp21
 70
     1
102
RTVSPropertyOp22
 70
     1
102
RTVSPropertyOp23
 70
     1
102
RTVSPropertyOp24
 70
     1
102
RTVSPropertyOp25
 70
     1
102
RTVSPropertyOp26
 70
     1
102
RTVSPropertyOp27
 70
     1
102
RTVSPropertyOp28
 70
     1
102
RTVSPropertyOp29
 70
     1
102
RTVSPropertyOp30
 70
     1
102
RTVSPropertyOp31
 70
     1
102
RTVSPropertyOp32
 70
     1
102
RTVSPropertyOp33
 70
     1
102
RTVSPropertyOp34
 70
     1
102
RTVSPropertyOp35
 70
     1
102
RTVSPropertyOp36
 70
     1
102
RTVSPropertyOp37
 70
     1
102
RTVSPropertyOp38
 70
     1
102
RTVSPropertyOp39
 70
     1
102
RTVSPropertyOp40
 70
     1
102
RTVSPropertyOp41
 70
     1
102
RTVSPropertyOp42
 70
     1
102
RTVSPropertyOp43
 70
     1
102
RTVSPropertyOp44
 70
     1
102
RTVSPropertyOp45
 70
     1
102
RTVSPropertyOp46
 70
     1
102
RTVSPropertyOp47
 70
     1
102
RTVSPropertyOp48
 70
     1
102
RTVSPropertyOp49
 70
     1
102
RTVSPropertyOp50
 70
     1
102
RTVSPropertyOp51
 70
     0
102
RTVSPropertyOp52
 70
     0
102
RTVSPropertyOp53
 70
     1
102
RTVSPropertyOp54
 70
     1
102
RTVSPropertyOp55
 70
     1
102
RTVSPropertyOp56
 70
     1
102
RTVSPropertyOp57
 70
     1
102
RTVSPost2010Prop28
280
     0
102
RTVSPost2010PropOp28
 70
     1
102
RTVSPost2010Prop29
280
     1
102
RTVSPost2010PropOp29
 70
     1
102
RTVSPost2010Prop30
280
     1
102
RTVSPost2010PropOp30
 70
     1
102
RTVSPost2010Prop31
280
     0
102
RTVSPost2010PropOp31
 70
     1
102
RTVSPost2010Prop32
280
     0
102
RTVSPost2010PropOp32
 70
     1
102
RTVSPost2010Prop33
280
     0
102
RTVSPost2010PropOp33
 70
     1
102
RTVSPost2010Prop34
280
     0
102
RTVSPost2010PropOp34
 70
     1
102
RTVSPost2010Prop35
280
     0
102
RTVSPost2010PropOp35
 70
     1
102
RTVSPost2010Prop36
280
     0
102
RTVSPost2010PropOp36
 70
     1
102
RTVSPost2010Prop37
 90
       50
102
RTVSPost2010PropOp37
 70
     1
102
RTVSPost2010Prop38
140
0.0
102
RTVSPost2010PropOp38
 70
     1
102
RTVSPost2010Prop39
140
1.0
102
RTVSPost2010PropOp39
 70
     1
102
RTVSPost2010Prop40
 90
        0
102
RTVSPost2010PropOp40
 70
     1
102
RTVSPost2010Prop41ColorIndex
 90
       18
102
RTVSPost2010Prop41ColorRGB
 90
        0
102
RTVSPost2010PropOp41
 70
     1
102
RTVSPost2010Prop42
 90
       50
102
RTVSPost2010PropOp42
 70
     1
102
RTVSPost2010Prop43
 90
        3
102
RTVSPost2010PropOp43
 70
     1
102
RTVSPost2010Prop44ColorIndex
 90
        5
102
RTVSPost2010Prop44ColorRGB
 90
      255
102
RTVSPost2010PropOp44
 70
     1
102
RTVSPost2010Prop45
280
     0
102
RTVSPost2010PropOp45
 70
     1
102
RTVSPost2010Prop46
 90
       50
102
RTVSPost2010PropOp46
 70
     1
102
RTVSPost2010Prop47
 90
       50
102
RTVSPost2010PropOp47
 70
     1
102
RTVSPost2010Prop48
 90
       50
102
RTVSPost2010PropOp48
 70
     1
102
RTVSPost2010Prop49
280
     0
102
RTVSPost2010PropOp49
 70
     1
102
RTVSPost2010Prop50
 90
       50
102
RTVSPost2010PropOp50
 70
     1
102
RTVSPost2010Prop51ColorIndex
 90
      256
102
RTVSPost2010Prop51ColorRGB
 90
-16777216
102
RTVSPost2010PropOp51
 70
     0
102
RTVSPost2010Prop52
140
1.0
102
RTVSPost2010PropOp52
 70
     0
102
RTVSPost2010Prop53
 90
        2
102
RTVSPost2010PropOp53
 70
     1
102
RTVSPost2010Prop54
  1
strokes_ogs.tif
102
RTVSPost2010PropOp54
 70
     1
102
RTVSPost2010Prop55
280
     0
102
RTVSPost2010PropOp55
 70
     1
102
RTVSPost2010Prop56
140
1.0
102
RTVSPost2010PropOp56
 70
     1
102
RTVSPost2010Prop57
140
1.0
102
RTVSPost2010PropOp57
 70
     1
  0
XRECORD
  5
5DE
102
{ACAD_REACTORS
330
5DD
102
}
330
5DD
100
AcDbXrecord
280
     1
102
RTVSPropertyOp0
 70
     1
102
RTVSPropertyOp1
 70
     1
102
RTVSPropertyOp2
 70
     1
102
RTVSPropertyOp3
 70
     1
102
RTVSPropertyOp4
 70
     1
102
RTVSPropertyOp5
 70
     1
102
RTVSPropertyOp6
 70
     1
102
RTVSPropertyOp7
 70
     1
102
RTVSPropertyOp8
 70
     1
102
RTVSPropertyOp9
 70
     1
102
RTVSPropertyOp10
 70
     1
102
RTVSPropertyOp11
 70
     1
102
RTVSPropertyOp12
 70
     1
102
RTVSPropertyOp13
 70
     1
102
RTVSPropertyOp14
 70
     1
102
RTVSPropertyOp15
 70
     1
102
RTVSPropertyOp16
 70
     1
102
RTVSPropertyOp17
 70
     1
102
RTVSPropertyOp18
 70
     1
102
RTVSPropertyOp19
 70
     1
102
RTVSPropertyOp20
 70
     1
102
RTVSPropertyOp21
 70
     1
102
RTVSPropertyOp22
 70
     1
102
RTVSPropertyOp23
 70
     1
102
RTVSPropertyOp24
 70
     1
102
RTVSPropertyOp25
 70
     1
102
RTVSPropertyOp26
 70
     1
102
RTVSPropertyOp27
 70
     1
102
RTVSPropertyOp28
 70
     1
102
RTVSPropertyOp29
 70
     1
102
RTVSPropertyOp30
 70
     1
102
RTVSPropertyOp31
 70
     1
102
RTVSPropertyOp32
 70
     1
102
RTVSPropertyOp33
 70
     1
102
RTVSPropertyOp34
 70
     1
102
RTVSPropertyOp35
 70
     1
102
RTVSPropertyOp36
 70
     1
102
RTVSPropertyOp37
 70
     1
102
RTVSPropertyOp38
 70
     1
102
RTVSPropertyOp39
 70
     1
102
RTVSPropertyOp40
 70
     1
102
RTVSPropertyOp41
 70
     1
102
RTVSPropertyOp42
 70
     1
102
RTVSPropertyOp43
 70
     1
102
RTVSPropertyOp44
 70
     1
102
RTVSPropertyOp45
 70
     1
102
RTVSPropertyOp46
 70
     1
102
RTVSPropertyOp47
 70
     1
102
RTVSPropertyOp48
 70
     1
102
RTVSPropertyOp49
 70
     1
102
RTVSPropertyOp50
 70
     1
102
RTVSPropertyOp51
 70
     0
102
RTVSPropertyOp52
 70
     0
102
RTVSPropertyOp53
 70
     1
102
RTVSPropertyOp54
 70
     1
102
RTVSPropertyOp55
 70
     1
102
RTVSPropertyOp56
 70
     1
102
RTVSPropertyOp57
 70
     1
102
RTVSPost2010Prop28
280
     0
102
RTVSPost2010PropOp28
 70
     1
102
RTVSPost2010Prop29
280
     1
102
RTVSPost2010PropOp29
 70
     1
102
RTVSPost2010Prop30
280
     1
102
RTVSPost2010PropOp30
 70
     1
102
RTVSPost2010Prop31
280
     0
102
RTVSPost2010PropOp31
 70
     1
102
RTVSPost2010Prop32
280
     0
102
RTVSPost2010PropOp32
 70
     1
102
RTVSPost2010Prop33
280
     0
102
RTVSPost2010PropOp33
 70
     1
102
RTVSPost2010Prop34
280
     0
102
RTVSPost2010PropOp34
 70
     1
102
RTVSPost2010Prop35
280
     0
102
RTVSPost2010PropOp35
 70
     1
102
RTVSPost2010Prop36
280
     0
102
RTVSPost2010PropOp36
 70
     1
102
RTVSPost2010Prop37
 90
       50
102
RTVSPost2010PropOp37
 70
     1
102
RTVSPost2010Prop38
140
0.0
102
RTVSPost2010PropOp38
 70
     1
102
RTVSPost2010Prop39
140
1.0
102
RTVSPost2010PropOp39
 70
     1
102
RTVSPost2010Prop40
 90
        0
102
RTVSPost2010PropOp40
 70
     1
102
RTVSPost2010Prop41ColorIndex
 90
       18
102
RTVSPost2010Prop41ColorRGB
 90
        0
102
RTVSPost2010PropOp41
 70
     1
102
RTVSPost2010Prop42
 90
       50
102
RTVSPost2010PropOp42
 70
     1
102
RTVSPost2010Prop43
 90
        3
102
RTVSPost2010PropOp43
 70
     1
102
RTVSPost2010Prop44ColorIndex
 90
        5
102
RTVSPost2010Prop44ColorRGB
 90
      255
102
RTVSPost2010PropOp44
 70
     1
102
RTVSPost2010Prop45
280
     0
102
RTVSPost2010PropOp45
 70
     1
102
RTVSPost2010Prop46
 90
       50
102
RTVSPost2010PropOp46
 70
     1
102
RTVSPost2010Prop47
 90
       50
102
RTVSPost2010PropOp47
 70
     1
102
RTVSPost2010Prop48
 90
       50
102
RTVSPost2010PropOp48
 70
     1
102
RTVSPost2010Prop49
280
     0
102
RTVSPost2010PropOp49
 70
     1
102
RTVSPost2010Prop50
 90
       50
102
RTVSPost2010PropOp50
 70
     1
102
RTVSPost2010Prop51ColorIndex
 90
      256
102
RTVSPost2010Prop51ColorRGB
 90
-16777216
102
RTVSPost2010PropOp51
 70
     0
102
RTVSPost2010Prop52
140
1.0
102
RTVSPost2010PropOp52
 70
     0
102
RTVSPost2010Prop53
 90
        2
102
RTVSPost2010PropOp53
 70
     1
102
RTVSPost2010Prop54
  1
strokes_ogs.tif
102
RTVSPost2010PropOp54
 70
     1
102
RTVSPost2010Prop55
280
     0
102
RTVSPost2010PropOp55
 70
     1
102
RTVSPost2010Prop56
140
1.0
102
RTVSPost2010PropOp56
 70
     1
102
RTVSPost2010Prop57
140
1.0
102
RTVSPost2010PropOp57
 70
     1
  0
XRECORD
  5
5E0
102
{ACAD_REACTORS
330
5DF
102
}
330
5DF
100
AcDbXrecord
280
     1
102
RTVSPropertyOp0
 70
     1
102
RTVSPropertyOp1
 70
     1
102
RTVSPropertyOp2
 70
     1
102
RTVSPropertyOp3
 70
     1
102
RTVSPropertyOp4
 70
     1
102
RTVSPropertyOp5
 70
     1
102
RTVSPropertyOp6
 70
     1
102
RTVSPropertyOp7
 70
     1
102
RTVSPropertyOp8
 70
     1
102
RTVSPropertyOp9
 70
     1
102
RTVSPropertyOp10
 70
     1
102
RTVSPropertyOp11
 70
     1
102
RTVSPropertyOp12
 70
     1
102
RTVSPropertyOp13
 70
     1
102
RTVSPropertyOp14
 70
     1
102
RTVSPropertyOp15
 70
     1
102
RTVSPropertyOp16
 70
     1
102
RTVSPropertyOp17
 70
     1
102
RTVSPropertyOp18
 70
     1
102
RTVSPropertyOp19
 70
     1
102
RTVSPropertyOp20
 70
     1
102
RTVSPropertyOp21
 70
     1
102
RTVSPropertyOp22
 70
     1
102
RTVSPropertyOp23
 70
     1
102
RTVSPropertyOp24
 70
     1
102
RTVSPropertyOp25
 70
     1
102
RTVSPropertyOp26
 70
     1
102
RTVSPropertyOp27
 70
     1
102
RTVSPropertyOp28
 70
     1
102
RTVSPropertyOp29
 70
     1
102
RTVSPropertyOp30
 70
     1
102
RTVSPropertyOp31
 70
     1
102
RTVSPropertyOp32
 70
     1
102
RTVSPropertyOp33
 70
     1
102
RTVSPropertyOp34
 70
     1
102
RTVSPropertyOp35
 70
     1
102
RTVSPropertyOp36
 70
     1
102
RTVSPropertyOp37
 70
     1
102
RTVSPropertyOp38
 70
     1
102
RTVSPropertyOp39
 70
     1
102
RTVSPropertyOp40
 70
     1
102
RTVSPropertyOp41
 70
     1
102
RTVSPropertyOp42
 70
     1
102
RTVSPropertyOp43
 70
     1
102
RTVSPropertyOp44
 70
     1
102
RTVSPropertyOp45
 70
     1
102
RTVSPropertyOp46
 70
     1
102
RTVSPropertyOp47
 70
     1
102
RTVSPropertyOp48
 70
     1
102
RTVSPropertyOp49
 70
     1
102
RTVSPropertyOp50
 70
     1
102
RTVSPropertyOp51
 70
     0
102
RTVSPropertyOp52
 70
     0
102
RTVSPropertyOp53
 70
     1
102
RTVSPropertyOp54
 70
     1
102
RTVSPropertyOp55
 70
     1
102
RTVSPropertyOp56
 70
     1
102
RTVSPropertyOp57
 70
     1
102
RTVSPost2010Prop28
280
     0
102
RTVSPost2010PropOp28
 70
     1
102
RTVSPost2010Prop29
280
     1
102
RTVSPost2010PropOp29
 70
     1
102
RTVSPost2010Prop30
280
     1
102
RTVSPost2010PropOp30
 70
     1
102
RTVSPost2010Prop31
280
     0
102
RTVSPost2010PropOp31
 70
     1
102
RTVSPost2010Prop32
280
     0
102
RTVSPost2010PropOp32
 70
     1
102
RTVSPost2010Prop33
280
     0
102
RTVSPost2010PropOp33
 70
     1
102
RTVSPost2010Prop34
280
     0
102
RTVSPost2010PropOp34
 70
     1
102
RTVSPost2010Prop35
280
     0
102
RTVSPost2010PropOp35
 70
     1
102
RTVSPost2010Prop36
280
     0
102
RTVSPost2010PropOp36
 70
     1
102
RTVSPost2010Prop37
 90
       50
102
RTVSPost2010PropOp37
 70
     1
102
RTVSPost2010Prop38
140
0.0
102
RTVSPost2010PropOp38
 70
     1
102
RTVSPost2010Prop39
140
1.0
102
RTVSPost2010PropOp39
 70
     1
102
RTVSPost2010Prop40
 90
        0
102
RTVSPost2010PropOp40
 70
     1
102
RTVSPost2010Prop41ColorIndex
 90
       18
102
RTVSPost2010Prop41ColorRGB
 90
        0
102
RTVSPost2010PropOp41
 70
     1
102
RTVSPost2010Prop42
 90
       50
102
RTVSPost2010PropOp42
 70
     1
102
RTVSPost2010Prop43
 90
        3
102
RTVSPost2010PropOp43
 70
     1
102
RTVSPost2010Prop44ColorIndex
 90
        5
102
RTVSPost2010Prop44ColorRGB
 90
      255
102
RTVSPost2010PropOp44
 70
     1
102
RTVSPost2010Prop45
280
     0
102
RTVSPost2010PropOp45
 70
     1
102
RTVSPost2010Prop46
 90
       50
102
RTVSPost2010PropOp46
 70
     1
102
RTVSPost2010Prop47
 90
       50
102
RTVSPost2010PropOp47
 70
     1
102
RTVSPost2010Prop48
 90
       50
102
RTVSPost2010PropOp48
 70
     1
102
RTVSPost2010Prop49
280
     0
102
RTVSPost2010PropOp49
 70
     1
102
RTVSPost2010Prop50
 90
       50
102
RTVSPost2010PropOp50
 70
     1
102
RTVSPost2010Prop51ColorIndex
 90
      256
102
RTVSPost2010Prop51ColorRGB
 90
-16777216
102
RTVSPost2010PropOp51
 70
     0
102
RTVSPost2010Prop52
140
1.0
102
RTVSPost2010PropOp52
 70
     0
102
RTVSPost2010Prop53
 90
        2
102
RTVSPost2010PropOp53
 70
     1
102
RTVSPost2010Prop54
  1
strokes_ogs.tif
102
RTVSPost2010PropOp54
 70
     1
102
RTVSPost2010Prop55
280
     0
102
RTVSPost2010PropOp55
 70
     1
102
RTVSPost2010Prop56
140
1.0
102
RTVSPost2010PropOp56
 70
     1
102
RTVSPost2010Prop57
140
1.0
102
RTVSPost2010PropOp57
 70
     1
  0
XRECORD
  5
5E2
102
{ACAD_REACTORS
330
5E1
102
}
330
5E1
100
AcDbXrecord
280
     1
102
RTVSPropertyOp0
 70
     1
102
RTVSPropertyOp1
 70
     1
102
RTVSPropertyOp2
 70
     1
102
RTVSPropertyOp3
 70
     1
102
RTVSPropertyOp4
 70
     1
102
RTVSPropertyOp5
 70
     1
102
RTVSPropertyOp6
 70
     1
102
RTVSPropertyOp7
 70
     1
102
RTVSPropertyOp8
 70
     1
102
RTVSPropertyOp9
 70
     1
102
RTVSPropertyOp10
 70
     1
102
RTVSPropertyOp11
 70
     1
102
RTVSPropertyOp12
 70
     1
102
RTVSPropertyOp13
 70
     1
102
RTVSPropertyOp14
 70
     1
102
RTVSPropertyOp15
 70
     1
102
RTVSPropertyOp16
 70
     1
102
RTVSPropertyOp17
 70
     1
102
RTVSPropertyOp18
 70
     1
102
RTVSPropertyOp19
 70
     1
102
RTVSPropertyOp20
 70
     1
102
RTVSPropertyOp21
 70
     1
102
RTVSPropertyOp22
 70
     1
102
RTVSPropertyOp23
 70
     1
102
RTVSPropertyOp24
 70
     1
102
RTVSPropertyOp25
 70
     1
102
RTVSPropertyOp26
 70
     1
102
RTVSPropertyOp27
 70
     1
102
RTVSPropertyOp28
 70
     1
102
RTVSPropertyOp29
 70
     1
102
RTVSPropertyOp30
 70
     1
102
RTVSPropertyOp31
 70
     1
102
RTVSPropertyOp32
 70
     1
102
RTVSPropertyOp33
 70
     1
102
RTVSPropertyOp34
 70
     1
102
RTVSPropertyOp35
 70
     1
102
RTVSPropertyOp36
 70
     1
102
RTVSPropertyOp37
 70
     1
102
RTVSPropertyOp38
 70
     1
102
RTVSPropertyOp39
 70
     1
102
RTVSPropertyOp40
 70
     1
102
RTVSPropertyOp41
 70
     1
102
RTVSPropertyOp42
 70
     1
102
RTVSPropertyOp43
 70
     1
102
RTVSPropertyOp44
 70
     1
102
RTVSPropertyOp45
 70
     1
102
RTVSPropertyOp46
 70
     1
102
RTVSPropertyOp47
 70
     1
102
RTVSPropertyOp48
 70
     1
102
RTVSPropertyOp49
 70
     1
102
RTVSPropertyOp50
 70
     1
102
RTVSPropertyOp51
 70
     0
102
RTVSPropertyOp52
 70
     0
102
RTVSPropertyOp53
 70
     1
102
RTVSPropertyOp54
 70
     1
102
RTVSPropertyOp55
 70
     1
102
RTVSPropertyOp56
 70
     1
102
RTVSPropertyOp57
 70
     1
102
RTVSPost2010Prop28
280
     0
102
RTVSPost2010PropOp28
 70
     1
102
RTVSPost2010Prop29
280
     1
102
RTVSPost2010PropOp29
 70
     1
102
RTVSPost2010Prop30
280
     1
102
RTVSPost2010PropOp30
 70
     1
102
RTVSPost2010Prop31
280
     0
102
RTVSPost2010PropOp31
 70
     1
102
RTVSPost2010Prop32
280
     0
102
RTVSPost2010PropOp32
 70
     1
102
RTVSPost2010Prop33
280
     0
102
RTVSPost2010PropOp33
 70
     1
102
RTVSPost2010Prop34
280
     0
102
RTVSPost2010PropOp34
 70
     1
102
RTVSPost2010Prop35
280
     0
102
RTVSPost2010PropOp35
 70
     1
102
RTVSPost2010Prop36
280
     0
102
RTVSPost2010PropOp36
 70
     1
102
RTVSPost2010Prop37
 90
       50
102
RTVSPost2010PropOp37
 70
     1
102
RTVSPost2010Prop38
140
0.0
102
RTVSPost2010PropOp38
 70
     1
102
RTVSPost2010Prop39
140
1.0
102
RTVSPost2010PropOp39
 70
     1
102
RTVSPost2010Prop40
 90
        0
102
RTVSPost2010PropOp40
 70
     1
102
RTVSPost2010Prop41ColorIndex
 90
       18
102
RTVSPost2010Prop41ColorRGB
 90
        0
102
RTVSPost2010PropOp41
 70
     1
102
RTVSPost2010Prop42
 90
       50
102
RTVSPost2010PropOp42
 70
     1
102
RTVSPost2010Prop43
 90
        3
102
RTVSPost2010PropOp43
 70
     1
102
RTVSPost2010Prop44ColorIndex
 90
        5
102
RTVSPost2010Prop44ColorRGB
 90
      255
102
RTVSPost2010PropOp44
 70
     1
102
RTVSPost2010Prop45
280
     0
102
RTVSPost2010PropOp45
 70
     1
102
RTVSPost2010Prop46
 90
       50
102
RTVSPost2010PropOp46
 70
     1
102
RTVSPost2010Prop47
 90
       50
102
RTVSPost2010PropOp47
 70
     1
102
RTVSPost2010Prop48
 90
       50
102
RTVSPost2010PropOp48
 70
     1
102
RTVSPost2010Prop49
280
     0
102
RTVSPost2010PropOp49
 70
     1
102
RTVSPost2010Prop50
 90
       50
102
RTVSPost2010PropOp50
 70
     1
102
RTVSPost2010Prop51ColorIndex
 90
      256
102
RTVSPost2010Prop51ColorRGB
 90
-16777216
102
RTVSPost2010PropOp51
 70
     0
102
RTVSPost2010Prop52
140
1.0
102
RTVSPost2010PropOp52
 70
     0
102
RTVSPost2010Prop53
 90
        2
102
RTVSPost2010PropOp53
 70
     1
102
RTVSPost2010Prop54
  1
strokes_ogs.tif
102
RTVSPost2010PropOp54
 70
     1
102
RTVSPost2010Prop55
280
     0
102
RTVSPost2010PropOp55
 70
     1
102
RTVSPost2010Prop56
140
1.0
102
RTVSPost2010PropOp56
 70
     1
102
RTVSPost2010Prop57
140
1.0
102
RTVSPost2010PropOp57
 70
     1
  0
XRECORD
  5
5E4
102
{ACAD_REACTORS
330
5E3
102
}
330
5E3
100
AcDbXrecord
280
     1
102
RTVSPropertyOp0
 70
     0
102
RTVSPropertyOp1
 70
     0
102
RTVSPropertyOp2
 70
     0
102
RTVSPropertyOp3
 70
     0
102
RTVSPropertyOp4
 70
     0
102
RTVSPropertyOp5
 70
     0
102
RTVSPropertyOp6
 70
     0
102
RTVSPropertyOp7
 70
     0
102
RTVSPropertyOp8
 70
     0
102
RTVSPropertyOp9
 70
     0
102
RTVSPropertyOp10
 70
     0
102
RTVSPropertyOp11
 70
     0
102
RTVSPropertyOp12
 70
     0
102
RTVSPropertyOp13
 70
     0
102
RTVSPropertyOp14
 70
     2
102
RTVSPropertyOp15
 70
     0
102
RTVSPropertyOp16
 70
     0
102
RTVSPropertyOp17
 70
     0
102
RTVSPropertyOp18
 70
     0
102
RTVSPropertyOp19
 70
     0
102
RTVSPropertyOp20
 70
     0
102
RTVSPropertyOp21
 70
     0
102
RTVSPropertyOp22
 70
     0
102
RTVSPropertyOp23
 70
     0
102
RTVSPropertyOp24
 70
     0
102
RTVSPropertyOp25
 70
     0
102
RTVSPropertyOp26
 70
     0
102
RTVSPropertyOp27
 70
     0
102
RTVSPropertyOp28
 70
     0
102
RTVSPropertyOp29
 70
     0
102
RTVSPropertyOp30
 70
     0
102
RTVSPropertyOp31
 70
     0
102
RTVSPropertyOp32
 70
     0
102
RTVSPropertyOp33
 70
     0
102
RTVSPropertyOp34
 70
     0
102
RTVSPropertyOp35
 70
     0
102
RTVSPropertyOp36
 70
     0
102
RTVSPropertyOp37
 70
     0
102
RTVSPropertyOp38
 70
     0
102
RTVSPropertyOp39
 70
     0
102
RTVSPropertyOp40
 70
     0
102
RTVSPropertyOp41
 70
     0
102
RTVSPropertyOp42
 70
     0
102
RTVSPropertyOp43
 70
     0
102
RTVSPropertyOp44
 70
     0
102
RTVSPropertyOp45
 70
     0
102
RTVSPropertyOp46
 70
     0
102
RTVSPropertyOp47
 70
     0
102
RTVSPropertyOp48
 70
     0
102
RTVSPropertyOp49
 70
     0
102
RTVSPropertyOp50
 70
     0
102
RTVSPropertyOp51
 70
     0
102
RTVSPropertyOp52
 70
     0
102
RTVSPropertyOp53
 70
     0
102
RTVSPropertyOp54
 70
     0
102
RTVSPropertyOp55
 70
     0
102
RTVSPropertyOp56
 70
     0
102
RTVSPropertyOp57
 70
     0
102
RTVSPost2010Prop28
280
     0
102
RTVSPost2010PropOp28
 70
     0
102
RTVSPost2010Prop29
280
     1
102
RTVSPost2010PropOp29
 70
     0
102
RTVSPost2010Prop30
280
     1
102
RTVSPost2010PropOp30
 70
     0
102
RTVSPost2010Prop31
280
     0
102
RTVSPost2010PropOp31
 70
     0
102
RTVSPost2010Prop32
280
     0
102
RTVSPost2010PropOp32
 70
     0
102
RTVSPost2010Prop33
280
     0
102
RTVSPost2010PropOp33
 70
     0
102
RTVSPost2010Prop34
280
     0
102
RTVSPost2010PropOp34
 70
     0
102
RTVSPost2010Prop35
280
     0
102
RTVSPost2010PropOp35
 70
     0
102
RTVSPost2010Prop36
280
     0
102
RTVSPost2010PropOp36
 70
     0
102
RTVSPost2010Prop37
 90
       50
102
RTVSPost2010PropOp37
 70
     0
102
RTVSPost2010Prop38
140
0.0
102
RTVSPost2010PropOp38
 70
     0
102
RTVSPost2010Prop39
140
1.0
102
RTVSPost2010PropOp39
 70
     0
102
RTVSPost2010Prop40
 90
        0
102
RTVSPost2010PropOp40
 70
     0
102
RTVSPost2010Prop41ColorIndex
 90
       18
102
RTVSPost2010Prop41ColorRGB
 90
        0
102
RTVSPost2010PropOp41
 70
     0
102
RTVSPost2010Prop42
 90
       50
102
RTVSPost2010PropOp42
 70
     0
102
RTVSPost2010Prop43
 90
        3
102
RTVSPost2010PropOp43
 70
     0
102
RTVSPost2010Prop44ColorIndex
 90
        5
102
RTVSPost2010Prop44ColorRGB
 90
      255
102
RTVSPost2010PropOp44
 70
     0
102
RTVSPost2010Prop45
280
     0
102
RTVSPost2010PropOp45
 70
     0
102
RTVSPost2010Prop46
 90
       50
102
RTVSPost2010PropOp46
 70
     0
102
RTVSPost2010Prop47
 90
       50
102
RTVSPost2010PropOp47
 70
     0
102
RTVSPost2010Prop48
 90
       50
102
RTVSPost2010PropOp48
 70
     0
102
RTVSPost2010Prop49
280
     0
102
RTVSPost2010PropOp49
 70
     0
102
RTVSPost2010Prop50
 90
       50
102
RTVSPost2010PropOp50
 70
     0
102
RTVSPost2010Prop51ColorIndex
 90
      256
102
RTVSPost2010Prop51ColorRGB
 90
-16777216
102
RTVSPost2010PropOp51
 70
     0
102
RTVSPost2010Prop52
140
1.0
102
RTVSPost2010PropOp52
 70
     0
102
RTVSPost2010Prop53
 90
        2
102
RTVSPost2010PropOp53
 70
     0
102
RTVSPost2010Prop54
  1
strokes_ogs.tif
102
RTVSPost2010PropOp54
 70
     0
102
RTVSPost2010Prop55
280
     0
102
RTVSPost2010PropOp55
 70
     0
102
RTVSPost2010Prop56
140
1.0
102
RTVSPost2010PropOp56
 70
     0
102
RTVSPost2010Prop57
140
1.0
102
RTVSPost2010PropOp57
 70
     0
  0
XRECORD
  5
5E6
102
{ACAD_REACTORS
330
5E5
102
}
330
5E5
100
AcDbXrecord
280
     1
102
RTVSPropertyOp0
 70
     1
102
RTVSPropertyOp1
 70
     1
102
RTVSPropertyOp2
 70
     1
102
RTVSPropertyOp3
 70
     1
102
RTVSPropertyOp4
 70
     1
102
RTVSPropertyOp5
 70
     1
102
RTVSPropertyOp6
 70
     1
102
RTVSPropertyOp7
 70
     1
102
RTVSPropertyOp8
 70
     1
102
RTVSPropertyOp9
 70
     1
102
RTVSPropertyOp10
 70
     1
102
RTVSPropertyOp11
 70
     1
102
RTVSPropertyOp12
 70
     1
102
RTVSPropertyOp13
 70
     1
102
RTVSPropertyOp14
 70
     1
102
RTVSPropertyOp15
 70
     1
102
RTVSPropertyOp16
 70
     1
102
RTVSPropertyOp17
 70
     1
102
RTVSPropertyOp18
 70
     1
102
RTVSPropertyOp19
 70
     1
102
RTVSPropertyOp20
 70
     1
102
RTVSPropertyOp21
 70
     1
102
RTVSPropertyOp22
 70
     1
102
RTVSPropertyOp23
 70
     1
102
RTVSPropertyOp24
 70
     1
102
RTVSPropertyOp25
 70
     1
102
RTVSPropertyOp26
 70
     1
102
RTVSPropertyOp27
 70
     1
102
RTVSPropertyOp28
 70
     1
102
RTVSPropertyOp29
 70
     1
102
RTVSPropertyOp30
 70
     1
102
RTVSPropertyOp31
 70
     1
102
RTVSPropertyOp32
 70
     1
102
RTVSPropertyOp33
 70
     1
102
RTVSPropertyOp34
 70
     1
102
RTVSPropertyOp35
 70
     1
102
RTVSPropertyOp36
 70
     1
102
RTVSPropertyOp37
 70
     1
102
RTVSPropertyOp38
 70
     1
102
RTVSPropertyOp39
 70
     1
102
RTVSPropertyOp40
 70
     1
102
RTVSPropertyOp41
 70
     1
102
RTVSPropertyOp42
 70
     1
102
RTVSPropertyOp43
 70
     1
102
RTVSPropertyOp44
 70
     1
102
RTVSPropertyOp45
 70
     1
102
RTVSPropertyOp46
 70
     1
102
RTVSPropertyOp47
 70
     1
102
RTVSPropertyOp48
 70
     1
102
RTVSPropertyOp49
 70
     1
102
RTVSPropertyOp50
 70
     1
102
RTVSPropertyOp51
 70
     0
102
RTVSPropertyOp52
 70
     0
102
RTVSPropertyOp53
 70
     1
102
RTVSPropertyOp54
 70
     1
102
RTVSPropertyOp55
 70
     1
102
RTVSPropertyOp56
 70
     1
102
RTVSPropertyOp57
 70
     1
102
RTVSPost2010Prop28
280
     0
102
RTVSPost2010PropOp28
 70
     1
102
RTVSPost2010Prop29
280
     1
102
RTVSPost2010PropOp29
 70
     1
102
RTVSPost2010Prop30
280
     1
102
RTVSPost2010PropOp30
 70
     1
102
RTVSPost2010Prop31
280
     0
102
RTVSPost2010PropOp31
 70
     1
102
RTVSPost2010Prop32
280
     0
102
RTVSPost2010PropOp32
 70
     1
102
RTVSPost2010Prop33
280
     0
102
RTVSPost2010PropOp33
 70
     1
102
RTVSPost2010Prop34
280
     0
102
RTVSPost2010PropOp34
 70
     1
102
RTVSPost2010Prop35
280
     0
102
RTVSPost2010PropOp35
 70
     1
102
RTVSPost2010Prop36
280
     0
102
RTVSPost2010PropOp36
 70
     1
102
RTVSPost2010Prop37
 90
       50
102
RTVSPost2010PropOp37
 70
     1
102
RTVSPost2010Prop38
140
0.0
102
RTVSPost2010PropOp38
 70
     1
102
RTVSPost2010Prop39
140
1.0
102
RTVSPost2010PropOp39
 70
     1
102
RTVSPost2010Prop40
 90
        0
102
RTVSPost2010PropOp40
 70
     1
102
RTVSPost2010Prop41ColorIndex
 90
       18
102
RTVSPost2010Prop41ColorRGB
 90
        0
102
RTVSPost2010PropOp41
 70
     1
102
RTVSPost2010Prop42
 90
       50
102
RTVSPost2010PropOp42
 70
     1
102
RTVSPost2010Prop43
 90
        3
102
RTVSPost2010PropOp43
 70
     1
102
RTVSPost2010Prop44ColorIndex
 90
        5
102
RTVSPost2010Prop44ColorRGB
 90
      255
102
RTVSPost2010PropOp44
 70
     1
102
RTVSPost2010Prop45
280
     0
102
RTVSPost2010PropOp45
 70
     1
102
RTVSPost2010Prop46
 90
       50
102
RTVSPost2010PropOp46
 70
     1
102
RTVSPost2010Prop47
 90
       50
102
RTVSPost2010PropOp47
 70
     1
102
RTVSPost2010Prop48
 90
       50
102
RTVSPost2010PropOp48
 70
     1
102
RTVSPost2010Prop49
280
     0
102
RTVSPost2010PropOp49
 70
     1
102
RTVSPost2010Prop50
 90
       50
102
RTVSPost2010PropOp50
 70
     1
102
RTVSPost2010Prop51ColorIndex
 90
      256
102
RTVSPost2010Prop51ColorRGB
 90
-16777216
102
RTVSPost2010PropOp51
 70
     0
102
RTVSPost2010Prop52
140
1.0
102
RTVSPost2010PropOp52
 70
     0
102
RTVSPost2010Prop53
 90
        2
102
RTVSPost2010PropOp53
 70
     1
102
RTVSPost2010Prop54
  1
strokes_ogs.tif
102
RTVSPost2010PropOp54
 70
     1
102
RTVSPost2010Prop55
280
     0
102
RTVSPost2010PropOp55
 70
     1
102
RTVSPost2010Prop56
140
1.0
102
RTVSPost2010PropOp56
 70
     1
102
RTVSPost2010Prop57
140
1.0
102
RTVSPost2010PropOp57
 70
     1
  0
XRECORD
  5
5E8
102
{ACAD_REACTORS
330
5E7
102
}
330
5E7
100
AcDbXrecord
280
     1
102
RTVSPropertyOp0
 70
     0
102
RTVSPropertyOp1
 70
     0
102
RTVSPropertyOp2
 70
     0
102
RTVSPropertyOp3
 70
     0
102
RTVSPropertyOp4
 70
     0
102
RTVSPropertyOp5
 70
     0
102
RTVSPropertyOp6
 70
     0
102
RTVSPropertyOp7
 70
     0
102
RTVSPropertyOp8
 70
     0
102
RTVSPropertyOp9
 70
     0
102
RTVSPropertyOp10
 70
     0
102
RTVSPropertyOp11
 70
     0
102
RTVSPropertyOp12
 70
     0
102
RTVSPropertyOp13
 70
     0
102
RTVSPropertyOp14
 70
     2
102
RTVSPropertyOp15
 70
     0
102
RTVSPropertyOp16
 70
     0
102
RTVSPropertyOp17
 70
     0
102
RTVSPropertyOp18
 70
     0
102
RTVSPropertyOp19
 70
     0
102
RTVSPropertyOp20
 70
     0
102
RTVSPropertyOp21
 70
     0
102
RTVSPropertyOp22
 70
     0
102
RTVSPropertyOp23
 70
     0
102
RTVSPropertyOp24
 70
     0
102
RTVSPropertyOp25
 70
     0
102
RTVSPropertyOp26
 70
     0
102
RTVSPropertyOp27
 70
     0
102
RTVSPropertyOp28
 70
     0
102
RTVSPropertyOp29
 70
     0
102
RTVSPropertyOp30
 70
     0
102
RTVSPropertyOp31
 70
     0
102
RTVSPropertyOp32
 70
     0
102
RTVSPropertyOp33
 70
     0
102
RTVSPropertyOp34
 70
     0
102
RTVSPropertyOp35
 70
     0
102
RTVSPropertyOp36
 70
     0
102
RTVSPropertyOp37
 70
     0
102
RTVSPropertyOp38
 70
     0
102
RTVSPropertyOp39
 70
     0
102
RTVSPropertyOp40
 70
     0
102
RTVSPropertyOp41
 70
     0
102
RTVSPropertyOp42
 70
     0
102
RTVSPropertyOp43
 70
     0
102
RTVSPropertyOp44
 70
     0
102
RTVSPropertyOp45
 70
     0
102
RTVSPropertyOp46
 70
     0
102
RTVSPropertyOp47
 70
     0
102
RTVSPropertyOp48
 70
     0
102
RTVSPropertyOp49
 70
     0
102
RTVSPropertyOp50
 70
     0
102
RTVSPropertyOp51
 70
     0
102
RTVSPropertyOp52
 70
     0
102
RTVSPropertyOp53
 70
     0
102
RTVSPropertyOp54
 70
     0
102
RTVSPropertyOp55
 70
     0
102
RTVSPropertyOp56
 70
     0
102
RTVSPropertyOp57
 70
     0
102
RTVSPost2010Prop28
280
     0
102
RTVSPost2010PropOp28
 70
     0
102
RTVSPost2010Prop29
280
     1
102
RTVSPost2010PropOp29
 70
     0
102
RTVSPost2010Prop30
280
     1
102
RTVSPost2010PropOp30
 70
     0
102
RTVSPost2010Prop31
280
     0
102
RTVSPost2010PropOp31
 70
     0
102
RTVSPost2010Prop32
280
     0
102
RTVSPost2010PropOp32
 70
     0
102
RTVSPost2010Prop33
280
     0
102
RTVSPost2010PropOp33
 70
     0
102
RTVSPost2010Prop34
280
     0
102
RTVSPost2010PropOp34
 70
     0
102
RTVSPost2010Prop35
280
     0
102
RTVSPost2010PropOp35
 70
     0
102
RTVSPost2010Prop36
280
     0
102
RTVSPost2010PropOp36
 70
     0
102
RTVSPost2010Prop37
 90
       50
102
RTVSPost2010PropOp37
 70
     0
102
RTVSPost2010Prop38
140
0.0
102
RTVSPost2010PropOp38
 70
     0
102
RTVSPost2010Prop39
140
1.0
102
RTVSPost2010PropOp39
 70
     0
102
RTVSPost2010Prop40
 90
        0
102
RTVSPost2010PropOp40
 70
     0
102
RTVSPost2010Prop41ColorIndex
 90
       18
102
RTVSPost2010Prop41ColorRGB
 90
        0
102
RTVSPost2010PropOp41
 70
     0
102
RTVSPost2010Prop42
 90
       50
102
RTVSPost2010PropOp42
 70
     0
102
RTVSPost2010Prop43
 90
        3
102
RTVSPost2010PropOp43
 70
     0
102
RTVSPost2010Prop44ColorIndex
 90
        5
102
RTVSPost2010Prop44ColorRGB
 90
      255
102
RTVSPost2010PropOp44
 70
     0
102
RTVSPost2010Prop45
280
     0
102
RTVSPost2010PropOp45
 70
     0
102
RTVSPost2010Prop46
 90
       50
102
RTVSPost2010PropOp46
 70
     0
102
RTVSPost2010Prop47
 90
       50
102
RTVSPost2010PropOp47
 70
     0
102
RTVSPost2010Prop48
 90
       50
102
RTVSPost2010PropOp48
 70
     0
102
RTVSPost2010Prop49
280
     0
102
RTVSPost2010PropOp49
 70
     0
102
RTVSPost2010Prop50
 90
       50
102
RTVSPost2010PropOp50
 70
     0
102
RTVSPost2010Prop51ColorIndex
 90
      256
102
RTVSPost2010Prop51ColorRGB
 90
-16777216
102
RTVSPost2010PropOp51
 70
     0
102
RTVSPost2010Prop52
140
1.0
102
RTVSPost2010PropOp52
 70
     0
102
RTVSPost2010Prop53
 90
        2
102
RTVSPost2010PropOp53
 70
     0
102
RTVSPost2010Prop54
  1
strokes_ogs.tif
102
RTVSPost2010PropOp54
 70
     0
102
RTVSPost2010Prop55
280
     0
102
RTVSPost2010PropOp55
 70
     0
102
RTVSPost2010Prop56
140
1.0
102
RTVSPost2010PropOp56
 70
     0
102
RTVSPost2010Prop57
140
1.0
102
RTVSPost2010PropOp57
 70
     0
  0
XRECORD
  5
5EA
102
{ACAD_REACTORS
330
5E9
102
}
330
5E9
100
AcDbXrecord
280
     1
102
RTVSPropertyOp0
 70
     1
102
RTVSPropertyOp1
 70
     1
102
RTVSPropertyOp2
 70
     1
102
RTVSPropertyOp3
 70
     1
102
RTVSPropertyOp4
 70
     1
102
RTVSPropertyOp5
 70
     1
102
RTVSPropertyOp6
 70
     1
102
RTVSPropertyOp7
 70
     1
102
RTVSPropertyOp8
 70
     1
102
RTVSPropertyOp9
 70
     1
102
RTVSPropertyOp10
 70
     1
102
RTVSPropertyOp11
 70
     1
102
RTVSPropertyOp12
 70
     1
102
RTVSPropertyOp13
 70
     1
102
RTVSPropertyOp14
 70
     1
102
RTVSPropertyOp15
 70
     1
102
RTVSPropertyOp16
 70
     1
102
RTVSPropertyOp17
 70
     1
102
RTVSPropertyOp18
 70
     1
102
RTVSPropertyOp19
 70
     1
102
RTVSPropertyOp20
 70
     1
102
RTVSPropertyOp21
 70
     1
102
RTVSPropertyOp22
 70
     1
102
RTVSPropertyOp23
 70
     1
102
RTVSPropertyOp24
 70
     1
102
RTVSPropertyOp25
 70
     1
102
RTVSPropertyOp26
 70
     1
102
RTVSPropertyOp27
 70
     1
102
RTVSPropertyOp28
 70
     1
102
RTVSPropertyOp29
 70
     1
102
RTVSPropertyOp30
 70
     1
102
RTVSPropertyOp31
 70
     1
102
RTVSPropertyOp32
 70
     1
102
RTVSPropertyOp33
 70
     1
102
RTVSPropertyOp34
 70
     1
102
RTVSPropertyOp35
 70
     1
102
RTVSPropertyOp36
 70
     1
102
RTVSPropertyOp37
 70
     1
102
RTVSPropertyOp38
 70
     1
102
RTVSPropertyOp39
 70
     1
102
RTVSPropertyOp40
 70
     1
102
RTVSPropertyOp41
 70
     1
102
RTVSPropertyOp42
 70
     1
102
RTVSPropertyOp43
 70
     1
102
RTVSPropertyOp44
 70
     1
102
RTVSPropertyOp45
 70
     1
102
RTVSPropertyOp46
 70
     1
102
RTVSPropertyOp47
 70
     1
102
RTVSPropertyOp48
 70
     1
102
RTVSPropertyOp49
 70
     1
102
RTVSPropertyOp50
 70
     1
102
RTVSPropertyOp51
 70
     0
102
RTVSPropertyOp52
 70
     0
102
RTVSPropertyOp53
 70
     1
102
RTVSPropertyOp54
 70
     1
102
RTVSPropertyOp55
 70
     1
102
RTVSPropertyOp56
 70
     1
102
RTVSPropertyOp57
 70
     1
102
RTVSPost2010Prop28
280
     0
102
RTVSPost2010PropOp28
 70
     1
102
RTVSPost2010Prop29
280
     1
102
RTVSPost2010PropOp29
 70
     1
102
RTVSPost2010Prop30
280
     1
102
RTVSPost2010PropOp30
 70
     1
102
RTVSPost2010Prop31
280
     0
102
RTVSPost2010PropOp31
 70
     1
102
RTVSPost2010Prop32
280
     0
102
RTVSPost2010PropOp32
 70
     1
102
RTVSPost2010Prop33
280
     0
102
RTVSPost2010PropOp33
 70
     1
102
RTVSPost2010Prop34
280
     0
102
RTVSPost2010PropOp34
 70
     1
102
RTVSPost2010Prop35
280
     0
102
RTVSPost2010PropOp35
 70
     1
102
RTVSPost2010Prop36
280
     0
102
RTVSPost2010PropOp36
 70
     1
102
RTVSPost2010Prop37
 90
       50
102
RTVSPost2010PropOp37
 70
     1
102
RTVSPost2010Prop38
140
0.0
102
RTVSPost2010PropOp38
 70
     1
102
RTVSPost2010Prop39
140
1.0
102
RTVSPost2010PropOp39
 70
     1
102
RTVSPost2010Prop40
 90
        0
102
RTVSPost2010PropOp40
 70
     1
102
RTVSPost2010Prop41ColorIndex
 90
       18
102
RTVSPost2010Prop41ColorRGB
 90
        0
102
RTVSPost2010PropOp41
 70
     1
102
RTVSPost2010Prop42
 90
       50
102
RTVSPost2010PropOp42
 70
     1
102
RTVSPost2010Prop43
 90
        3
102
RTVSPost2010PropOp43
 70
     1
102
RTVSPost2010Prop44ColorIndex
 90
        5
102
RTVSPost2010Prop44ColorRGB
 90
      255
102
RTVSPost2010PropOp44
 70
     1
102
RTVSPost2010Prop45
280
     0
102
RTVSPost2010PropOp45
 70
     1
102
RTVSPost2010Prop46
 90
       50
102
RTVSPost2010PropOp46
 70
     1
102
RTVSPost2010Prop47
 90
       50
102
RTVSPost2010PropOp47
 70
     1
102
RTVSPost2010Prop48
 90
       50
102
RTVSPost2010PropOp48
 70
     1
102
RTVSPost2010Prop49
280
     0
102
RTVSPost2010PropOp49
 70
     1
102
RTVSPost2010Prop50
 90
       50
102
RTVSPost2010PropOp50
 70
     1
102
RTVSPost2010Prop51ColorIndex
 90
      256
102
RTVSPost2010Prop51ColorRGB
 90
-16777216
102
RTVSPost2010PropOp51
 70
     0
102
RTVSPost2010Prop52
140
1.0
102
RTVSPost2010PropOp52
 70
     0
102
RTVSPost2010Prop53
 90
        2
102
RTVSPost2010PropOp53
 70
     1
102
RTVSPost2010Prop54
  1
strokes_ogs.tif
102
RTVSPost2010PropOp54
 70
     1
102
RTVSPost2010Prop55
280
     0
102
RTVSPost2010PropOp55
 70
     1
102
RTVSPost2010Prop56
140
1.0
102
RTVSPost2010PropOp56
 70
     1
102
RTVSPost2010Prop57
140
1.0
102
RTVSPost2010PropOp57
 70
     1
  0
XRECORD
  5
5EC
102
{ACAD_REACTORS
330
5EB
102
}
330
5EB
100
AcDbXrecord
280
     1
102
RTVSPropertyOp0
 70
     1
102
RTVSPropertyOp1
 70
     1
102
RTVSPropertyOp2
 70
     1
102
RTVSPropertyOp3
 70
     1
102
RTVSPropertyOp4
 70
     1
102
RTVSPropertyOp5
 70
     1
102
RTVSPropertyOp6
 70
     1
102
RTVSPropertyOp7
 70
     1
102
RTVSPropertyOp8
 70
     1
102
RTVSPropertyOp9
 70
     1
102
RTVSPropertyOp10
 70
     1
102
RTVSPropertyOp11
 70
     1
102
RTVSPropertyOp12
 70
     1
102
RTVSPropertyOp13
 70
     1
102
RTVSPropertyOp14
 70
     1
102
RTVSPropertyOp15
 70
     1
102
RTVSPropertyOp16
 70
     1
102
RTVSPropertyOp17
 70
     1
102
RTVSPropertyOp18
 70
     1
102
RTVSPropertyOp19
 70
     1
102
RTVSPropertyOp20
 70
     1
102
RTVSPropertyOp21
 70
     1
102
RTVSPropertyOp22
 70
     1
102
RTVSPropertyOp23
 70
     1
102
RTVSPropertyOp24
 70
     1
102
RTVSPropertyOp25
 70
     1
102
RTVSPropertyOp26
 70
     1
102
RTVSPropertyOp27
 70
     1
102
RTVSPropertyOp28
 70
     1
102
RTVSPropertyOp29
 70
     1
102
RTVSPropertyOp30
 70
     1
102
RTVSPropertyOp31
 70
     1
102
RTVSPropertyOp32
 70
     1
102
RTVSPropertyOp33
 70
     1
102
RTVSPropertyOp34
 70
     1
102
RTVSPropertyOp35
 70
     1
102
RTVSPropertyOp36
 70
     1
102
RTVSPropertyOp37
 70
     1
102
RTVSPropertyOp38
 70
     1
102
RTVSPropertyOp39
 70
     1
102
RTVSPropertyOp40
 70
     1
102
RTVSPropertyOp41
 70
     1
102
RTVSPropertyOp42
 70
     1
102
RTVSPropertyOp43
 70
     1
102
RTVSPropertyOp44
 70
     1
102
RTVSPropertyOp45
 70
     1
102
RTVSPropertyOp46
 70
     1
102
RTVSPropertyOp47
 70
     1
102
RTVSPropertyOp48
 70
     1
102
RTVSPropertyOp49
 70
     1
102
RTVSPropertyOp50
 70
     1
102
RTVSPropertyOp51
 70
     0
102
RTVSPropertyOp52
 70
     0
102
RTVSPropertyOp53
 70
     1
102
RTVSPropertyOp54
 70
     1
102
RTVSPropertyOp55
 70
     1
102
RTVSPropertyOp56
 70
     1
102
RTVSPropertyOp57
 70
     1
102
RTVSPost2010Prop28
280
     0
102
RTVSPost2010PropOp28
 70
     1
102
RTVSPost2010Prop29
280
     1
102
RTVSPost2010PropOp29
 70
     1
102
RTVSPost2010Prop30
280
     1
102
RTVSPost2010PropOp30
 70
     1
102
RTVSPost2010Prop31
280
     0
102
RTVSPost2010PropOp31
 70
     1
102
RTVSPost2010Prop32
280
     0
102
RTVSPost2010PropOp32
 70
     1
102
RTVSPost2010Prop33
280
     0
102
RTVSPost2010PropOp33
 70
     1
102
RTVSPost2010Prop34
280
     0
102
RTVSPost2010PropOp34
 70
     1
102
RTVSPost2010Prop35
280
     0
102
RTVSPost2010PropOp35
 70
     1
102
RTVSPost2010Prop36
280
     0
102
RTVSPost2010PropOp36
 70
     1
102
RTVSPost2010Prop37
 90
       50
102
RTVSPost2010PropOp37
 70
     1
102
RTVSPost2010Prop38
140
0.0
102
RTVSPost2010PropOp38
 70
     1
102
RTVSPost2010Prop39
140
1.0
102
RTVSPost2010PropOp39
 70
     1
102
RTVSPost2010Prop40
 90
        0
102
RTVSPost2010PropOp40
 70
     1
102
RTVSPost2010Prop41ColorIndex
 90
       18
102
RTVSPost2010Prop41ColorRGB
 90
        0
102
RTVSPost2010PropOp41
 70
     1
102
RTVSPost2010Prop42
 90
       50
102
RTVSPost2010PropOp42
 70
     1
102
RTVSPost2010Prop43
 90
        3
102
RTVSPost2010PropOp43
 70
     1
102
RTVSPost2010Prop44ColorIndex
 90
        5
102
RTVSPost2010Prop44ColorRGB
 90
      255
102
RTVSPost2010PropOp44
 70
     1
102
RTVSPost2010Prop45
280
     0
102
RTVSPost2010PropOp45
 70
     1
102
RTVSPost2010Prop46
 90
       50
102
RTVSPost2010PropOp46
 70
     1
102
RTVSPost2010Prop47
 90
       50
102
RTVSPost2010PropOp47
 70
     1
102
RTVSPost2010Prop48
 90
       50
102
RTVSPost2010PropOp48
 70
     1
102
RTVSPost2010Prop49
280
     0
102
RTVSPost2010PropOp49
 70
     1
102
RTVSPost2010Prop50
 90
       50
102
RTVSPost2010PropOp50
 70
     1
102
RTVSPost2010Prop51ColorIndex
 90
      256
102
RTVSPost2010Prop51ColorRGB
 90
-16777216
102
RTVSPost2010PropOp51
 70
     0
102
RTVSPost2010Prop52
140
1.0
102
RTVSPost2010PropOp52
 70
     0
102
RTVSPost2010Prop53
 90
        2
102
RTVSPost2010PropOp53
 70
     1
102
RTVSPost2010Prop54
  1
strokes_ogs.tif
102
RTVSPost2010PropOp54
 70
     1
102
RTVSPost2010Prop55
280
     0
102
RTVSPost2010PropOp55
 70
     1
102
RTVSPost2010Prop56
140
1.0
102
RTVSPost2010PropOp56
 70
     1
102
RTVSPost2010Prop57
140
1.0
102
RTVSPost2010PropOp57
 70
     1
  0
XRECORD
  5
5EE
102
{ACAD_REACTORS
330
5ED
102
}
330
5ED
100
AcDbXrecord
280
     1
102
RTVSPropertyOp0
 70
     1
102
RTVSPropertyOp1
 70
     1
102
RTVSPropertyOp2
 70
     1
102
RTVSPropertyOp3
 70
     1
102
RTVSPropertyOp4
 70
     1
102
RTVSPropertyOp5
 70
     1
102
RTVSPropertyOp6
 70
     1
102
RTVSPropertyOp7
 70
     1
102
RTVSPropertyOp8
 70
     1
102
RTVSPropertyOp9
 70
     1
102
RTVSPropertyOp10
 70
     1
102
RTVSPropertyOp11
 70
     1
102
RTVSPropertyOp12
 70
     1
102
RTVSPropertyOp13
 70
     1
102
RTVSPropertyOp14
 70
     1
102
RTVSPropertyOp15
 70
     1
102
RTVSPropertyOp16
 70
     1
102
RTVSPropertyOp17
 70
     1
102
RTVSPropertyOp18
 70
     1
102
RTVSPropertyOp19
 70
     1
102
RTVSPropertyOp20
 70
     1
102
RTVSPropertyOp21
 70
     1
102
RTVSPropertyOp22
 70
     1
102
RTVSPropertyOp23
 70
     1
102
RTVSPropertyOp24
 70
     1
102
RTVSPropertyOp25
 70
     1
102
RTVSPropertyOp26
 70
     1
102
RTVSPropertyOp27
 70
     1
102
RTVSPropertyOp28
 70
     1
102
RTVSPropertyOp29
 70
     1
102
RTVSPropertyOp30
 70
     1
102
RTVSPropertyOp31
 70
     1
102
RTVSPropertyOp32
 70
     1
102
RTVSPropertyOp33
 70
     1
102
RTVSPropertyOp34
 70
     1
102
RTVSPropertyOp35
 70
     1
102
RTVSPropertyOp36
 70
     1
102
RTVSPropertyOp37
 70
     1
102
RTVSPropertyOp38
 70
     1
102
RTVSPropertyOp39
 70
     1
102
RTVSPropertyOp40
 70
     1
102
RTVSPropertyOp41
 70
     1
102
RTVSPropertyOp42
 70
     1
102
RTVSPropertyOp43
 70
     1
102
RTVSPropertyOp44
 70
     1
102
RTVSPropertyOp45
 70
     1
102
RTVSPropertyOp46
 70
     1
102
RTVSPropertyOp47
 70
     1
102
RTVSPropertyOp48
 70
     1
102
RTVSPropertyOp49
 70
     1
102
RTVSPropertyOp50
 70
     1
102
RTVSPropertyOp51
 70
     0
102
RTVSPropertyOp52
 70
     0
102
RTVSPropertyOp53
 70
     1
102
RTVSPropertyOp54
 70
     1
102
RTVSPropertyOp55
 70
     1
102
RTVSPropertyOp56
 70
     1
102
RTVSPropertyOp57
 70
     1
102
RTVSPost2010Prop28
280
     0
102
RTVSPost2010PropOp28
 70
     1
102
RTVSPost2010Prop29
280
     1
102
RTVSPost2010PropOp29
 70
     1
102
RTVSPost2010Prop30
280
     1
102
RTVSPost2010PropOp30
 70
     1
102
RTVSPost2010Prop31
280
     0
102
RTVSPost2010PropOp31
 70
     1
102
RTVSPost2010Prop32
280
     0
102
RTVSPost2010PropOp32
 70
     1
102
RTVSPost2010Prop33
280
     0
102
RTVSPost2010PropOp33
 70
     1
102
RTVSPost2010Prop34
280
     0
102
RTVSPost2010PropOp34
 70
     1
102
RTVSPost2010Prop35
280
     0
102
RTVSPost2010PropOp35
 70
     1
102
RTVSPost2010Prop36
280
     0
102
RTVSPost2010PropOp36
 70
     1
102
RTVSPost2010Prop37
 90
       50
102
RTVSPost2010PropOp37
 70
     1
102
RTVSPost2010Prop38
140
0.0
102
RTVSPost2010PropOp38
 70
     1
102
RTVSPost2010Prop39
140
1.0
102
RTVSPost2010PropOp39
 70
     1
102
RTVSPost2010Prop40
 90
        0
102
RTVSPost2010PropOp40
 70
     1
102
RTVSPost2010Prop41ColorIndex
 90
       18
102
RTVSPost2010Prop41ColorRGB
 90
        0
102
RTVSPost2010PropOp41
 70
     1
102
RTVSPost2010Prop42
 90
       50
102
RTVSPost2010PropOp42
 70
     1
102
RTVSPost2010Prop43
 90
        3
102
RTVSPost2010PropOp43
 70
     1
102
RTVSPost2010Prop44ColorIndex
 90
        5
102
RTVSPost2010Prop44ColorRGB
 90
      255
102
RTVSPost2010PropOp44
 70
     1
102
RTVSPost2010Prop45
280
     0
102
RTVSPost2010PropOp45
 70
     1
102
RTVSPost2010Prop46
 90
       50
102
RTVSPost2010PropOp46
 70
     1
102
RTVSPost2010Prop47
 90
       50
102
RTVSPost2010PropOp47
 70
     1
102
RTVSPost2010Prop48
 90
       50
102
RTVSPost2010PropOp48
 70
     1
102
RTVSPost2010Prop49
280
     0
102
RTVSPost2010PropOp49
 70
     1
102
RTVSPost2010Prop50
 90
       50
102
RTVSPost2010PropOp50
 70
     1
102
RTVSPost2010Prop51ColorIndex
 90
      256
102
RTVSPost2010Prop51ColorRGB
 90
-16777216
102
RTVSPost2010PropOp51
 70
     0
102
RTVSPost2010Prop52
140
1.0
102
RTVSPost2010PropOp52
 70
     0
102
RTVSPost2010Prop53
 90
        2
102
RTVSPost2010PropOp53
 70
     1
102
RTVSPost2010Prop54
  1
strokes_ogs.tif
102
RTVSPost2010PropOp54
 70
     1
102
RTVSPost2010Prop55
280
     0
102
RTVSPost2010PropOp55
 70
     1
102
RTVSPost2010Prop56
140
1.0
102
RTVSPost2010PropOp56
 70
     1
102
RTVSPost2010Prop57
140
1.0
102
RTVSPost2010PropOp57
 70
     1
  0
XRECORD
  5
5F0
102
{ACAD_REACTORS
330
5EF
102
}
330
5EF
100
AcDbXrecord
280
     1
102
RTVSPropertyOp0
 70
     1
102
RTVSPropertyOp1
 70
     1
102
RTVSPropertyOp2
 70
     1
102
RTVSPropertyOp3
 70
     1
102
RTVSPropertyOp4
 70
     1
102
RTVSPropertyOp5
 70
     1
102
RTVSPropertyOp6
 70
     1
102
RTVSPropertyOp7
 70
     1
102
RTVSPropertyOp8
 70
     1
102
RTVSPropertyOp9
 70
     1
102
RTVSPropertyOp10
 70
     1
102
RTVSPropertyOp11
 70
     1
102
RTVSPropertyOp12
 70
     1
102
RTVSPropertyOp13
 70
     1
102
RTVSPropertyOp14
 70
     1
102
RTVSPropertyOp15
 70
     1
102
RTVSPropertyOp16
 70
     1
102
RTVSPropertyOp17
 70
     1
102
RTVSPropertyOp18
 70
     1
102
RTVSPropertyOp19
 70
     1
102
RTVSPropertyOp20
 70
     1
102
RTVSPropertyOp21
 70
     1
102
RTVSPropertyOp22
 70
     1
102
RTVSPropertyOp23
 70
     1
102
RTVSPropertyOp24
 70
     1
102
RTVSPropertyOp25
 70
     1
102
RTVSPropertyOp26
 70
     1
102
RTVSPropertyOp27
 70
     1
102
RTVSPropertyOp28
 70
     1
102
RTVSPropertyOp29
 70
     1
102
RTVSPropertyOp30
 70
     1
102
RTVSPropertyOp31
 70
     1
102
RTVSPropertyOp32
 70
     1
102
RTVSPropertyOp33
 70
     1
102
RTVSPropertyOp34
 70
     1
102
RTVSPropertyOp35
 70
     1
102
RTVSPropertyOp36
 70
     1
102
RTVSPropertyOp37
 70
     1
102
RTVSPropertyOp38
 70
     1
102
RTVSPropertyOp39
 70
     1
102
RTVSPropertyOp40
 70
     1
102
RTVSPropertyOp41
 70
     1
102
RTVSPropertyOp42
 70
     1
102
RTVSPropertyOp43
 70
     1
102
RTVSPropertyOp44
 70
     1
102
RTVSPropertyOp45
 70
     1
102
RTVSPropertyOp46
 70
     1
102
RTVSPropertyOp47
 70
     1
102
RTVSPropertyOp48
 70
     1
102
RTVSPropertyOp49
 70
     1
102
RTVSPropertyOp50
 70
     1
102
RTVSPropertyOp51
 70
     0
102
RTVSPropertyOp52
 70
     0
102
RTVSPropertyOp53
 70
     1
102
RTVSPropertyOp54
 70
     1
102
RTVSPropertyOp55
 70
     1
102
RTVSPropertyOp56
 70
     1
102
RTVSPropertyOp57
 70
     1
102
RTVSPost2010Prop28
280
     0
102
RTVSPost2010PropOp28
 70
     1
102
RTVSPost2010Prop29
280
     1
102
RTVSPost2010PropOp29
 70
     1
102
RTVSPost2010Prop30
280
     1
102
RTVSPost2010PropOp30
 70
     1
102
RTVSPost2010Prop31
280
     0
102
RTVSPost2010PropOp31
 70
     1
102
RTVSPost2010Prop32
280
     0
102
RTVSPost2010PropOp32
 70
     1
102
RTVSPost2010Prop33
280
     0
102
RTVSPost2010PropOp33
 70
     1
102
RTVSPost2010Prop34
280
     0
102
RTVSPost2010PropOp34
 70
     1
102
RTVSPost2010Prop35
280
     0
102
RTVSPost2010PropOp35
 70
     1
102
RTVSPost2010Prop36
280
     0
102
RTVSPost2010PropOp36
 70
     1
102
RTVSPost2010Prop37
 90
       50
102
RTVSPost2010PropOp37
 70
     1
102
RTVSPost2010Prop38
140
0.0
102
RTVSPost2010PropOp38
 70
     1
102
RTVSPost2010Prop39
140
1.0
102
RTVSPost2010PropOp39
 70
     1
102
RTVSPost2010Prop40
 90
        0
102
RTVSPost2010PropOp40
 70
     1
102
RTVSPost2010Prop41ColorIndex
 90
       18
102
RTVSPost2010Prop41ColorRGB
 90
        0
102
RTVSPost2010PropOp41
 70
     1
102
RTVSPost2010Prop42
 90
       50
102
RTVSPost2010PropOp42
 70
     1
102
RTVSPost2010Prop43
 90
        3
102
RTVSPost2010PropOp43
 70
     1
102
RTVSPost2010Prop44ColorIndex
 90
        5
102
RTVSPost2010Prop44ColorRGB
 90
      255
102
RTVSPost2010PropOp44
 70
     1
102
RTVSPost2010Prop45
280
     0
102
RTVSPost2010PropOp45
 70
     1
102
RTVSPost2010Prop46
 90
       50
102
RTVSPost2010PropOp46
 70
     1
102
RTVSPost2010Prop47
 90
       50
102
RTVSPost2010PropOp47
 70
     1
102
RTVSPost2010Prop48
 90
       50
102
RTVSPost2010PropOp48
 70
     1
102
RTVSPost2010Prop49
280
     0
102
RTVSPost2010PropOp49
 70
     1
102
RTVSPost2010Prop50
 90
       50
102
RTVSPost2010PropOp50
 70
     1
102
RTVSPost2010Prop51ColorIndex
 90
      256
102
RTVSPost2010Prop51ColorRGB
 90
-16777216
102
RTVSPost2010PropOp51
 70
     0
102
RTVSPost2010Prop52
140
1.0
102
RTVSPost2010PropOp52
 70
     0
102
RTVSPost2010Prop53
 90
        2
102
RTVSPost2010PropOp53
 70
     1
102
RTVSPost2010Prop54
  1
strokes_ogs.tif
102
RTVSPost2010PropOp54
 70
     1
102
RTVSPost2010Prop55
280
     0
102
RTVSPost2010PropOp55
 70
     1
102
RTVSPost2010Prop56
140
1.0
102
RTVSPost2010PropOp56
 70
     1
102
RTVSPost2010Prop57
140
1.0
102
RTVSPost2010PropOp57
 70
     1
  0
XRECORD
  5
5F2
102
{ACAD_REACTORS
330
5F1
102
}
330
5F1
100
AcDbXrecord
280
     1
102
RTVSPropertyOp0
 70
     1
102
RTVSPropertyOp1
 70
     1
102
RTVSPropertyOp2
 70
     1
102
RTVSPropertyOp3
 70
     1
102
RTVSPropertyOp4
 70
     1
102
RTVSPropertyOp5
 70
     1
102
RTVSPropertyOp6
 70
     1
102
RTVSPropertyOp7
 70
     1
102
RTVSPropertyOp8
 70
     1
102
RTVSPropertyOp9
 70
     1
102
RTVSPropertyOp10
 70
     1
102
RTVSPropertyOp11
 70
     1
102
RTVSPropertyOp12
 70
     1
102
RTVSPropertyOp13
 70
     1
102
RTVSPropertyOp14
 70
     1
102
RTVSPropertyOp15
 70
     1
102
RTVSPropertyOp16
 70
     1
102
RTVSPropertyOp17
 70
     1
102
RTVSPropertyOp18
 70
     1
102
RTVSPropertyOp19
 70
     1
102
RTVSPropertyOp20
 70
     1
102
RTVSPropertyOp21
 70
     1
102
RTVSPropertyOp22
 70
     1
102
RTVSPropertyOp23
 70
     1
102
RTVSPropertyOp24
 70
     1
102
RTVSPropertyOp25
 70
     1
102
RTVSPropertyOp26
 70
     1
102
RTVSPropertyOp27
 70
     1
102
RTVSPropertyOp28
 70
     1
102
RTVSPropertyOp29
 70
     1
102
RTVSPropertyOp30
 70
     1
102
RTVSPropertyOp31
 70
     1
102
RTVSPropertyOp32
 70
     1
102
RTVSPropertyOp33
 70
     1
102
RTVSPropertyOp34
 70
     1
102
RTVSPropertyOp35
 70
     1
102
RTVSPropertyOp36
 70
     1
102
RTVSPropertyOp37
 70
     1
102
RTVSPropertyOp38
 70
     1
102
RTVSPropertyOp39
 70
     1
102
RTVSPropertyOp40
 70
     1
102
RTVSPropertyOp41
 70
     1
102
RTVSPropertyOp42
 70
     1
102
RTVSPropertyOp43
 70
     1
102
RTVSPropertyOp44
 70
     1
102
RTVSPropertyOp45
 70
     1
102
RTVSPropertyOp46
 70
     1
102
RTVSPropertyOp47
 70
     1
102
RTVSPropertyOp48
 70
     1
102
RTVSPropertyOp49
 70
     1
102
RTVSPropertyOp50
 70
     1
102
RTVSPropertyOp51
 70
     0
102
RTVSPropertyOp52
 70
     0
102
RTVSPropertyOp53
 70
     1
102
RTVSPropertyOp54
 70
     1
102
RTVSPropertyOp55
 70
     1
102
RTVSPropertyOp56
 70
     1
102
RTVSPropertyOp57
 70
     1
102
RTVSPost2010Prop28
280
     0
102
RTVSPost2010PropOp28
 70
     1
102
RTVSPost2010Prop29
280
     1
102
RTVSPost2010PropOp29
 70
     1
102
RTVSPost2010Prop30
280
     1
102
RTVSPost2010PropOp30
 70
     1
102
RTVSPost2010Prop31
280
     0
102
RTVSPost2010PropOp31
 70
     1
102
RTVSPost2010Prop32
280
     0
102
RTVSPost2010PropOp32
 70
     1
102
RTVSPost2010Prop33
280
     0
102
RTVSPost2010PropOp33
 70
     1
102
RTVSPost2010Prop34
280
     0
102
RTVSPost2010PropOp34
 70
     1
102
RTVSPost2010Prop35
280
     0
102
RTVSPost2010PropOp35
 70
     1
102
RTVSPost2010Prop36
280
     0
102
RTVSPost2010PropOp36
 70
     1
102
RTVSPost2010Prop37
 90
       50
102
RTVSPost2010PropOp37
 70
     1
102
RTVSPost2010Prop38
140
0.0
102
RTVSPost2010PropOp38
 70
     1
102
RTVSPost2010Prop39
140
1.0
102
RTVSPost2010PropOp39
 70
     1
102
RTVSPost2010Prop40
 90
        0
102
RTVSPost2010PropOp40
 70
     1
102
RTVSPost2010Prop41ColorIndex
 90
       18
102
RTVSPost2010Prop41ColorRGB
 90
        0
102
RTVSPost2010PropOp41
 70
     1
102
RTVSPost2010Prop42
 90
       50
102
RTVSPost2010PropOp42
 70
     1
102
RTVSPost2010Prop43
 90
        3
102
RTVSPost2010PropOp43
 70
     1
102
RTVSPost2010Prop44ColorIndex
 90
        5
102
RTVSPost2010Prop44ColorRGB
 90
      255
102
RTVSPost2010PropOp44
 70
     1
102
RTVSPost2010Prop45
280
     0
102
RTVSPost2010PropOp45
 70
     1
102
RTVSPost2010Prop46
 90
       50
102
RTVSPost2010PropOp46
 70
     1
102
RTVSPost2010Prop47
 90
       50
102
RTVSPost2010PropOp47
 70
     1
102
RTVSPost2010Prop48
 90
       50
102
RTVSPost2010PropOp48
 70
     1
102
RTVSPost2010Prop49
280
     0
102
RTVSPost2010PropOp49
 70
     1
102
RTVSPost2010Prop50
 90
       50
102
RTVSPost2010PropOp50
 70
     1
102
RTVSPost2010Prop51ColorIndex
 90
      256
102
RTVSPost2010Prop51ColorRGB
 90
-16777216
102
RTVSPost2010PropOp51
 70
     0
102
RTVSPost2010Prop52
140
1.0
102
RTVSPost2010PropOp52
 70
     0
102
RTVSPost2010Prop53
 90
        2
102
RTVSPost2010PropOp53
 70
     1
102
RTVSPost2010Prop54
  1
strokes_ogs.tif
102
RTVSPost2010PropOp54
 70
     1
102
RTVSPost2010Prop55
280
     0
102
RTVSPost2010PropOp55
 70
     1
102
RTVSPost2010Prop56
140
1.0
102
RTVSPost2010PropOp56
 70
     1
102
RTVSPost2010Prop57
140
1.0
102
RTVSPost2010PropOp57
 70
     1
  0
XRECORD
  5
5F4
102
{ACAD_REACTORS
330
5F3
102
}
330
5F3
100
AcDbXrecord
280
     1
102
RTVSPropertyOp0
 70
     1
102
RTVSPropertyOp1
 70
     1
102
RTVSPropertyOp2
 70
     1
102
RTVSPropertyOp3
 70
     1
102
RTVSPropertyOp4
 70
     1
102
RTVSPropertyOp5
 70
     1
102
RTVSPropertyOp6
 70
     1
102
RTVSPropertyOp7
 70
     1
102
RTVSPropertyOp8
 70
     1
102
RTVSPropertyOp9
 70
     1
102
RTVSPropertyOp10
 70
     1
102
RTVSPropertyOp11
 70
     1
102
RTVSPropertyOp12
 70
     1
102
RTVSPropertyOp13
 70
     1
102
RTVSPropertyOp14
 70
     1
102
RTVSPropertyOp15
 70
     1
102
RTVSPropertyOp16
 70
     1
102
RTVSPropertyOp17
 70
     1
102
RTVSPropertyOp18
 70
     1
102
RTVSPropertyOp19
 70
     1
102
RTVSPropertyOp20
 70
     1
102
RTVSPropertyOp21
 70
     1
102
RTVSPropertyOp22
 70
     1
102
RTVSPropertyOp23
 70
     1
102
RTVSPropertyOp24
 70
     1
102
RTVSPropertyOp25
 70
     1
102
RTVSPropertyOp26
 70
     1
102
RTVSPropertyOp27
 70
     1
102
RTVSPropertyOp28
 70
     1
102
RTVSPropertyOp29
 70
     1
102
RTVSPropertyOp30
 70
     1
102
RTVSPropertyOp31
 70
     1
102
RTVSPropertyOp32
 70
     1
102
RTVSPropertyOp33
 70
     1
102
RTVSPropertyOp34
 70
     1
102
RTVSPropertyOp35
 70
     1
102
RTVSPropertyOp36
 70
     1
102
RTVSPropertyOp37
 70
     1
102
RTVSPropertyOp38
 70
     1
102
RTVSPropertyOp39
 70
     1
102
RTVSPropertyOp40
 70
     1
102
RTVSPropertyOp41
 70
     1
102
RTVSPropertyOp42
 70
     1
102
RTVSPropertyOp43
 70
     1
102
RTVSPropertyOp44
 70
     1
102
RTVSPropertyOp45
 70
     1
102
RTVSPropertyOp46
 70
     1
102
RTVSPropertyOp47
 70
     1
102
RTVSPropertyOp48
 70
     1
102
RTVSPropertyOp49
 70
     1
102
RTVSPropertyOp50
 70
     1
102
RTVSPropertyOp51
 70
     0
102
RTVSPropertyOp52
 70
     0
102
RTVSPropertyOp53
 70
     1
102
RTVSPropertyOp54
 70
     1
102
RTVSPropertyOp55
 70
     1
102
RTVSPropertyOp56
 70
     1
102
RTVSPropertyOp57
 70
     1
102
RTVSPost2010Prop28
280
     0
102
RTVSPost2010PropOp28
 70
     1
102
RTVSPost2010Prop29
280
     1
102
RTVSPost2010PropOp29
 70
     1
102
RTVSPost2010Prop30
280
     1
102
RTVSPost2010PropOp30
 70
     1
102
RTVSPost2010Prop31
280
     0
102
RTVSPost2010PropOp31
 70
     1
102
RTVSPost2010Prop32
280
     0
102
RTVSPost2010PropOp32
 70
     1
102
RTVSPost2010Prop33
280
     0
102
RTVSPost2010PropOp33
 70
     1
102
RTVSPost2010Prop34
280
     0
102
RTVSPost2010PropOp34
 70
     1
102
RTVSPost2010Prop35
280
     0
102
RTVSPost2010PropOp35
 70
     1
102
RTVSPost2010Prop36
280
     0
102
RTVSPost2010PropOp36
 70
     1
102
RTVSPost2010Prop37
 90
       50
102
RTVSPost2010PropOp37
 70
     1
102
RTVSPost2010Prop38
140
0.0
102
RTVSPost2010PropOp38
 70
     1
102
RTVSPost2010Prop39
140
1.0
102
RTVSPost2010PropOp39
 70
     1
102
RTVSPost2010Prop40
 90
        0
102
RTVSPost2010PropOp40
 70
     1
102
RTVSPost2010Prop41ColorIndex
 90
       18
102
RTVSPost2010Prop41ColorRGB
 90
        0
102
RTVSPost2010PropOp41
 70
     1
102
RTVSPost2010Prop42
 90
       50
102
RTVSPost2010PropOp42
 70
     1
102
RTVSPost2010Prop43
 90
        3
102
RTVSPost2010PropOp43
 70
     1
102
RTVSPost2010Prop44ColorIndex
 90
        5
102
RTVSPost2010Prop44ColorRGB
 90
      255
102
RTVSPost2010PropOp44
 70
     1
102
RTVSPost2010Prop45
280
     0
102
RTVSPost2010PropOp45
 70
     1
102
RTVSPost2010Prop46
 90
       50
102
RTVSPost2010PropOp46
 70
     1
102
RTVSPost2010Prop47
 90
       50
102
RTVSPost2010PropOp47
 70
     1
102
RTVSPost2010Prop48
 90
       50
102
RTVSPost2010PropOp48
 70
     1
102
RTVSPost2010Prop49
280
     0
102
RTVSPost2010PropOp49
 70
     1
102
RTVSPost2010Prop50
 90
       50
102
RTVSPost2010PropOp50
 70
     1
102
RTVSPost2010Prop51ColorIndex
 90
      256
102
RTVSPost2010Prop51ColorRGB
 90
-16777216
102
RTVSPost2010PropOp51
 70
     0
102
RTVSPost2010Prop52
140
1.0
102
RTVSPost2010PropOp52
 70
     0
102
RTVSPost2010Prop53
 90
        2
102
RTVSPost2010PropOp53
 70
     1
102
RTVSPost2010Prop54
  1
strokes_ogs.tif
102
RTVSPost2010PropOp54
 70
     1
102
RTVSPost2010Prop55
280
     0
102
RTVSPost2010PropOp55
 70
     1
102
RTVSPost2010Prop56
140
1.0
102
RTVSPost2010PropOp56
 70
     1
102
RTVSPost2010Prop57
140
1.0
102
RTVSPost2010PropOp57
 70
     1
  0
XRECORD
  5
5F6
102
{ACAD_REACTORS
330
5F5
102
}
330
5F5
100
AcDbXrecord
280
     1
102
RTVSPropertyOp0
 70
     1
102
RTVSPropertyOp1
 70
     1
102
RTVSPropertyOp2
 70
     1
102
RTVSPropertyOp3
 70
     1
102
RTVSPropertyOp4
 70
     1
102
RTVSPropertyOp5
 70
     1
102
RTVSPropertyOp6
 70
     1
102
RTVSPropertyOp7
 70
     1
102
RTVSPropertyOp8
 70
     1
102
RTVSPropertyOp9
 70
     1
102
RTVSPropertyOp10
 70
     1
102
RTVSPropertyOp11
 70
     1
102
RTVSPropertyOp12
 70
     1
102
RTVSPropertyOp13
 70
     1
102
RTVSPropertyOp14
 70
     1
102
RTVSPropertyOp15
 70
     1
102
RTVSPropertyOp16
 70
     1
102
RTVSPropertyOp17
 70
     1
102
RTVSPropertyOp18
 70
     1
102
RTVSPropertyOp19
 70
     1
102
RTVSPropertyOp20
 70
     1
102
RTVSPropertyOp21
 70
     1
102
RTVSPropertyOp22
 70
     1
102
RTVSPropertyOp23
 70
     1
102
RTVSPropertyOp24
 70
     1
102
RTVSPropertyOp25
 70
     1
102
RTVSPropertyOp26
 70
     1
102
RTVSPropertyOp27
 70
     1
102
RTVSPropertyOp28
 70
     1
102
RTVSPropertyOp29
 70
     1
102
RTVSPropertyOp30
 70
     1
102
RTVSPropertyOp31
 70
     1
102
RTVSPropertyOp32
 70
     1
102
RTVSPropertyOp33
 70
     1
102
RTVSPropertyOp34
 70
     1
102
RTVSPropertyOp35
 70
     1
102
RTVSPropertyOp36
 70
     1
102
RTVSPropertyOp37
 70
     1
102
RTVSPropertyOp38
 70
     1
102
RTVSPropertyOp39
 70
     1
102
RTVSPropertyOp40
 70
     1
102
RTVSPropertyOp41
 70
     1
102
RTVSPropertyOp42
 70
     1
102
RTVSPropertyOp43
 70
     1
102
RTVSPropertyOp44
 70
     1
102
RTVSPropertyOp45
 70
     1
102
RTVSPropertyOp46
 70
     1
102
RTVSPropertyOp47
 70
     1
102
RTVSPropertyOp48
 70
     1
102
RTVSPropertyOp49
 70
     1
102
RTVSPropertyOp50
 70
     1
102
RTVSPropertyOp51
 70
     0
102
RTVSPropertyOp52
 70
     0
102
RTVSPropertyOp53
 70
     1
102
RTVSPropertyOp54
 70
     1
102
RTVSPropertyOp55
 70
     1
102
RTVSPropertyOp56
 70
     1
102
RTVSPropertyOp57
 70
     1
102
RTVSPost2010Prop28
280
     0
102
RTVSPost2010PropOp28
 70
     1
102
RTVSPost2010Prop29
280
     1
102
RTVSPost2010PropOp29
 70
     1
102
RTVSPost2010Prop30
280
     1
102
RTVSPost2010PropOp30
 70
     1
102
RTVSPost2010Prop31
280
     0
102
RTVSPost2010PropOp31
 70
     1
102
RTVSPost2010Prop32
280
     0
102
RTVSPost2010PropOp32
 70
     1
102
RTVSPost2010Prop33
280
     0
102
RTVSPost2010PropOp33
 70
     1
102
RTVSPost2010Prop34
280
     0
102
RTVSPost2010PropOp34
 70
     1
102
RTVSPost2010Prop35
280
     0
102
RTVSPost2010PropOp35
 70
     1
102
RTVSPost2010Prop36
280
     0
102
RTVSPost2010PropOp36
 70
     1
102
RTVSPost2010Prop37
 90
       50
102
RTVSPost2010PropOp37
 70
     1
102
RTVSPost2010Prop38
140
0.0
102
RTVSPost2010PropOp38
 70
     1
102
RTVSPost2010Prop39
140
1.0
102
RTVSPost2010PropOp39
 70
     1
102
RTVSPost2010Prop40
 90
        0
102
RTVSPost2010PropOp40
 70
     1
102
RTVSPost2010Prop41ColorIndex
 90
       18
102
RTVSPost2010Prop41ColorRGB
 90
        0
102
RTVSPost2010PropOp41
 70
     1
102
RTVSPost2010Prop42
 90
       50
102
RTVSPost2010PropOp42
 70
     1
102
RTVSPost2010Prop43
 90
        3
102
RTVSPost2010PropOp43
 70
     1
102
RTVSPost2010Prop44ColorIndex
 90
        5
102
RTVSPost2010Prop44ColorRGB
 90
      255
102
RTVSPost2010PropOp44
 70
     1
102
RTVSPost2010Prop45
280
     0
102
RTVSPost2010PropOp45
 70
     1
102
RTVSPost2010Prop46
 90
       50
102
RTVSPost2010PropOp46
 70
     1
102
RTVSPost2010Prop47
 90
       50
102
RTVSPost2010PropOp47
 70
     1
102
RTVSPost2010Prop48
 90
       50
102
RTVSPost2010PropOp48
 70
     1
102
RTVSPost2010Prop49
280
     0
102
RTVSPost2010PropOp49
 70
     1
102
RTVSPost2010Prop50
 90
       50
102
RTVSPost2010PropOp50
 70
     1
102
RTVSPost2010Prop51ColorIndex
 90
      256
102
RTVSPost2010Prop51ColorRGB
 90
-16777216
102
RTVSPost2010PropOp51
 70
     0
102
RTVSPost2010Prop52
140
1.0
102
RTVSPost2010PropOp52
 70
     0
102
RTVSPost2010Prop53
 90
        2
102
RTVSPost2010PropOp53
 70
     1
102
RTVSPost2010Prop54
  1
strokes_ogs.tif
102
RTVSPost2010PropOp54
 70
     1
102
RTVSPost2010Prop55
280
     0
102
RTVSPost2010PropOp55
 70
     1
102
RTVSPost2010Prop56
140
1.0
102
RTVSPost2010PropOp56
 70
     1
102
RTVSPost2010Prop57
140
1.0
102
RTVSPost2010PropOp57
 70
     1
  0
XRECORD
  5
5F8
102
{ACAD_REACTORS
330
5F7
102
}
330
5F7
100
AcDbXrecord
280
     1
102
RTVSPropertyOp0
 70
     1
102
RTVSPropertyOp1
 70
     1
102
RTVSPropertyOp2
 70
     1
102
RTVSPropertyOp3
 70
     1
102
RTVSPropertyOp4
 70
     1
102
RTVSPropertyOp5
 70
     1
102
RTVSPropertyOp6
 70
     1
102
RTVSPropertyOp7
 70
     1
102
RTVSPropertyOp8
 70
     1
102
RTVSPropertyOp9
 70
     1
102
RTVSPropertyOp10
 70
     1
102
RTVSPropertyOp11
 70
     1
102
RTVSPropertyOp12
 70
     1
102
RTVSPropertyOp13
 70
     1
102
RTVSPropertyOp14
 70
     1
102
RTVSPropertyOp15
 70
     1
102
RTVSPropertyOp16
 70
     1
102
RTVSPropertyOp17
 70
     1
102
RTVSPropertyOp18
 70
     1
102
RTVSPropertyOp19
 70
     1
102
RTVSPropertyOp20
 70
     1
102
RTVSPropertyOp21
 70
     1
102
RTVSPropertyOp22
 70
     1
102
RTVSPropertyOp23
 70
     1
102
RTVSPropertyOp24
 70
     1
102
RTVSPropertyOp25
 70
     1
102
RTVSPropertyOp26
 70
     1
102
RTVSPropertyOp27
 70
     1
102
RTVSPropertyOp28
 70
     1
102
RTVSPropertyOp29
 70
     1
102
RTVSPropertyOp30
 70
     1
102
RTVSPropertyOp31
 70
     1
102
RTVSPropertyOp32
 70
     1
102
RTVSPropertyOp33
 70
     1
102
RTVSPropertyOp34
 70
     1
102
RTVSPropertyOp35
 70
     1
102
RTVSPropertyOp36
 70
     1
102
RTVSPropertyOp37
 70
     1
102
RTVSPropertyOp38
 70
     1
102
RTVSPropertyOp39
 70
     1
102
RTVSPropertyOp40
 70
     1
102
RTVSPropertyOp41
 70
     1
102
RTVSPropertyOp42
 70
     1
102
RTVSPropertyOp43
 70
     1
102
RTVSPropertyOp44
 70
     1
102
RTVSPropertyOp45
 70
     1
102
RTVSPropertyOp46
 70
     1
102
RTVSPropertyOp47
 70
     1
102
RTVSPropertyOp48
 70
     1
102
RTVSPropertyOp49
 70
     1
102
RTVSPropertyOp50
 70
     1
102
RTVSPropertyOp51
 70
     0
102
RTVSPropertyOp52
 70
     0
102
RTVSPropertyOp53
 70
     1
102
RTVSPropertyOp54
 70
     1
102
RTVSPropertyOp55
 70
     1
102
RTVSPropertyOp56
 70
     1
102
RTVSPropertyOp57
 70
     1
102
RTVSPost2010Prop28
280
     0
102
RTVSPost2010PropOp28
 70
     1
102
RTVSPost2010Prop29
280
     1
102
RTVSPost2010PropOp29
 70
     1
102
RTVSPost2010Prop30
280
     1
102
RTVSPost2010PropOp30
 70
     1
102
RTVSPost2010Prop31
280
     0
102
RTVSPost2010PropOp31
 70
     1
102
RTVSPost2010Prop32
280
     0
102
RTVSPost2010PropOp32
 70
     1
102
RTVSPost2010Prop33
280
     0
102
RTVSPost2010PropOp33
 70
     1
102
RTVSPost2010Prop34
280
     0
102
RTVSPost2010PropOp34
 70
     1
102
RTVSPost2010Prop35
280
     0
102
RTVSPost2010PropOp35
 70
     1
102
RTVSPost2010Prop36
280
     0
102
RTVSPost2010PropOp36
 70
     1
102
RTVSPost2010Prop37
 90
       50
102
RTVSPost2010PropOp37
 70
     1
102
RTVSPost2010Prop38
140
0.0
102
RTVSPost2010PropOp38
 70
     1
102
RTVSPost2010Prop39
140
1.0
102
RTVSPost2010PropOp39
 70
     1
102
RTVSPost2010Prop40
 90
        0
102
RTVSPost2010PropOp40
 70
     1
102
RTVSPost2010Prop41ColorIndex
 90
       18
102
RTVSPost2010Prop41ColorRGB
 90
        0
102
RTVSPost2010PropOp41
 70
     1
102
RTVSPost2010Prop42
 90
       50
102
RTVSPost2010PropOp42
 70
     1
102
RTVSPost2010Prop43
 90
        3
102
RTVSPost2010PropOp43
 70
     1
102
RTVSPost2010Prop44ColorIndex
 90
        5
102
RTVSPost2010Prop44ColorRGB
 90
      255
102
RTVSPost2010PropOp44
 70
     1
102
RTVSPost2010Prop45
280
     0
102
RTVSPost2010PropOp45
 70
     1
102
RTVSPost2010Prop46
 90
       50
102
RTVSPost2010PropOp46
 70
     1
102
RTVSPost2010Prop47
 90
       50
102
RTVSPost2010PropOp47
 70
     1
102
RTVSPost2010Prop48
 90
       50
102
RTVSPost2010PropOp48
 70
     1
102
RTVSPost2010Prop49
280
     0
102
RTVSPost2010PropOp49
 70
     1
102
RTVSPost2010Prop50
 90
       50
102
RTVSPost2010PropOp50
 70
     1
102
RTVSPost2010Prop51ColorIndex
 90
      256
102
RTVSPost2010Prop51ColorRGB
 90
-16777216
102
RTVSPost2010PropOp51
 70
     0
102
RTVSPost2010Prop52
140
1.0
102
RTVSPost2010PropOp52
 70
     0
102
RTVSPost2010Prop53
 90
        2
102
RTVSPost2010PropOp53
 70
     1
102
RTVSPost2010Prop54
  1
strokes_ogs.tif
102
RTVSPost2010PropOp54
 70
     1
102
RTVSPost2010Prop55
280
     0
102
RTVSPost2010PropOp55
 70
     1
102
RTVSPost2010Prop56
140
1.0
102
RTVSPost2010PropOp56
 70
     1
102
RTVSPost2010Prop57
140
1.0
102
RTVSPost2010PropOp57
 70
     1
  0
ENDSEC
  0
EOF
