  0
SECTION
  2
HEADER
  9
$ACADVER
  1
AC1015
  9
$ACADMAINTVER
 70
     6
  9
$DWGCODEPAGE
  3
ANSI_932
  9
$INSBASE
 10
1327.770610269582
 20
824.257992748967
 30
0.0
  9
$EXTMIN
 10
161.4258314206769
 20
239.798189596823
 30
0.0
  9
$EXTMAX
 10
1000.046885060139
 20
1024.661706795302
 30
0.0
  9
$LIMMIN
 10
0.0
 20
0.0
  9
$LIMMAX
 10
816.5000000000001
 20
565.0
  9
$ORTHOMODE
 70
     1
  9
$REGENMODE
 70
     1
  9
$FILLMODE
 70
     1
  9
$QTEXTMODE
 70
     0
  9
$MIRRTEXT
 70
     1
  9
$LTSCALE
 40
5.0
  9
$ATTMODE
 70
     1
  9
$TEXTSIZE
 40
7.5
  9
$TRACEWID
 40
0.05
  9
$TEXTSTYLE
  7
KANJI
  9
$CLAYER
  8
2
  9
$CELTYPE
  6
BYLAYER
  9
$CECOLOR
 62
   256
  9
$CELTSCALE
 40
1.0
  9
$DISPSILH
 70
     0
  9
$DIMSCALE
 40
2.5
  9
$DIMASZ
 40
2.0
  9
$DIMEXO
 40
0.5
  9
$DIMDLI
 40
0.0
  9
$DIMRND
 40
0.0
  9
$DIMDLE
 40
0.0
  9
$DIMEXE
 40
1.0
  9
$DIMTP
 40
0.0
  9
$DIMTM
 40
0.0
  9
$DIMTXT
 40
3.0
  9
$DIMCEN
 40
0.09
  9
$DIMTSZ
 40
0.0
  9
$DIMTOL
 70
     0
  9
$DIMLIM
 70
     0
  9
$DIMTIH
 70
     0
  9
$DIMTOH
 70
     0
  9
$DIMSE1
 70
     0
  9
$DIMSE2
 70
     0
  9
$DIMTAD
 70
     0
  9
$DIMZIN
 70
     8
  9
$DIMBLK
  1

  9
$DIMASO
 70
     0
  9
$DIMSHO
 70
     0
  9
$DIMPOST
  1

  9
$DIMAPOST
  1

  9
$DIMALT
 70
     0
  9
$DIMALTD
 70
     2
  9
$DIMALTF
 40
25.4
  9
$DIMLFAC
 40
1.0
  9
$DIMTOFL
 70
     1
  9
$DIMTVP
 40
1.0
  9
$DIMTIX
 70
     1
  9
$DIMSOXD
 70
     1
  9
$DIMSAH
 70
     0
  9
$DIMBLK1
  1

  9
$DIMBLK2
  1

  9
$DIMSTYLE
  2
STANDARD
  9
$DIMCLRD
 70
   256
  9
$DIMCLRE
 70
   256
  9
$DIMCLRT
 70
   256
  9
$DIMTFAC
 40
1.0
  9
$DIMGAP
 40
0.09
  9
$DIMJUST
 70
     0
  9
$DIMSD1
 70
     0
  9
$DIMSD2
 70
     0
  9
$DIMTOLJ
 70
     1
  9
$DIMTZIN
 70
     0
  9
$DIMALTZ
 70
     0
  9
$DIMALTTZ
 70
     0
  9
$DIMUPT
 70
     0
  9
$DIMDEC
 70
     1
  9
$DIMTDEC
 70
     4
  9
$DIMALTU
 70
     2
  9
$DIMALTTD
 70
     2
  9
$DIMTXSTY
  7
STANDARD
  9
$DIMAUNIT
 70
     0
  9
$DIMADEC
 70
     0
  9
$DIMALTRND
 40
0.0
  9
$DIMAZIN
 70
     0
  9
$DIMDSEP
 70
    46
  9
$DIMATFIT
 70
     3
  9
$DIMFRAC
 70
     0
  9
$DIMLDRBLK
  1

  9
$DIMLUNIT
 70
     2
  9
$DIMLWD
 70
    -2
  9
$DIMLWE
 70
    -2
  9
$DIMTMOVE
 70
     0
  9
$LUNITS
 70
     2
  9
$LUPREC
 70
     3
  9
$SKETCHINC
 40
0.1
  9
$FILLETRAD
 40
1.0
  9
$AUNITS
 70
     0
  9
$AUPREC
 70
     3
  9
$MENU
  1
C:\R13\WIN\SUPPORT\ACADFULL
  9
$ELEVATION
 40
0.0
  9
$PELEVATION
 40
0.0
  9
$THICKNESS
 40
0.0
  9
$LIMCHECK
 70
     0
  9
$CHAMFERA
 40
0.0
  9
$CHAMFERB
 40
0.0
  9
$CHAMFERC
 40
0.0
  9
$CHAMFERD
 40
0.0
  9
$SKPOLY
 70
     0
  9
$TDCREATE
 40
2457420.708614583
  9
$TDUCREATE
 40
2457420.333614583
  9
$TDUPDATE
 40
2457841.463779005
  9
$TDUUPDATE
 40
2457841.088779005
  9
$TDINDWG
 40
0.0093165278
  9
$TDUSRTIMER
 40
0.0093156829
  9
$USRTIMER
 70
     1
  9
$ANGBASE
 50
0.0
  9
$ANGDIR
 70
     0
  9
$PDMODE
 70
     0
  9
$PDSIZE
 40
0.0
  9
$PLINEWID
 40
0.0
  9
$SPLFRAME
 70
     0
  9
$SPLINETYPE
 70
     6
  9
$SPLINESEGS
 70
     8
  9
$HANDSEED
  5
2B5
  9
$SURFTAB1
 70
     6
  9
$SURFTAB2
 70
     6
  9
$SURFTYPE
 70
     6
  9
$SURFU
 70
     6
  9
$SURFV
 70
     6
  9
$UCSBASE
  2

  9
$UCSNAME
  2

  9
$UCSORG
 10
0.0
 20
0.0
 30
0.0
  9
$UCSXDIR
 10
1.0
 20
0.0
 30
0.0
  9
$UCSYDIR
 10
0.0
 20
1.0
 30
0.0
  9
$UCSORTHOREF
  2

  9
$UCSORTHOVIEW
 70
     0
  9
$UCSORGTOP
 10
0.0
 20
0.0
 30
0.0
  9
$UCSORGBOTTOM
 10
0.0
 20
0.0
 30
0.0
  9
$UCSORGLEFT
 10
0.0
 20
0.0
 30
0.0
  9
$UCSORGRIGHT
 10
0.0
 20
0.0
 30
0.0
  9
$UCSORGFRONT
 10
0.0
 20
0.0
 30
0.0
  9
$UCSORGBACK
 10
0.0
 20
0.0
 30
0.0
  9
$PUCSBASE
  2

  9
$PUCSNAME
  2

  9
$PUCSORG
 10
0.0
 20
0.0
 30
0.0
  9
$PUCSXDIR
 10
1.0
 20
0.0
 30
0.0
  9
$PUCSYDIR
 10
0.0
 20
1.0
 30
0.0
  9
$PUCSORTHOREF
  2

  9
$PUCSORTHOVIEW
 70
     0
  9
$PUCSORGTOP
 10
0.0
 20
0.0
 30
0.0
  9
$PUCSORGBOTTOM
 10
0.0
 20
0.0
 30
0.0
  9
$PUCSORGLEFT
 10
0.0
 20
0.0
 30
0.0
  9
$PUCSORGRIGHT
 10
0.0
 20
0.0
 30
0.0
  9
$PUCSORGFRONT
 10
0.0
 20
0.0
 30
0.0
  9
$PUCSORGBACK
 10
0.0
 20
0.0
 30
0.0
  9
$USERI1
 70
     0
  9
$USERI2
 70
     0
  9
$USERI3
 70
     0
  9
$USERI4
 70
     0
  9
$USERI5
 70
     0
  9
$USERR1
 40
0.0
  9
$USERR2
 40
0.0
  9
$USERR3
 40
0.0
  9
$USERR4
 40
2448925.372986111
  9
$USERR5
 40
0.04166667
  9
$WORLDVIEW
 70
     1
  9
$SHADEDGE
 70
     3
  9
$SHADEDIF
 70
    70
  9
$TILEMODE
 70
     1
  9
$MAXACTVP
 70
    16
  9
$PINSBASE
 10
0.0
 20
0.0
 30
0.0
  9
$PLIMCHECK
 70
     0
  9
$PEXTMIN
 10
1.000000000000000E+20
 20
1.000000000000000E+20
 30
1.000000000000000E+20
  9
$PEXTMAX
 10
-1.000000000000000E+20
 20
-1.000000000000000E+20
 30
-1.000000000000000E+20
  9
$PLIMMIN
 10
0.0
 20
0.0
  9
$PLIMMAX
 10
12.0
 20
9.0
  9
$UNITMODE
 70
     0
  9
$VISRETAIN
 70
     0
  9
$PLINEGEN
 70
     0
  9
$PSLTSCALE
 70
     0
  9
$TREEDEPTH
 70
  3020
  9
$CMLSTYLE
  2
STANDARD
  9
$CMLJUST
 70
     0
  9
$CMLSCALE
 40
1.0
  9
$PROXYGRAPHICS
 70
     1
  9
$MEASUREMENT
 70
     0
  9
$CELWEIGHT
370
    -1
  9
$ENDCAPS
280
     0
  9
$JOINSTYLE
280
     0
  9
$LWDISPLAY
290
     0
  9
$INSUNITS
 70
     0
  9
$HYPERLINKBASE
  1

  9
$STYLESHEET
  1

  9
$XEDIT
290
     1
  9
$CEPSNTYPE
380
     0
  9
$PSTYLEMODE
290
     1
  9
$FINGERPRINTGUID
  2
{CC6F0F94-EFE3-4AFA-94CD-75FE5F8A39E0}
  9
$VERSIONGUID
  2
{86DD4345-7E8C-4F9F-ABA1-992C1B750106}
  9
$EXTNAMES
290
     1
  9
$PSVPSCALE
 40
0.0
  9
$OLESTARTUP
290
     0
  0
ENDSEC
  0
SECTION
  2
CLASSES
  0
CLASS
  1
ACDBDICTIONARYWDFLT
  2
AcDbDictionaryWithDefault
  3
ObjectDBX Classes
 90
        0
280
     0
281
     0
  0
CLASS
  1
MATERIAL
  2
AcDbMaterial
  3
ObjectDBX Classes
 90
     1153
280
     0
281
     0
  0
CLASS
  1
SORTENTSTABLE
  2
AcDbSortentsTable
  3
ObjectDBX Classes
 90
        0
280
     0
281
     0
  0
CLASS
  1
SCALE
  2
AcDbScale
  3
ObjectDBX Classes
 90
     1153
280
     0
281
     0
  0
CLASS
  1
DICTIONARYVAR
  2
AcDbDictionaryVar
  3
ObjectDBX Classes
 90
        0
280
     0
281
     0
  0
CLASS
  1
VISUALSTYLE
  2
AcDbVisualStyle
  3
ObjectDBX Classes
 90
     4095
280
     0
281
     0
  0
CLASS
  1
TABLESTYLE
  2
AcDbTableStyle
  3
ObjectDBX Classes
 90
     4095
280
     0
281
     0
  0
CLASS
  1
MLEADERSTYLE
  2
AcDbMLeaderStyle
  3
ACDB_MLEADERSTYLE_CLASS
 90
     4095
280
     0
281
     0
  0
CLASS
  1
ACDBPLACEHOLDER
  2
AcDbPlaceHolder
  3
ObjectDBX Classes
 90
        0
280
     0
281
     0
  0
CLASS
  1
LAYOUT
  2
AcDbLayout
  3
ObjectDBX Classes
 90
        0
280
     0
281
     0
  0
ENDSEC
  0
SECTION
  2
TABLES
  0
TABLE
  2
VPORT
  5
2C
102
{ACAD_XDICTIONARY
360
2D
102
}
330
0
100
AcDbSymbolTable
 70
     1
  0
VPORT
  5
32
330
2C
100
AcDbSymbolTableRecord
100
AcDbViewportTableRecord
  2
*ACTIVE
 70
     0
 10
0.0
 20
0.0
 11
1.0
 21
1.0
 12
821.3277614522661
 22
603.6142152250264
 13
0.0
 23
0.0
 14
1.0
 24
1.0
 15
50.0
 25
50.0
 16
0.0
 26
0.0
 36
1.0
 17
0.0
 27
0.0
 37
0.0
 40
986.1928974192405
 41
1.931880108991826
 42
50.0
 43
0.0
 44
0.0
 50
0.0
 51
0.0
 71
     0
 72
  5000
 73
     1
 74
     0
 75
     0
 76
     0
 77
     0
 78
     0
281
     0
 65
     1
110
0.0
120
0.0
130
0.0
111
1.0
121
0.0
131
0.0
112
0.0
122
1.0
132
0.0
 79
     0
146
0.0
1001
ACAD_NAV_VCDISPLAY
1070
     3
  0
ENDTAB
  0
TABLE
  2
LTYPE
  5
F
330
0
100
AcDbSymbolTable
 70
     2
  0
LTYPE
  5
10
330
F
100
AcDbSymbolTableRecord
100
AcDbLinetypeTableRecord
  2
BYBLOCK
 70
     0
  3

 72
    65
 73
     0
 40
0.0
  0
LTYPE
  5
11
330
F
100
AcDbSymbolTableRecord
100
AcDbLinetypeTableRecord
  2
BYLAYER
 70
     0
  3

 72
    65
 73
     0
 40
0.0
  0
LTYPE
  5
E
330
F
100
AcDbSymbolTableRecord
100
AcDbLinetypeTableRecord
  2
CONTINUOUS
 70
     0
  3
Solid line
 72
    65
 73
     0
 40
0.0
  0
LTYPE
  5
6A
330
F
100
AcDbSymbolTableRecord
100
AcDbLinetypeTableRecord
  2
CENTER
 70
     0
  3
____ _ ____ _ ____ _ ____ _ ____ _ ____ _ ____
 72
    65
 73
     4
 40
2.0
 49
1.25
 74
     0
 49
-0.25
 74
     0
 49
0.25
 74
     0
 49
-0.25
 74
     0
  0
ENDTAB
  0
TABLE
  2
LAYER
  5
2
102
{ACAD_XDICTIONARY
360
3
102
}
330
0
100
AcDbSymbolTable
 70
     7
  0
LAYER
  5
1F
102
{ACAD_XDICTIONARY
360
20
102
}
330
2
100
AcDbSymbolTableRecord
100
AcDbLayerTableRecord
  2
0
 70
     0
 62
     7
  6
CONTINUOUS
370
    -3
390
7
  0
LAYER
  5
1
102
{ACAD_XDICTIONARY
360
5
102
}
330
2
100
AcDbSymbolTableRecord
100
AcDbLayerTableRecord
  2
2
 70
     0
 62
     4
  6
CONTINUOUS
370
    -3
390
7
  0
LAYER
  5
5A
102
{ACAD_XDICTIONARY
360
5B
102
}
330
2
100
AcDbSymbolTableRecord
100
AcDbLayerTableRecord
  2
4
 70
     0
 62
     3
  6
CONTINUOUS
370
    -3
390
7
  0
LAYER
  5
67
102
{ACAD_XDICTIONARY
360
68
102
}
330
2
100
AcDbSymbolTableRecord
100
AcDbLayerTableRecord
  2
L-CENTER
 70
     0
 62
     1
  6
CENTER
370
    -3
390
7
  0
LAYER
  5
19F
330
2
100
AcDbSymbolTableRecord
100
AcDbLayerTableRecord
  2
3
 70
     0
 62
     2
  6
CONTINUOUS
370
    -3
390
7
  0
ENDTAB
  0
TABLE
  2
STYLE
  5
13
330
0
100
AcDbSymbolTable
 70
     2
  0
STYLE
  5
17
330
13
100
AcDbSymbolTableRecord
100
AcDbTextStyleTableRecord
  2
STANDARD
 70
     0
 40
0.0
 41
1.0
 50
0.0
 71
     0
 42
4.5
  3
TXT
  4

  0
STYLE
  5
12
330
13
100
AcDbSymbolTableRecord
100
AcDbTextStyleTableRecord
  2
KANJI
 70
     0
 40
0.0
 41
1.0
 50
0.0
 71
     0
 42
7.5
  3
TXT
  4
BIGFONT
  0
ENDTAB
  0
TABLE
  2
VIEW
  5
2A
330
0
100
AcDbSymbolTable
 70
     0
  0
ENDTAB
  0
TABLE
  2
UCS
  5
2B
330
0
100
AcDbSymbolTable
 70
     0
  0
ENDTAB
  0
TABLE
  2
APPID
  5
D
330
0
100
AcDbSymbolTable
 70
     4
  0
APPID
  5
C
330
D
100
AcDbSymbolTableRecord
100
AcDbRegAppTableRecord
  2
ACAD
 70
     0
  0
APPID
  5
25
330
D
100
AcDbSymbolTableRecord
100
AcDbRegAppTableRecord
  2
ACAD_PSEXT
 70
     0
  0
APPID
  5
33
330
D
100
AcDbSymbolTableRecord
100
AcDbRegAppTableRecord
  2
ACAD_NAV_VCDISPLAY
 70
     0
  0
APPID
  5
271
330
D
100
AcDbSymbolTableRecord
100
AcDbRegAppTableRecord
  2
ACAD_MLEADERVER
 70
     0
  0
ENDTAB
  0
TABLE
  2
DIMSTYLE
  5
16
330
0
100
AcDbSymbolTable
 70
     1
100
AcDbDimStyleTable
  0
DIMSTYLE
105
15
330
16
100
AcDbSymbolTableRecord
100
AcDbDimStyleTableRecord
  2
STANDARD
 70
     0
178
     0
340
17
  0
ENDTAB
  0
TABLE
  2
BLOCK_RECORD
  5
1A
330
0
100
AcDbSymbolTable
 70
     0
  0
BLOCK_RECORD
  5
1B
102
{ACAD_XDICTIONARY
360
1C
102
}
330
1A
100
AcDbSymbolTableRecord
100
AcDbBlockTableRecord
  2
*MODEL_SPACE
340
23
  0
BLOCK_RECORD
  5
26
330
1A
100
AcDbSymbolTableRecord
100
AcDbBlockTableRecord
  2
*PAPER_SPACE
340
29
  0
ENDTAB
  0
ENDSEC
  0
SECTION
  2
BLOCKS
  0
BLOCK
  5
1E
330
1B
100
AcDbEntity
  8
0
100
AcDbBlockBegin
  2
*MODEL_SPACE
 70
     0
 10
0.0
 20
0.0
 30
0.0
  3
*MODEL_SPACE
  1

  0
ENDBLK
  5
22
330
1B
100
AcDbEntity
  8
0
100
AcDbBlockEnd
  0
BLOCK
  5
27
330
26
100
AcDbEntity
 67
     1
  8
0
100
AcDbBlockBegin
  2
*PAPER_SPACE
 70
     0
 10
0.0
 20
0.0
 30
0.0
  3
*PAPER_SPACE
  1

  0
ENDBLK
  5
28
330
26
100
AcDbEntity
 67
     1
  8
0
100
AcDbBlockEnd
  0
ENDSEC
  0
SECTION
  2
ENTITIES
  0
LINE
  5
59
330
1B
100
AcDbEntity
  8
4
100
AcDbLine
 10
276.8830764206768
 20
584.096041888708
 30
0.0
 11
295.8830764206768
 21
584.096041888708
 31
0.0
  0
LINE
  5
5D
330
1B
100
AcDbEntity
  8
4
100
AcDbLine
 10
260.8830764206768
 20
584.096041888708
 30
0.0
 11
292.8830764206768
 21
584.096041888708
 31
0.0
  0
ARC
  5
5E
330
1B
100
AcDbEntity
  8
4
100
AcDbCircle
 10
276.8833214206768
 20
216.095554388708
 30
0.0
 40
300.0
100
AcDbArc
 50
83.39707899999998
 51
96.603028
  0
ARC
  5
5F
330
1B
100
AcDbEntity
  8
4
100
AcDbCircle
 10
276.8833214206768
 20
218.095554388708
 30
0.0
 40
300.0000575
100
AcDbArc
 50
82.96983997519018
 51
97.03016825177959
  0
LINE
  5
60
330
1B
100
AcDbEntity
  8
4
100
AcDbLine
 10
264.383566420677
 20
585.596041888708
 30
0.0
 11
289.383566420677
 21
585.596041888708
 31
0.0
  0
LINE
  5
61
330
1B
100
AcDbEntity
  8
4
100
AcDbLine
 10
264.383566420677
 20
587.596041888708
 30
0.0
 11
289.383566420677
 21
587.596041888708
 31
0.0
  0
LINE
  5
62
330
1B
100
AcDbEntity
  8
4
100
AcDbLine
 10
264.383566420677
 20
591.596041888708
 30
0.0
 11
289.383566420677
 21
591.596041888708
 31
0.0
  0
LINE
  5
63
330
1B
100
AcDbEntity
  8
4
100
AcDbLine
 10
289.8733114206768
 20
383.596041888708
 30
0.0
 11
276.8830764206768
 21
391.096041888708
 31
0.0
  0
ARC
  5
64
330
1B
100
AcDbEntity
  8
4
100
AcDbCircle
 10
276.8833214206768
 20
734.096529388708
 30
0.0
 40
299.999995
100
AcDbArc
 50
263.049271
 51
276.952553
  0
ARC
  5
65
330
1B
100
AcDbEntity
  8
4
100
AcDbCircle
 10
276.8833214206768
 20
736.096529388708
 30
0.0
 40
300.0000375
100
AcDbArc
 50
263.3976660000001
 51
276.6039510000001
  0
LINE
  5
66
330
1B
100
AcDbEntity
  8
L-CENTER
 48
2.5
100
AcDbLine
 10
392.340841420677
 20
476.096041888708
 30
0.0
 11
161.4258314206768
 21
476.096041888708
 31
0.0
  0
ARC
  5
6B
330
1B
100
AcDbEntity
  8
4
100
AcDbCircle
 10
276.8833214206768
 20
253.095796888708
 30
0.0
 40
330.0000125
100
AcDbArc
 50
73.92707499999997
 51
106.073548
  0
ARC
  5
6C
330
1B
100
AcDbEntity
  8
4
100
AcDbCircle
 10
276.8830764206768
 20
476.096041888708
 30
0.0
 40
92.99992
100
AcDbArc
 50
283.6725809999999
 51
256.329234
  0
LINE
  5
6D
330
1B
100
AcDbEntity
  8
4
100
AcDbLine
 10
276.8830764206768
 20
361.096041888708
 30
0.0
 11
289.8733114206768
 21
368.596041888708
 31
0.0
  0
LINE
  5
6E
330
1B
100
AcDbEntity
  8
4
100
AcDbLine
 10
235.5232139206769
 20
301.096041888708
 30
0.0
 11
318.2434289206769
 21
301.096041888708
 31
0.0
  0
CIRCLE
  5
6F
330
1B
100
AcDbEntity
  8
2
100
AcDbCircle
 10
276.8830764206768
 20
318.096041888708
 30
0.0
 40
7.25
  0
CIRCLE
  5
70
330
1B
100
AcDbEntity
  8
4
100
AcDbCircle
 10
276.8830764206768
 20
318.096041888708
 30
0.0
 40
8.25
  0
LINE
  5
71
330
1B
100
AcDbEntity
  8
L-CENTER
 48
2.5
100
AcDbLine
 10
289.6672239206769
 20
318.096041888708
 30
0.0
 11
263.9906489206769
 21
318.096041888708
 31
0.0
  0
ARC
  5
72
330
1B
100
AcDbEntity
  8
4
100
AcDbCircle
 10
276.8830764206768
 20
318.096041888708
 30
0.0
 40
11.0
100
AcDbArc
 50
180.0
 51
0.0
  0
ARC
  5
73
330
1B
100
AcDbEntity
  8
4
100
AcDbCircle
 10
276.8830764206768
 20
376.096041888708
 30
0.0
 40
18.0000275
100
AcDbArc
 50
191.2288909999996
 51
348.7726899999999
  0
LINE
  5
74
330
1B
100
AcDbEntity
  8
L-CENTER
 48
2.5
100
AcDbLine
 10
951.1717184433088
 20
476.096041888708
 30
0.0
 11
1000.046885060139
 21
476.096041888708
 31
0.0
  0
ARC
  5
75
330
1B
100
AcDbEntity
  8
4
100
AcDbCircle
 10
975.6093017517238
 20
476.096041888708
 30
0.0
 40
16.9999725
100
AcDbArc
 50
107.1046636983289
 51
72.89533499999892
  0
LINE
  5
76
330
1B
100
AcDbEntity
  8
L-CENTER
 48
2.5
100
AcDbLine
 10
161.7990636395423
 20
376.096041888708
 30
0.0
 11
460.8520714206768
 21
376.096041888708
 31
0.0
  0
CIRCLE
  5
77
330
1B
100
AcDbEntity
  8
4
100
AcDbCircle
 10
276.8830764206768
 20
376.096041888708
 30
0.0
 40
15.0
  0
ARC
  5
78
330
1B
100
AcDbEntity
  8
4
100
AcDbCircle
 10
276.8830764206768
 20
376.096041888708
 30
0.0
 40
23.99998
100
AcDbArc
 50
354.6340739999999
 51
185.368253
  0
ARC
  5
79
330
1B
100
AcDbEntity
  8
4
100
AcDbCircle
 10
276.8830764206768
 20
476.096041888708
 30
0.0
 40
104.9999325
100
AcDbArc
 50
279.68117
 51
260.320631
  0
ARC
  5
7A
330
1B
100
AcDbEntity
  8
4
100
AcDbCircle
 10
499.883566420677
 20
476.096041888708
 30
0.0
 40
330.0000225
100
AcDbArc
 50
163.928353
 51
196.072838
  0
LINE
  5
7B
330
1B
100
AcDbEntity
  8
L-CENTER
 48
2.5
100
AcDbLine
 10
276.8830764206768
 20
595.9914637828122
 30
0.0
 11
276.8830764206768
 21
296.4445501625835
 31
0.0
  0
LINE
  5
7C
330
1B
100
AcDbEntity
  8
4
100
AcDbLine
 10
263.8925989206768
 20
368.596041888708
 30
0.0
 11
263.8925989206768
 21
383.596041888708
 31
0.0
  0
LINE
  5
7D
330
1B
100
AcDbEntity
  8
4
100
AcDbLine
 10
165.383566420677
 20
407.096041888708
 30
0.0
 11
165.383566420677
 21
345.096041888708
 31
0.0
  0
ARC
  5
7E
330
1B
100
AcDbEntity
  8
4
100
AcDbCircle
 10
276.8833214206768
 20
699.0962868887082
 30
0.0
 40
329.99999
100
AcDbArc
 50
253.927642
 51
267.090339
  0
LINE
  5
7F
330
1B
100
AcDbEntity
  8
4
100
AcDbLine
 10
176.7483114206768
 20
319.225436888708
 30
0.0
 11
169.883566420677
 21
476.096041888708
 31
0.0
  0
LINE
  5
80
330
1B
100
AcDbEntity
  8
4
100
AcDbLine
 10
166.383566420677
 20
418.096041888708
 30
0.0
 11
166.383566420677
 21
334.096041888708
 31
0.0
  0
LINE
  5
81
330
1B
100
AcDbEntity
  8
4
100
AcDbLine
 10
231.883566420677
 20
291.096041888708
 30
0.0
 11
171.883566420677
 21
291.096041888708
 31
0.0
  0
LINE
  5
82
330
1B
100
AcDbEntity
  8
4
100
AcDbLine
 10
237.883566420677
 20
316.096041888708
 30
0.0
 11
173.883566420677
 21
316.096041888708
 31
0.0
  0
LINE
  5
83
330
1B
100
AcDbEntity
  8
4
100
AcDbLine
 10
171.883566420677
 20
291.096041888708
 30
0.0
 11
171.883566420677
 21
314.096041888708
 31
0.0
  0
ARC
  5
84
330
1B
100
AcDbEntity
  8
4
100
AcDbCircle
 10
173.7512414206769
 20
319.096041888708
 30
0.0
 40
3.000005
100
AcDbArc
 50
270.0011649999995
 51
2.476685000000363
  0
ARC
  5
85
330
1B
100
AcDbEntity
  8
4
100
AcDbCircle
 10
173.883566420677
 20
314.096041888708
 30
0.0
 40
2.0
100
AcDbArc
 50
90.0
 51
180.0
  0
LINE
  5
86
330
1B
100
AcDbEntity
  8
L-CENTER
 48
2.5
100
AcDbLine
 10
206.883566420677
 20
325.096041888708
 30
0.0
 11
206.883566420677
 21
282.096041888708
 31
0.0
  0
LINE
  5
87
330
1B
100
AcDbEntity
  8
4
100
AcDbLine
 10
173.1462614206769
 20
334.096041888708
 30
0.0
 11
166.383566420677
 21
334.096041888708
 31
0.0
  0
LINE
  5
88
330
1B
100
AcDbEntity
  8
4
100
AcDbLine
 10
166.383566420677
 20
345.096041888708
 30
0.0
 11
165.383566420677
 21
345.096041888708
 31
0.0
  0
ARC
  5
89
330
1B
100
AcDbEntity
  8
4
100
AcDbCircle
 10
173.1462614206769
 20
331.096041888708
 30
0.0
 40
3.0
100
AcDbArc
 50
2.472028999999463
 51
90.0
  0
LINE
  5
8A
330
1B
100
AcDbEntity
  8
2
100
AcDbLine
 10
282.1617614206768
 20
321.143691888708
 30
0.0
 11
276.8830764206768
 21
324.1913418887081
 31
0.0
  0
LINE
  5
8B
330
1B
100
AcDbEntity
  8
4
100
AcDbLine
 10
265.883566420677
 20
361.848239388708
 30
0.0
 11
265.883566420677
 21
318.096041888708
 31
0.0
  0
LINE
  5
8C
330
1B
100
AcDbEntity
  8
4
100
AcDbLine
 10
265.8830764206768
 20
361.848239388708
 30
0.0
 11
265.8830764206768
 21
318.096041888708
 31
0.0
  0
LINE
  5
8D
330
1B
100
AcDbEntity
  8
4
100
AcDbLine
 10
231.883566420677
 20
369.096041888708
 30
0.0
 11
231.883566420677
 21
320.096041888708
 31
0.0
  0
LINE
  5
8E
330
1B
100
AcDbEntity
  8
4
100
AcDbLine
 10
239.883566420677
 20
369.096041888708
 30
0.0
 11
239.883566420677
 21
301.096041888708
 31
0.0
  0
LINE
  5
8F
330
1B
100
AcDbEntity
  8
2
100
AcDbLine
 10
276.8830764206768
 20
324.1913418887081
 30
0.0
 11
271.6043939206768
 21
321.143691888708
 31
0.0
  0
ARC
  5
90
330
1B
100
AcDbEntity
  8
4
100
AcDbCircle
 10
235.5232139206769
 20
299.096041888708
 30
0.0
 40
1.9999875
100
AcDbArc
 50
90.0
 51
168.6940900000012
  0
LINE
  5
91
330
1B
100
AcDbEntity
  8
4
100
AcDbLine
 10
233.5620314206769
 20
299.488131888708
 30
0.0
 11
231.883566420677
 21
291.096041888708
 31
0.0
  0
ARC
  5
92
330
1B
100
AcDbEntity
  8
4
100
AcDbCircle
 10
227.883566420677
 20
320.096041888708
 30
0.0
 40
4.0
100
AcDbArc
 50
270.0010889999976
 51
0.0
  0
ARC
  5
93
330
1B
100
AcDbEntity
  8
4
100
AcDbCircle
 10
237.883566420677
 20
314.096041888708
 30
0.0
 40
2.0
100
AcDbArc
 50
0.0
 51
90.0
  0
LINE
  5
94
330
1B
100
AcDbEntity
  8
2
100
AcDbLine
 10
276.8830764206768
 20
312.000741888708
 30
0.0
 11
282.1617614206768
 21
315.048391888708
 31
0.0
  0
LINE
  5
95
330
1B
100
AcDbEntity
  8
2
100
AcDbLine
 10
271.6043939206768
 20
315.048391888708
 30
0.0
 11
276.8830764206768
 21
312.000741888708
 31
0.0
  0
LINE
  5
96
330
1B
100
AcDbEntity
  8
2
100
AcDbLine
 10
271.6043939206768
 20
321.143691888708
 30
0.0
 11
271.6043939206768
 21
315.048391888708
 31
0.0
  0
LINE
  5
97
330
1B
100
AcDbEntity
  8
2
100
AcDbLine
 10
282.1617614206768
 20
315.048391888708
 30
0.0
 11
282.1617614206768
 21
321.143691888708
 31
0.0
  0
LINE
  5
98
330
1B
100
AcDbEntity
  8
4
100
AcDbLine
 10
263.8925989206768
 20
368.596041888708
 30
0.0
 11
276.8830764206768
 21
361.096041888708
 31
0.0
  0
ARC
  5
99
330
1B
100
AcDbEntity
  8
4
100
AcDbCircle
 10
536.8838114206769
 20
476.096041888708
 30
0.0
 40
299.9999975
100
AcDbArc
 50
173.397783
 51
186.60339
  0
ARC
  5
9A
330
1B
100
AcDbEntity
  8
4
100
AcDbCircle
 10
534.8838114206769
 20
476.096041888708
 30
0.0
 40
300.000005
100
AcDbArc
 50
173.049327
 51
186.951285
  0
LINE
  5
9B
330
1B
100
AcDbEntity
  8
4
100
AcDbLine
 10
232.5644739206768
 20
451.3670368887081
 30
0.0
 11
190.4746314206768
 21
454.7583968887079
 31
0.0
  0
ARC
  5
9C
330
1B
100
AcDbEntity
  8
4
100
AcDbCircle
 10
186.6269739206768
 20
385.8394493887081
 30
0.0
 40
3.9999575
100
AcDbArc
 50
196.0726329999996
 51
253.9240980000009
  0
LINE
  5
9D
330
1B
100
AcDbEntity
  8
4
100
AcDbLine
 10
166.383566420677
 20
407.096041888708
 30
0.0
 11
165.383566420677
 21
407.096041888708
 31
0.0
  0
LINE
  5
9E
330
1B
100
AcDbEntity
  8
4
100
AcDbLine
 10
170.301533920677
 20
418.096041888708
 30
0.0
 11
166.383566420677
 21
418.096041888708
 31
0.0
  0
ARC
  5
9F
330
1B
100
AcDbEntity
  8
4
100
AcDbCircle
 10
170.301533920677
 20
420.096041888708
 30
0.0
 40
2.0000025
100
AcDbArc
 50
270.0013179999939
 51
2.476684999999774
  0
ARC
  5
A0
330
1B
100
AcDbEntity
  8
4
100
AcDbCircle
 10
190.2336639206767
 20
451.7681618887082
 30
0.0
 40
2.999965
100
AcDbArc
 50
85.39279599999793
 51
195.6848
  0
LINE
  5
A1
330
1B
100
AcDbEntity
  8
4
100
AcDbLine
 10
252.1543189206768
 20
431.777194388708
 30
0.0
 11
255.5456764206767
 21
389.687351888708
 31
0.0
  0
LINE
  5
A2
330
1B
100
AcDbEntity
  8
4
100
AcDbLine
 10
276.8830764206768
 20
391.096041888708
 30
0.0
 11
263.8925989206768
 21
383.596041888708
 31
0.0
  0
ARC
  5
A3
330
1B
100
AcDbEntity
  8
4
100
AcDbCircle
 10
252.555441420677
 20
389.4463843887081
 30
0.0
 40
2.99995
100
AcDbArc
 50
254.3146339999981
 51
4.607088999999486
  0
ARC
  5
A4
330
1B
100
AcDbEntity
  8
4
100
AcDbCircle
 10
248.1672564206769
 20
431.4559043887079
 30
0.0
 40
4.000025
100
AcDbArc
 50
4.607089000000199
 51
84.58182800000135
  0
ARC
  5
A5
330
1B
100
AcDbEntity
  8
4
100
AcDbCircle
 10
242.8471889206769
 20
442.0599093887081
 30
0.0
 40
3.9999575
100
AcDbArc
 50
186.6030650000002
 51
263.3974480000012
  0
ARC
  5
A6
330
1B
100
AcDbEntity
  8
4
100
AcDbCircle
 10
241.0598364206769
 20
440.2723118887079
 30
0.0
 40
3.9999475
100
AcDbArc
 50
186.951706
 51
263.0450279999991
  0
ARC
  5
A7
330
1B
100
AcDbEntity
  8
4
100
AcDbCircle
 10
232.2431864206769
 20
447.3799768887079
 30
0.0
 40
3.9999925
100
AcDbArc
 50
5.418007000000394
 51
85.39289300000057
  0
LINE
  5
A8
330
1B
100
AcDbEntity
  8
4
100
AcDbLine
 10
232.5644739206768
 20
500.8250468887081
 30
0.0
 11
190.4746314206768
 21
497.433689388708
 31
0.0
  0
ARC
  5
A9
330
1B
100
AcDbEntity
  8
4
100
AcDbCircle
 10
190.2336639206767
 20
500.423921888708
 30
0.0
 40
2.9999725
100
AcDbArc
 50
164.315277
 51
274.6086520000041
  0
ARC
  5
AA
330
1B
100
AcDbEntity
  8
4
100
AcDbCircle
 10
232.2431864206769
 20
504.8121068887081
 30
0.0
 40
3.9999975
100
AcDbArc
 50
274.6084059999993
 51
354.5819929999999
  0
ARC
  5
AB
330
1B
100
AcDbEntity
  8
4
100
AcDbCircle
 10
241.0598364206769
 20
511.9197718887081
 30
0.0
 40
3.9999525
100
AcDbArc
 50
106.2281751425029
 51
173.0483079999988
  0
ARC
  5
AC
330
1B
100
AcDbEntity
  8
4
100
AcDbCircle
 10
242.8471889206769
 20
510.1321743887081
 30
0.0
 40
3.99996
100
AcDbArc
 50
96.6031899999991
 51
173.396935
  0
ARC
  5
AD
330
1B
100
AcDbEntity
  8
4
100
AcDbCircle
 10
186.6269739206768
 20
566.3526343887081
 30
0.0
 40
3.9999875
100
AcDbArc
 50
106.0773749999994
 51
163.9274900000001
  0
LINE
  5
AE
330
1B
100
AcDbEntity
  8
4
100
AcDbLine
 10
276.883566420677
 20
584.096041888708
 30
0.0
 11
257.883566420677
 21
584.096041888708
 31
0.0
  0
LINE
  5
AF
330
1B
100
AcDbEntity
  8
4
100
AcDbLine
 10
264.383566420677
 20
585.596041888708
 30
0.0
 11
264.383566420677
 21
591.596041888708
 31
0.0
  0
LINE
  5
B0
330
1B
100
AcDbEntity
  8
4
100
AcDbLine
 10
257.883566420677
 20
582.5484343887081
 30
0.0
 11
257.883566420677
 21
584.096041888708
 31
0.0
  0
LINE
  5
B1
330
1B
100
AcDbEntity
  8
4
100
AcDbLine
 10
265.383566420677
 20
584.096041888708
 30
0.0
 11
265.383566420677
 21
585.596041888708
 31
0.0
  0
LINE
  5
B2
330
1B
100
AcDbEntity
  8
4
100
AcDbLine
 10
283.133566420677
 20
587.596041888708
 30
0.0
 11
283.133566420677
 21
591.596041888708
 31
0.0
  0
LINE
  5
B3
330
1B
100
AcDbEntity
  8
4
100
AcDbLine
 10
270.633566420677
 20
587.596041888708
 30
0.0
 11
270.633566420677
 21
591.596041888708
 31
0.0
  0
LINE
  5
B4
330
1B
100
AcDbEntity
  8
L-CENTER
 48
2.5
100
AcDbLine
 10
975.6093017517238
 20
451.658458580293
 30
0.0
 11
975.6093017517238
 21
500.6998018887081
 31
0.0
  0
LINE
  5
B5
330
1B
100
AcDbEntity
  8
4
100
AcDbLine
 10
970.6093017517238
 20
496.596041888708
 30
0.0
 11
970.6093017517238
 21
488.596041888708
 31
0.0
  0
LINE
  5
B6
330
1B
100
AcDbEntity
  8
4
100
AcDbLine
 10
980.6093017517238
 20
488.596041888708
 30
0.0
 11
980.6093017517238
 21
496.596041888708
 31
0.0
  0
LINE
  5
B7
330
1B
100
AcDbEntity
  8
4
100
AcDbLine
 10
980.6093017517238
 20
488.596041888708
 30
0.0
 11
970.6093017517238
 21
488.596041888708
 31
0.0
  0
LINE
  5
B8
330
1B
100
AcDbEntity
  8
4
100
AcDbLine
 10
980.6093017517238
 20
496.596041888708
 30
0.0
 11
970.6093017517238
 21
496.596041888708
 31
0.0
  0
LINE
  5
B9
330
1B
100
AcDbEntity
  8
4
100
AcDbLine
 10
730.9037454348852
 20
583.096041888708
 30
0.0
 11
814.9037454348852
 21
583.096041888708
 31
0.0
  0
LINE
  5
BA
330
1B
100
AcDbEntity
  8
L-CENTER
 48
2.5
100
AcDbLine
 10
932.8203114498108
 20
476.096041888708
 30
0.0
 11
690.7879754070289
 21
476.096041888708
 31
0.0
  0
ARC
  5
BB
330
1B
100
AcDbEntity
  8
4
100
AcDbCircle
 10
811.9037454348852
 20
320.096041888708
 30
0.0
 40
4.0
100
AcDbArc
 50
180.0
 51
270.0
  0
LINE
  5
BC
330
1B
100
AcDbEntity
  8
L-CENTER
 48
2.5
100
AcDbLine
 10
831.0805029348851
 20
376.096041888708
 30
0.0
 11
714.7269879348853
 21
376.096041888708
 31
0.0
  0
LINE
  5
BD
330
1B
100
AcDbEntity
  8
4
100
AcDbLine
 10
690.4037454348852
 20
291.096041888708
 30
0.0
 11
855.4037454348852
 21
291.096041888708
 31
0.0
  0
LINE
  5
BE
330
1B
100
AcDbEntity
  8
4
100
AcDbLine
 10
692.4037454348852
 20
316.096041888708
 30
0.0
 11
853.4037454348852
 21
316.096041888708
 31
0.0
  0
CIRCLE
  5
BF
330
1B
100
AcDbEntity
  8
4
100
AcDbCircle
 10
772.9037454348852
 20
376.096041888708
 30
0.0
 40
42.0
  0
LINE
  5
C0
330
1B
100
AcDbEntity
  8
4
100
AcDbLine
 10
721.9037454348852
 20
566.096041888708
 30
0.0
 11
705.9037454348852
 21
518.0960418887079
 31
0.0
  0
LINE
  5
C1
330
1B
100
AcDbEntity
  8
4
100
AcDbLine
 10
729.9037454348852
 20
376.0962868887081
 30
0.0
 11
729.9037454348852
 21
582.096041888708
 31
0.0
  0
LINE
  5
C2
330
1B
100
AcDbEntity
  8
4
100
AcDbLine
 10
721.9037454348852
 20
580.096041888708
 30
0.0
 11
721.9037454348852
 21
372.096041888708
 31
0.0
  0
LINE
  5
C3
330
1B
100
AcDbEntity
  8
L-CENTER
 48
2.5
100
AcDbLine
 10
772.9037454348852
 20
598.011814388708
 30
0.0
 11
772.9037454348852
 21
284.9945554610924
 31
0.0
  0
ARC
  5
C4
330
1B
100
AcDbEntity
  8
4
100
AcDbCircle
 10
53.883061420677
 20
476.096041888708
 30
0.0
 40
330.0000675
100
AcDbArc
 50
343.928885
 51
16.07279200000001
  0
LINE
  5
C5
330
1B
100
AcDbEntity
  8
4
100
AcDbLine
 10
289.8733114206768
 20
368.596041888708
 30
0.0
 11
289.8733114206768
 21
383.596041888708
 31
0.0
  0
LINE
  5
C6
330
1B
100
AcDbEntity
  8
4
100
AcDbLine
 10
456.8830764206768
 20
364.596041888708
 30
0.0
 11
456.8830764206768
 21
391.596041888708
 31
0.0
  0
LINE
  5
C7
330
1B
100
AcDbEntity
  8
4
100
AcDbLine
 10
406.8830764206768
 20
391.096041888708
 30
0.0
 11
406.8830764206768
 21
361.096041888708
 31
0.0
  0
LINE
  5
C8
330
1B
100
AcDbEntity
  8
4
100
AcDbLine
 10
455.8830764206768
 20
388.596041888708
 30
0.0
 11
455.8830764206768
 21
363.596041888708
 31
0.0
  0
LINE
  5
C9
330
1B
100
AcDbEntity
  8
4
100
AcDbLine
 10
377.0183314206768
 20
319.225436888708
 30
0.0
 11
383.8830764206768
 21
476.096041888708
 31
0.0
  0
ARC
  5
CA
330
1B
100
AcDbEntity
  8
4
100
AcDbCircle
 10
276.8833214206768
 20
699.0962868887082
 30
0.0
 40
329.9999325
100
AcDbArc
 50
272.9113560000001
 51
286.07412
  0
LINE
  5
CB
330
1B
100
AcDbEntity
  8
4
100
AcDbLine
 10
387.3830764206768
 20
418.096041888708
 30
0.0
 11
387.3830764206768
 21
334.096041888708
 31
0.0
  0
LINE
  5
CC
330
1B
100
AcDbEntity
  8
4
100
AcDbLine
 10
388.3830764206768
 20
407.096041888708
 30
0.0
 11
388.3830764206768
 21
345.096041888708
 31
0.0
  0
LINE
  5
CD
330
1B
100
AcDbEntity
  8
4
100
AcDbLine
 10
406.8830764206768
 20
363.596041888708
 30
0.0
 11
455.8830764206768
 21
363.596041888708
 31
0.0
  0
LINE
  5
CE
330
1B
100
AcDbEntity
  8
4
100
AcDbLine
 10
315.8830764206768
 20
316.096041888708
 30
0.0
 11
379.8830764206768
 21
316.096041888708
 31
0.0
  0
LINE
  5
CF
330
1B
100
AcDbEntity
  8
4
100
AcDbLine
 10
321.8830764206768
 20
291.096041888708
 30
0.0
 11
381.8830764206768
 21
291.096041888708
 31
0.0
  0
LINE
  5
D0
330
1B
100
AcDbEntity
  8
4
100
AcDbLine
 10
321.8830764206768
 20
369.096041888708
 30
0.0
 11
321.8830764206768
 21
320.096041888708
 31
0.0
  0
LINE
  5
D1
330
1B
100
AcDbEntity
  8
4
100
AcDbLine
 10
287.8830764206768
 20
361.848239388708
 30
0.0
 11
287.8830764206768
 21
318.096041888708
 31
0.0
  0
LINE
  5
D2
330
1B
100
AcDbEntity
  8
4
100
AcDbLine
 10
313.8830764206768
 20
369.096041888708
 30
0.0
 11
313.8830764206768
 21
301.096041888708
 31
0.0
  0
ARC
  5
D3
330
1B
100
AcDbEntity
  8
4
100
AcDbCircle
 10
315.8830764206768
 20
314.096041888708
 30
0.0
 40
2.0
100
AcDbArc
 50
90.0
 51
180.0
  0
LINE
  5
D4
330
1B
100
AcDbEntity
  8
4
100
AcDbLine
 10
339.3830764206768
 20
316.096041888708
 30
0.0
 11
339.3830764206768
 21
291.096041888708
 31
0.0
  0
ARC
  5
D5
330
1B
100
AcDbEntity
  8
4
100
AcDbCircle
 10
318.2434289206769
 20
299.096041888708
 30
0.0
 40
2.00002
100
AcDbArc
 50
11.31267999999891
 51
90.0
  0
LINE
  5
D6
330
1B
100
AcDbEntity
  8
L-CENTER
 48
2.5
100
AcDbLine
 10
346.8830764206768
 20
325.096041888708
 30
0.0
 11
346.8830764206768
 21
282.096041888708
 31
0.0
  0
LINE
  5
D7
330
1B
100
AcDbEntity
  8
4
100
AcDbLine
 10
320.2046114206769
 20
299.488131888708
 30
0.0
 11
321.8830764206768
 21
291.096041888708
 31
0.0
  0
ARC
  5
D8
330
1B
100
AcDbEntity
  8
4
100
AcDbCircle
 10
325.8830764206768
 20
320.096041888708
 30
0.0
 40
4.0
100
AcDbArc
 50
180.0
 51
270.0
  0
ARC
  5
D9
330
1B
100
AcDbEntity
  8
4
100
AcDbCircle
 10
379.8830764206768
 20
314.096041888708
 30
0.0
 40
2.0
100
AcDbArc
 50
0.0
 51
90.0
  0
LINE
  5
DA
330
1B
100
AcDbEntity
  8
4
100
AcDbLine
 10
381.8830764206768
 20
291.096041888708
 30
0.0
 11
381.8830764206768
 21
314.096041888708
 31
0.0
  0
LINE
  5
DB
330
1B
100
AcDbEntity
  8
4
100
AcDbLine
 10
354.3830764206768
 20
316.096041888708
 30
0.0
 11
354.3830764206768
 21
291.096041888708
 31
0.0
  0
ARC
  5
DC
330
1B
100
AcDbEntity
  8
4
100
AcDbCircle
 10
380.0154014206769
 20
319.096041888708
 30
0.0
 40
3.0000525
100
AcDbArc
 50
177.5280580000001
 51
270.0
  0
LINE
  5
DD
330
1B
100
AcDbEntity
  8
4
100
AcDbLine
 10
380.6203814206767
 20
334.096041888708
 30
0.0
 11
387.3830764206768
 21
334.096041888708
 31
0.0
  0
ARC
  5
DE
330
1B
100
AcDbEntity
  8
4
100
AcDbCircle
 10
380.6203814206767
 20
331.096041888708
 30
0.0
 40
3.0000525
100
AcDbArc
 50
90.0
 51
177.5280580000001
  0
LINE
  5
DF
330
1B
100
AcDbEntity
  8
4
100
AcDbLine
 10
387.3830764206768
 20
345.096041888708
 30
0.0
 11
388.3830764206768
 21
345.096041888708
 31
0.0
  0
LINE
  5
E0
330
1B
100
AcDbEntity
  8
4
100
AcDbLine
 10
388.3830764206768
 20
361.096041888708
 30
0.0
 11
406.8830764206768
 21
361.096041888708
 31
0.0
  0
LINE
  5
E1
330
1B
100
AcDbEntity
  8
4
100
AcDbLine
 10
456.8830764206768
 20
364.596041888708
 30
0.0
 11
455.8830764206768
 21
363.596041888708
 31
0.0
  0
LINE
  5
E2
330
1B
100
AcDbEntity
  8
4
100
AcDbLine
 10
456.8830764206768
 20
391.596041888708
 30
0.0
 11
411.8830764206768
 21
391.596041888708
 31
0.0
  0
LINE
  5
E3
330
1B
100
AcDbEntity
  8
4
100
AcDbLine
 10
406.8830764206768
 20
388.596041888708
 30
0.0
 11
455.8830764206768
 21
388.596041888708
 31
0.0
  0
ARC
  5
E4
330
1B
100
AcDbEntity
  8
4
100
AcDbCircle
 10
18.88283392067683
 20
476.096041888708
 30
0.0
 40
300.0000925
100
AcDbArc
 50
353.0498919999999
 51
6.951281999999988
  0
ARC
  5
E5
330
1B
100
AcDbEntity
  8
4
100
AcDbCircle
 10
16.88283392067683
 20
476.096041888708
 30
0.0
 40
300.00003
100
AcDbArc
 50
353.398396
 51
6.602922000000014
  0
LINE
  5
E6
330
1B
100
AcDbEntity
  8
4
100
AcDbLine
 10
321.202168920677
 20
451.3670368887081
 30
0.0
 11
363.2920139206769
 21
454.7583968887079
 31
0.0
  0
LINE
  5
E7
330
1B
100
AcDbEntity
  8
4
100
AcDbLine
 10
301.6123264206769
 20
431.777194388708
 30
0.0
 11
298.2209689206768
 21
389.687351888708
 31
0.0
  0
ARC
  5
E8
330
1B
100
AcDbEntity
  8
4
100
AcDbCircle
 10
301.2112014206768
 20
389.4463843887081
 30
0.0
 40
2.99995
100
AcDbArc
 50
175.3929110000005
 51
285.6853470000029
  0
ARC
  5
E9
330
1B
100
AcDbEntity
  8
4
100
AcDbCircle
 10
312.7068089206768
 20
440.2723118887079
 30
0.0
 40
4.0000025
100
AcDbArc
 50
276.9554130000008
 51
353.0484799999999
  0
ARC
  5
EA
330
1B
100
AcDbEntity
  8
4
100
AcDbCircle
 10
310.9194539206769
 20
442.0599093887081
 30
0.0
 40
3.9999225
100
AcDbArc
 50
276.6031919999987
 51
353.3968099999996
  0
ARC
  5
EB
330
1B
100
AcDbEntity
  8
4
100
AcDbCircle
 10
305.5993864206769
 20
431.4559043887079
 30
0.0
 40
4.0000175
100
AcDbArc
 50
95.41795899999873
 51
175.3928940000001
  0
ARC
  5
EC
330
1B
100
AcDbEntity
  8
4
100
AcDbCircle
 10
321.5234589206768
 20
447.3799768887079
 30
0.0
 40
4.0000175
100
AcDbArc
 50
94.60710699999812
 51
174.5820559999999
  0
ARC
  5
ED
330
1B
100
AcDbEntity
  8
4
100
AcDbCircle
 10
367.139668920677
 20
385.8394493887081
 30
0.0
 40
3.9999825
100
AcDbArc
 50
286.0765349999974
 51
343.9311629999994
  0
LINE
  5
EE
330
1B
100
AcDbEntity
  8
4
100
AcDbLine
 10
388.3830764206768
 20
391.096041888708
 30
0.0
 11
406.8830764206768
 21
391.096041888708
 31
0.0
  0
LINE
  5
EF
330
1B
100
AcDbEntity
  8
4
100
AcDbLine
 10
411.8830764206768
 20
388.596041888708
 30
0.0
 11
411.8830764206768
 21
391.596041888708
 31
0.0
  0
LINE
  5
F0
330
1B
100
AcDbEntity
  8
4
100
AcDbLine
 10
387.3830764206768
 20
407.096041888708
 30
0.0
 11
388.3830764206768
 21
407.096041888708
 31
0.0
  0
ARC
  5
F1
330
1B
100
AcDbEntity
  8
4
100
AcDbCircle
 10
383.4651089206768
 20
420.096041888708
 30
0.0
 40
1.9999575
100
AcDbArc
 50
177.5232010000005
 51
270.0
  0
ARC
  5
F2
330
1B
100
AcDbEntity
  8
4
100
AcDbCircle
 10
363.5329814206768
 20
451.7681618887082
 30
0.0
 40
3.00003
100
AcDbArc
 50
344.3159070000018
 51
94.60720399999856
  0
LINE
  5
F3
330
1B
100
AcDbEntity
  8
4
100
AcDbLine
 10
383.4651089206768
 20
418.096041888708
 30
0.0
 11
387.3830764206768
 21
418.096041888708
 31
0.0
  0
LINE
  5
F4
330
1B
100
AcDbEntity
  8
4
100
AcDbLine
 10
321.202168920677
 20
500.8250468887081
 30
0.0
 11
363.2920139206769
 21
497.433689388708
 31
0.0
  0
ARC
  5
F5
330
1B
100
AcDbEntity
  8
4
100
AcDbCircle
 10
321.5234589206768
 20
504.8121068887081
 30
0.0
 40
4.0000175
100
AcDbArc
 50
185.4179440000001
 51
265.3928930000019
  0
ARC
  5
F6
330
1B
100
AcDbEntity
  8
4
100
AcDbCircle
 10
312.7068089206768
 20
511.9197718887081
 30
0.0
 40
4.0000025
100
AcDbArc
 50
6.951506000000326
 51
73.77686195218318
  0
ARC
  5
F7
330
1B
100
AcDbEntity
  8
4
100
AcDbCircle
 10
310.9194539206769
 20
510.1321743887081
 30
0.0
 40
3.9999225
100
AcDbArc
 50
6.603190000000464
 51
83.39680999999892
  0
ARC
  5
F8
330
1B
100
AcDbEntity
  8
4
100
AcDbCircle
 10
363.5329814206768
 20
500.423921888708
 30
0.0
 40
2.9999125
100
AcDbArc
 50
265.3927949999981
 51
15.68535299999965
  0
LINE
  5
F9
330
1B
100
AcDbEntity
  8
4
100
AcDbLine
 10
455.8830764206768
 20
388.596041888708
 30
0.0
 11
456.8830764206768
 21
387.596041888708
 31
0.0
  0
LINE
  5
FA
330
1B
100
AcDbEntity
  8
4
100
AcDbLine
 10
726.9037454348852
 20
371.096041888708
 30
0.0
 11
726.9037454348852
 21
365.525636888708
 31
0.0
  0
LINE
  5
FB
330
1B
100
AcDbEntity
  8
4
100
AcDbLine
 10
726.9037454348852
 20
371.096041888708
 30
0.0
 11
726.9037454348852
 21
365.155124388708
 31
0.0
  0
LINE
  5
FC
330
1B
100
AcDbEntity
  8
4
100
AcDbLine
 10
723.4037454348852
 20
371.096041888708
 30
0.0
 11
723.4037454348852
 21
361.096041888708
 31
0.0
  0
LINE
  5
FD
330
1B
100
AcDbEntity
  8
4
100
AcDbLine
 10
725.4037454348852
 20
371.096041888708
 30
0.0
 11
725.4037454348852
 21
361.096041888708
 31
0.0
  0
LINE
  5
FE
330
1B
100
AcDbEntity
  8
4
100
AcDbLine
 10
729.9037454348852
 20
376.0962868887081
 30
0.0
 11
713.7103854348854
 21
319.0381818887081
 31
0.0
  0
LINE
  5
FF
330
1B
100
AcDbEntity
  8
4
100
AcDbLine
 10
718.4037454348852
 20
361.096041888708
 30
0.0
 11
718.4037454348852
 21
391.096041888708
 31
0.0
  0
ARC
  5
100
330
1B
100
AcDbEntity
  8
4
100
AcDbCircle
 10
772.9037454348852
 20
376.096041888708
 30
0.0
 40
12.5
100
AcDbArc
 50
106.2602049999989
 51
73.739794999999
  0
CIRCLE
  5
101
330
1B
100
AcDbEntity
  8
4
100
AcDbCircle
 10
772.9037454348852
 20
376.096041888708
 30
0.0
 40
31.0
  0
LINE
  5
102
330
1B
100
AcDbEntity
  8
4
100
AcDbLine
 10
737.9037454348852
 20
351.703219388708
 30
0.0
 11
737.9037454348852
 21
320.096041888708
 31
0.0
  0
ARC
  5
103
330
1B
100
AcDbEntity
  8
4
100
AcDbCircle
 10
709.8527204348854
 20
320.096041888708
 30
0.0
 40
4.00001
100
AcDbArc
 50
270.0
 51
344.6685129999992
  0
LINE
  5
104
330
1B
100
AcDbEntity
  8
4
100
AcDbLine
 10
690.4037454348852
 20
291.096041888708
 30
0.0
 11
690.4037454348852
 21
314.096041888708
 31
0.0
  0
ARC
  5
105
330
1B
100
AcDbEntity
  8
4
100
AcDbCircle
 10
692.4037454348852
 20
314.096041888708
 30
0.0
 40
2.0
100
AcDbArc
 50
90.0
 51
180.0
  0
LINE
  5
106
330
1B
100
AcDbEntity
  8
L-CENTER
 48
2.5
100
AcDbLine
 10
712.9037454348852
 20
325.096041888708
 30
0.0
 11
712.9037454348852
 21
282.096041888708
 31
0.0
  0
ARC
  5
107
330
1B
100
AcDbEntity
  8
4
100
AcDbCircle
 10
733.9037454348852
 20
320.096041888708
 30
0.0
 40
4.0
100
AcDbArc
 50
270.0
 51
0.0
  0
LINE
  5
108
330
1B
100
AcDbEntity
  8
4
100
AcDbLine
 10
723.4037454348852
 20
368.596041888708
 30
0.0
 11
718.4037454348852
 21
368.596041888708
 31
0.0
  0
LINE
  5
109
330
1B
100
AcDbEntity
  8
4
100
AcDbLine
 10
725.4037454348852
 20
361.096041888708
 30
0.0
 11
718.4037454348852
 21
361.096041888708
 31
0.0
  0
LINE
  5
10A
330
1B
100
AcDbEntity
  8
4
100
AcDbLine
 10
725.9304104348855
 20
362.096041888708
 30
0.0
 11
725.4037454348852
 21
362.096041888708
 31
0.0
  0
ARC
  5
10B
330
1B
100
AcDbEntity
  8
4
100
AcDbCircle
 10
733.9037454348852
 20
351.703219388708
 30
0.0
 40
4.0000225
100
AcDbArc
 50
0.0
 51
32.02355299999861
  0
LINE
  5
10C
330
1B
100
AcDbEntity
  8
4
100
AcDbLine
 10
807.9037454348852
 20
351.703219388708
 30
0.0
 11
807.9037454348852
 21
320.096041888708
 31
0.0
  0
ARC
  5
10D
330
1B
100
AcDbEntity
  8
4
100
AcDbCircle
 10
811.9037454348852
 20
351.703219388708
 30
0.0
 40
4.0000225
100
AcDbArc
 50
147.9764549999972
 51
180.0
  0
LINE
  5
10E
330
1B
100
AcDbEntity
  8
4
100
AcDbLine
 10
695.9037454348852
 20
516.096041888708
 30
0.0
 11
695.9037454348852
 21
436.096041888708
 31
0.0
  0
LINE
  5
10F
330
1B
100
AcDbEntity
  8
4
100
AcDbLine
 10
705.9037454348852
 20
518.096041888708
 30
0.0
 11
705.9037454348852
 21
434.096041888708
 31
0.0
  0
LINE
  5
110
330
1B
100
AcDbEntity
  8
4
100
AcDbLine
 10
721.9037454348852
 20
386.096041888708
 30
0.0
 11
705.9037454348852
 21
434.096041888708
 31
0.0
  0
LINE
  5
111
330
1B
100
AcDbEntity
  8
4
100
AcDbLine
 10
728.5326504348852
 20
371.096041888708
 30
0.0
 11
722.9037454348852
 21
371.096041888708
 31
0.0
  0
ARC
  5
112
330
1B
100
AcDbEntity
  8
4
100
AcDbCircle
 10
722.9037454348852
 20
372.096041888708
 30
0.0
 40
1.0
100
AcDbArc
 50
180.0
 51
270.0
  0
LINE
  5
113
330
1B
100
AcDbEntity
  8
4
100
AcDbLine
 10
720.2370779348855
 20
391.096041888708
 30
0.0
 11
718.4037454348852
 21
391.096041888708
 31
0.0
  0
LINE
  5
114
330
1B
100
AcDbEntity
  8
4
100
AcDbLine
 10
721.9037454348852
 20
383.596041888708
 30
0.0
 11
718.4037454348852
 21
383.596041888708
 31
0.0
  0
LINE
  5
115
330
1B
100
AcDbEntity
  8
4
100
AcDbLine
 10
705.9037454348852
 20
451.096041888708
 30
0.0
 11
721.9037454348852
 21
455.096041888708
 31
0.0
  0
LINE
  5
116
330
1B
100
AcDbEntity
  8
4
100
AcDbLine
 10
695.9037454348852
 20
436.096041888708
 30
0.0
 11
705.9037454348852
 21
434.096041888708
 31
0.0
  0
LINE
  5
117
330
1B
100
AcDbEntity
  8
4
100
AcDbLine
 10
776.4037454348852
 20
391.596041888708
 30
0.0
 11
769.4037454348852
 21
391.596041888708
 31
0.0
  0
LINE
  5
118
330
1B
100
AcDbEntity
  8
4
100
AcDbLine
 10
776.4037454348852
 20
384.596041888708
 30
0.0
 11
769.4037454348852
 21
384.596041888708
 31
0.0
  0
LINE
  5
119
330
1B
100
AcDbEntity
  8
4
100
AcDbLine
 10
769.4037454348852
 20
391.596041888708
 30
0.0
 11
769.4037454348852
 21
384.596041888708
 31
0.0
  0
LINE
  5
11A
330
1B
100
AcDbEntity
  8
4
100
AcDbLine
 10
776.4037454348852
 20
384.596041888708
 30
0.0
 11
776.4037454348852
 21
391.596041888708
 31
0.0
  0
LINE
  5
11B
330
1B
100
AcDbEntity
  8
4
100
AcDbLine
 10
705.9037454348852
 20
501.096041888708
 30
0.0
 11
721.9037454348852
 21
497.096041888708
 31
0.0
  0
LINE
  5
11C
330
1B
100
AcDbEntity
  8
4
100
AcDbLine
 10
695.9037454348852
 20
516.096041888708
 30
0.0
 11
705.9037454348852
 21
518.096041888708
 31
0.0
  0
LINE
  5
11D
330
1B
100
AcDbEntity
  8
4
100
AcDbLine
 10
289.383566420677
 20
585.596041888708
 30
0.0
 11
289.383566420677
 21
591.596041888708
 31
0.0
  0
LINE
  5
11E
330
1B
100
AcDbEntity
  8
4
100
AcDbLine
 10
288.383566420677
 20
584.096041888708
 30
0.0
 11
288.383566420677
 21
585.596041888708
 31
0.0
  0
LINE
  5
11F
330
1B
100
AcDbEntity
  8
4
100
AcDbLine
 10
295.8830764206768
 20
582.5484343887081
 30
0.0
 11
295.8830764206768
 21
584.096041888708
 31
0.0
  0
ARC
  5
120
330
1B
100
AcDbEntity
  8
4
100
AcDbCircle
 10
367.139668920677
 20
566.3526343887081
 30
0.0
 40
4.000015
100
AcDbArc
 50
16.07220900000016
 51
73.92346500000043
  0
LINE
  5
121
330
1B
100
AcDbEntity
  8
4
100
AcDbLine
 10
729.9037454348852
 20
581.096041888708
 30
0.0
 11
722.9037454348852
 21
581.096041888708
 31
0.0
  0
ARC
  5
122
330
1B
100
AcDbEntity
  8
4
100
AcDbCircle
 10
722.9037454348852
 20
580.096041888708
 30
0.0
 40
1.0
100
AcDbArc
 50
90.0
 51
180.0
  0
ARC
  5
123
330
1B
100
AcDbEntity
  8
4
100
AcDbCircle
 10
730.9037454348852
 20
582.096041888708
 30
0.0
 40
1.0
100
AcDbArc
 50
90.0
 51
180.0
  0
LINE
  5
124
330
1B
100
AcDbEntity
  8
4
100
AcDbLine
 10
791.9037454348852
 20
584.096041888708
 30
0.0
 11
753.9037454348852
 21
584.096041888708
 31
0.0
  0
LINE
  5
125
330
1B
100
AcDbEntity
  8
4
100
AcDbLine
 10
785.4038679348853
 20
585.596041888708
 30
0.0
 11
760.4038679348853
 21
585.596041888708
 31
0.0
  0
LINE
  5
126
330
1B
100
AcDbEntity
  8
4
100
AcDbLine
 10
785.4038679348853
 20
587.596041888708
 30
0.0
 11
760.4038679348853
 21
587.596041888708
 31
0.0
  0
LINE
  5
127
330
1B
100
AcDbEntity
  8
4
100
AcDbLine
 10
783.7290629348852
 20
591.596041888708
 30
0.0
 11
762.0784279348852
 21
591.596041888708
 31
0.0
  0
LINE
  5
128
330
1B
100
AcDbEntity
  8
4
100
AcDbLine
 10
753.9037454348852
 20
584.096041888708
 30
0.0
 11
753.9037454348852
 21
583.096041888708
 31
0.0
  0
LINE
  5
129
330
1B
100
AcDbEntity
  8
4
100
AcDbLine
 10
762.0784279348852
 20
587.596041888708
 30
0.0
 11
762.0784279348852
 21
591.596041888708
 31
0.0
  0
LINE
  5
12A
330
1B
100
AcDbEntity
  8
4
100
AcDbLine
 10
761.4038679348853
 20
584.096041888708
 30
0.0
 11
761.4038679348853
 21
585.596041888708
 31
0.0
  0
LINE
  5
12B
330
1B
100
AcDbEntity
  8
4
100
AcDbLine
 10
760.4038679348853
 20
585.596041888708
 30
0.0
 11
760.4038679348853
 21
587.596041888708
 31
0.0
  0
LINE
  5
12C
330
1B
100
AcDbEntity
  8
4
100
AcDbLine
 10
783.7290629348852
 20
587.596041888708
 30
0.0
 11
783.7290629348852
 21
591.596041888708
 31
0.0
  0
LINE
  5
12D
330
1B
100
AcDbEntity
  8
4
100
AcDbLine
 10
784.4038679348853
 20
584.096041888708
 30
0.0
 11
784.4038679348853
 21
585.596041888708
 31
0.0
  0
LINE
  5
12E
330
1B
100
AcDbEntity
  8
4
100
AcDbLine
 10
791.9037454348852
 20
584.096041888708
 30
0.0
 11
791.9037454348852
 21
583.096041888708
 31
0.0
  0
LINE
  5
12F
330
1B
100
AcDbEntity
  8
4
100
AcDbLine
 10
785.4038679348853
 20
585.596041888708
 30
0.0
 11
785.4038679348853
 21
587.596041888708
 31
0.0
  0
LINE
  5
130
330
1B
100
AcDbEntity
  8
4
100
AcDbLine
 10
815.9037454348852
 20
376.0972618887081
 30
0.0
 11
815.9037454348852
 21
582.096041888708
 31
0.0
  0
LINE
  5
131
330
1B
100
AcDbEntity
  8
4
100
AcDbLine
 10
820.9037454348852
 20
371.096041888708
 30
0.0
 11
820.9037454348852
 21
581.096041888708
 31
0.0
  0
LINE
  5
132
330
1B
100
AcDbEntity
  8
4
100
AcDbLine
 10
832.2036479348856
 20
580.096041888708
 30
0.0
 11
832.2036479348856
 21
372.096041888708
 31
0.0
  0
LINE
  5
133
330
1B
100
AcDbEntity
  8
4
100
AcDbLine
 10
815.9037454348852
 20
376.0972618887081
 30
0.0
 11
832.0973479348852
 21
319.0381818887081
 31
0.0
  0
LINE
  5
134
330
1B
100
AcDbEntity
  8
L-CENTER
 48
2.5
100
AcDbLine
 10
832.9037454348852
 20
325.096041888708
 30
0.0
 11
832.9037454348852
 21
282.096041888708
 31
0.0
  0
ARC
  5
135
330
1B
100
AcDbEntity
  8
4
100
AcDbCircle
 10
835.9550154348851
 20
320.096041888708
 30
0.0
 40
4.00001
100
AcDbArc
 50
195.3314870000008
 51
270.0
  0
LINE
  5
136
330
1B
100
AcDbEntity
  8
4
100
AcDbLine
 10
855.4037454348852
 20
291.096041888708
 30
0.0
 11
855.4037454348852
 21
314.096041888708
 31
0.0
  0
ARC
  5
137
330
1B
100
AcDbEntity
  8
4
100
AcDbCircle
 10
853.4037454348852
 20
314.096041888708
 30
0.0
 40
2.0
100
AcDbArc
 50
0.0
 51
90.0
  0
LINE
  5
138
330
1B
100
AcDbEntity
  8
4
100
AcDbLine
 10
926.9037454348852
 20
493.096041888708
 30
0.0
 11
926.9037454348852
 21
459.096041888708
 31
0.0
  0
LINE
  5
139
330
1B
100
AcDbEntity
  8
4
100
AcDbLine
 10
867.9037454348852
 20
493.596041888708
 30
0.0
 11
867.9037454348852
 21
458.596041888708
 31
0.0
  0
LINE
  5
13A
330
1B
100
AcDbEntity
  8
4
100
AcDbLine
 10
852.8035004348856
 20
518.096041888708
 30
0.0
 11
852.8035004348856
 21
434.096041888708
 31
0.0
  0
LINE
  5
13B
330
1B
100
AcDbEntity
  8
4
100
AcDbLine
 10
853.8035004348856
 20
501.096041888708
 30
0.0
 11
853.8035004348856
 21
451.096041888708
 31
0.0
  0
LINE
  5
13C
330
1B
100
AcDbEntity
  8
4
100
AcDbLine
 10
927.9037454348852
 20
496.596041888708
 30
0.0
 11
927.9037454348852
 21
460.096041888708
 31
0.0
  0
LINE
  5
13D
330
1B
100
AcDbEntity
  8
4
100
AcDbLine
 10
841.8035004348856
 20
521.096041888708
 30
0.0
 11
841.8035004348856
 21
431.096041888708
 31
0.0
  0
LINE
  5
13E
330
1B
100
AcDbEntity
  8
4
100
AcDbLine
 10
867.9037454348852
 20
459.096041888708
 30
0.0
 11
926.9037454348852
 21
459.096041888708
 31
0.0
  0
LINE
  5
13F
330
1B
100
AcDbEntity
  8
4
100
AcDbLine
 10
832.220334902014
 20
396.1094693887079
 30
0.0
 11
841.8035004348856
 21
431.096041888708
 31
0.0
  0
LINE
  5
140
330
1B
100
AcDbEntity
  8
4
100
AcDbLine
 10
831.2036479348856
 20
371.096041888708
 30
0.0
 11
820.9037454348852
 21
371.096041888708
 31
0.0
  0
LINE
  5
141
330
1B
100
AcDbEntity
  8
4
100
AcDbLine
 10
817.2750829348854
 20
371.096041888708
 30
0.0
 11
820.9037454348852
 21
371.096041888708
 31
0.0
  0
ARC
  5
142
330
1B
100
AcDbEntity
  8
4
100
AcDbCircle
 10
831.2036479348856
 20
372.096041888708
 30
0.0
 40
1.0
100
AcDbArc
 50
270.0
 51
0.0
  0
LINE
  5
143
330
1B
100
AcDbEntity
  8
4
100
AcDbLine
 10
852.8035004348856
 20
434.096041888708
 30
0.0
 11
841.8035004348856
 21
431.096041888708
 31
0.0
  0
LINE
  5
144
330
1B
100
AcDbEntity
  8
4
100
AcDbLine
 10
832.2036479348856
 20
455.096041888708
 30
0.0
 11
841.8035004348856
 21
451.4734043887081
 31
0.0
  0
LINE
  5
145
330
1B
100
AcDbEntity
  8
4
100
AcDbLine
 10
853.8035004348856
 20
458.596041888708
 30
0.0
 11
867.9037454348852
 21
458.596041888708
 31
0.0
  0
LINE
  5
146
330
1B
100
AcDbEntity
  8
4
100
AcDbLine
 10
853.8035004348856
 20
451.096041888708
 30
0.0
 11
852.8035004348856
 21
451.096041888708
 31
0.0
  0
LINE
  5
147
330
1B
100
AcDbEntity
  8
4
100
AcDbLine
 10
927.9037454348852
 20
460.096041888708
 30
0.0
 11
926.9037454348852
 21
459.096041888708
 31
0.0
  0
LINE
  5
148
330
1B
100
AcDbEntity
  8
4
100
AcDbLine
 10
867.9037454348852
 20
493.096041888708
 30
0.0
 11
926.9037454348852
 21
493.096041888708
 31
0.0
  0
LINE
  5
149
330
1B
100
AcDbEntity
  8
4
100
AcDbLine
 10
872.9037454348852
 20
496.596041888708
 30
0.0
 11
927.9037454348852
 21
496.596041888708
 31
0.0
  0
LINE
  5
14A
330
1B
100
AcDbEntity
  8
4
100
AcDbLine
 10
841.8035004348856
 20
500.7186793887081
 30
0.0
 11
832.2036479348856
 21
497.096041888708
 31
0.0
  0
LINE
  5
14B
330
1B
100
AcDbEntity
  8
4
100
AcDbLine
 10
853.8035004348856
 20
493.596041888708
 30
0.0
 11
867.9037454348852
 21
493.596041888708
 31
0.0
  0
LINE
  5
14C
330
1B
100
AcDbEntity
  8
4
100
AcDbLine
 10
853.8035004348856
 20
501.096041888708
 30
0.0
 11
852.8035004348856
 21
501.096041888708
 31
0.0
  0
LINE
  5
14D
330
1B
100
AcDbEntity
  8
4
100
AcDbLine
 10
872.9037454348852
 20
496.596041888708
 30
0.0
 11
872.9037454348852
 21
493.096041888708
 31
0.0
  0
LINE
  5
14E
330
1B
100
AcDbEntity
  8
4
100
AcDbLine
 10
852.8035004348856
 20
518.096041888708
 30
0.0
 11
841.8035004348856
 21
521.096041888708
 31
0.0
  0
LINE
  5
14F
330
1B
100
AcDbEntity
  8
4
100
AcDbLine
 10
832.220334902014
 20
556.082614388708
 30
0.0
 11
841.8035004348856
 21
521.096041888708
 31
0.0
  0
LINE
  5
150
330
1B
100
AcDbEntity
  8
4
100
AcDbLine
 10
926.9037454348852
 20
493.096041888708
 30
0.0
 11
927.9037454348852
 21
492.096041888708
 31
0.0
  0
LINE
  5
151
330
1B
100
AcDbEntity
  8
L-CENTER
 48
2.5
100
AcDbLine
 10
844.0166354348855
 20
561.832614388708
 30
0.0
 11
810.1766954348852
 21
561.832614388708
 31
0.0
  0
LINE
  5
152
330
1B
100
AcDbEntity
  8
4
100
AcDbLine
 10
831.2036479348856
 20
581.096041888708
 30
0.0
 11
820.9037454348852
 21
581.096041888708
 31
0.0
  0
LINE
  5
153
330
1B
100
AcDbEntity
  8
4
100
AcDbLine
 10
820.9037454348852
 20
581.096041888708
 30
0.0
 11
815.9037454348852
 21
581.096041888708
 31
0.0
  0
ARC
  5
154
330
1B
100
AcDbEntity
  8
4
100
AcDbCircle
 10
814.9037454348852
 20
582.096041888708
 30
0.0
 40
1.0
100
AcDbArc
 50
0.0
 51
90.0
  0
ARC
  5
155
330
1B
100
AcDbEntity
  8
4
100
AcDbCircle
 10
831.2036479348856
 20
580.096041888708
 30
0.0
 40
1.0
100
AcDbArc
 50
0.0
 51
90.0
  0
LWPOLYLINE
  5
156
330
1B
100
AcDbEntity
  8
4
100
AcDbPolyline
 90
       44
 70
     0
 43
0.0
 10
331.6570064206769
 20
316.105296888708
 10
331.9393989206767
 20
315.7438543887081
 10
332.211923920677
 20
315.383874388708
 10
332.4647214206768
 20
315.026821888708
 10
333.0060764206769
 20
313.987844388708
 10
333.0812989206768
 20
313.6571243887081
 10
333.0874689206769
 20
313.3366418887081
 10
333.0147164206769
 20
313.0278668887081
 10
332.8345214206768
 20
312.695351888708
 10
332.5759564206769
 20
312.3733268887081
 10
332.2727264206769
 20
312.055659388708
 10
331.9585389206768
 20
311.7362218887081
 10
331.6670964206769
 20
311.408881888708
 10
331.4321114206768
 20
311.0675068887081
 10
331.2884564206768
 20
310.735471888708
 10
331.2127289206769
 20
310.388076888708
 10
331.1959089206769
 20
310.0271668887081
 10
331.408713920677
 20
308.8818293887081
 10
331.8270014206769
 20
307.6813818887081
 10
332.2072464206769
 20
306.475711888708
 10
332.2834514206768
 20
306.081284388708
 10
332.3193514206769
 20
305.693664388708
 10
332.305926420677
 20
305.314704388708
 10
332.1958789206769
 20
304.8028443887081
 10
331.9960939206769
 20
304.307626888708
 10
331.7302439206769
 20
303.825269388708
 10
330.7729439206769
 20
302.417596888708
 10
330.4794864206769
 20
301.948909388708
 10
330.2382914206769
 20
301.474194388708
 10
330.0730314206769
 20
300.989671888708
 10
330.0045814206769
 20
300.551059388708
 10
330.0029214206768
 20
300.103069388708
 10
330.0570939206768
 20
299.646934388708
 10
330.4450714206769
 20
298.2419418887081
 10
330.941188920677
 20
296.8078768887081
 10
331.0794714206768
 20
296.329131888708
 10
331.1859514206769
 20
295.8520693887081
 10
331.249673920677
 20
295.377924388708
 10
331.2469139206769
 20
294.630199388708
 10
331.1304639206769
 20
293.8912443887079
 10
330.9230589206768
 20
293.159306888708
 10
330.6474389206769
 20
292.4326318887081
 10
330.326341420677
 20
291.7094643887081
 10
330.0339780478059
 20
291.096041888708
  0
ARC
  5
157
330
1B
100
AcDbEntity
  8
4
100
AcDbCircle
 10
251.7340599206768
 20
551.0960433887078
 30
0.0
 40
3.0
100
AcDbArc
 50
270.0
 51
355.1952340000004
  0
ARC
  5
158
330
1B
100
AcDbEntity
  8
4
100
AcDbCircle
 10
243.3830694206767
 20
546.0960438887082
 30
0.0
 40
1.9999995
100
AcDbArc
 50
90.0
 51
180.0
  0
LINE
  5
159
330
1B
100
AcDbEntity
  8
4
100
AcDbLine
 10
247.3831074206769
 20
543.0960423887079
 30
0.0
 11
250.3831074206769
 21
543.0960468887081
 31
0.0
  0
ARC
  5
15A
330
1B
100
AcDbEntity
  8
4
100
AcDbCircle
 10
247.3831059206768
 20
542.0960433887078
 30
0.0
 40
1.0000005
100
AcDbArc
 50
89.99988399999943
 51
179.9998839998386
  0
ARC
  5
15B
330
1B
100
AcDbEntity
  8
4
100
AcDbCircle
 10
250.3831044206768
 20
542.0960433887078
 30
0.0
 40
1.0000005
100
AcDbArc
 50
359.9998459985447
 51
89.99984600000418
  0
LINE
  5
15C
330
1B
100
AcDbEntity
  8
4
100
AcDbLine
 10
243.3830694206767
 20
548.0960433887078
 30
0.0
 11
310.3830834206769
 21
548.0960433887078
 31
0.0
  0
ARC
  5
15D
330
1B
100
AcDbEntity
  8
4
100
AcDbCircle
 10
310.3830834206769
 20
546.0960438887082
 30
0.0
 40
1.9999995
100
AcDbArc
 50
0.0
 51
90.0
  0
LINE
  5
15E
330
1B
100
AcDbEntity
  8
4
100
AcDbLine
 10
270.1638504206767
 20
543.0960438887082
 30
0.0
 11
273.6022974206769
 21
543.0960438887082
 31
0.0
  0
LINE
  5
15F
330
1B
100
AcDbEntity
  8
4
100
AcDbLine
 10
255.4154859206769
 20
561.1080498887081
 30
0.0
 11
254.7235179206768
 21
550.844761888708
 31
0.0
  0
ARC
  5
160
330
1B
100
AcDbEntity
  8
4
100
AcDbCircle
 10
270.1638504206767
 20
542.0960433887078
 30
0.0
 40
1.0000005
100
AcDbArc
 50
90.0
 51
165.9637529999993
  0
ARC
  5
161
330
1B
100
AcDbEntity
  8
4
100
AcDbCircle
 10
251.4245454206768
 20
561.3771258887082
 30
0.0
 40
4.0000005
100
AcDbArc
 50
356.1428620000004
 51
106.6216760000004
  0
LINE
  5
162
330
1B
100
AcDbEntity
  8
4
100
AcDbLine
 10
298.3506669206768
 20
561.1080498887081
 30
0.0
 11
299.0426349206768
 21
550.844761888708
 31
0.0
  0
LINE
  5
163
330
1B
100
AcDbEntity
  8
4
100
AcDbLine
 10
287.3830839206769
 20
535.5960438887082
 30
0.0
 11
284.3830839206769
 21
535.5960438887082
 31
0.0
  0
ARC
  5
164
330
1B
100
AcDbEntity
  8
4
100
AcDbCircle
 10
284.3830839206769
 20
534.5960433887078
 30
0.0
 40
1.0000005
100
AcDbArc
 50
90.0
 51
180.0
  0
ARC
  5
165
330
1B
100
AcDbEntity
  8
4
100
AcDbCircle
 10
287.3830839206769
 20
534.5960433887078
 30
0.0
 40
1.0000005
100
AcDbArc
 50
0.0
 51
90.0
  0
ARC
  5
166
330
1B
100
AcDbEntity
  8
4
100
AcDbCircle
 10
273.6022974206769
 20
542.0960433887078
 30
0.0
 40
1.0000005
100
AcDbArc
 50
14.03624700000072
 51
90.0
  0
ARC
  5
167
330
1B
100
AcDbEntity
  8
4
100
AcDbCircle
 10
302.0320929206769
 20
551.0960433887078
 30
0.0
 40
3.0
100
AcDbArc
 50
184.8047659999997
 51
270.0
  0
LINE
  5
168
330
1B
100
AcDbEntity
  8
4
100
AcDbLine
 10
300.4492734206769
 20
543.0960438887082
 30
0.0
 11
303.8830839206769
 21
543.0960438887082
 31
0.0
  0
ARC
  5
169
330
1B
100
AcDbEntity
  8
4
100
AcDbCircle
 10
300.4492734206769
 20
542.0960433887078
 30
0.0
 40
1.0000005
100
AcDbArc
 50
90.0
 51
149.0362429999922
  0
ARC
  5
16A
330
1B
100
AcDbEntity
  8
4
100
AcDbCircle
 10
303.8830839206769
 20
542.0960433887078
 30
0.0
 40
1.0000005
100
AcDbArc
 50
0.0
 51
90.0
  0
ARC
  5
16B
330
1B
100
AcDbEntity
  8
4
100
AcDbCircle
 10
302.3416074206768
 20
561.3771258887082
 30
0.0
 40
4.0000005
100
AcDbArc
 50
73.37832399999955
 51
183.8571379999995
  0
LINE
  5
16C
330
1B
100
AcDbEntity
  8
4
100
AcDbLine
 10
241.3830699206769
 20
517.6806645371364
 30
0.0
 11
241.3830699206769
 21
546.0960438887082
 31
0.0
  0
LINE
  5
16D
330
1B
100
AcDbEntity
  8
4
100
AcDbLine
 10
247.3830669206768
 20
523.096041388708
 30
0.0
 11
259.3830669206768
 21
523.0960443887079
 31
0.0
  0
LINE
  5
16E
330
1B
100
AcDbEntity
  8
4
100
AcDbLine
 10
252.3830694206767
 20
528.0960438887082
 30
0.0
 11
259.3830669206768
 21
528.0960438887082
 31
0.0
  0
LINE
  5
16F
330
1B
100
AcDbEntity
  8
4
100
AcDbLine
 10
246.3830694206767
 20
524.0960463887081
 30
0.0
 11
246.3831054206769
 21
542.0960463887081
 31
0.0
  0
LINE
  5
170
330
1B
100
AcDbEntity
  8
4
100
AcDbLine
 10
251.3830674206768
 20
529.0960443887079
 30
0.0
 11
251.3831049206769
 21
542.0960403887082
 31
0.0
  0
ARC
  5
171
330
1B
100
AcDbEntity
  8
4
100
AcDbCircle
 10
247.3830699206769
 20
524.0960433887078
 30
0.0
 40
1.0000005
100
AcDbArc
 50
179.9998839998386
 51
269.9998839999994
  0
ARC
  5
172
330
1B
100
AcDbEntity
  8
4
100
AcDbCircle
 10
252.3830694206767
 20
529.0960443887079
 30
0.0
 40
1.0000005
100
AcDbArc
 50
180.0
 51
270.0
  0
ARC
  5
173
330
1B
100
AcDbEntity
  8
4
100
AcDbCircle
 10
271.8830739206769
 20
523.0960443887079
 30
0.0
 40
2.346
100
AcDbArc
 50
17.38940399999973
 51
162.6105960000003
  0
LINE
  5
174
330
1B
100
AcDbEntity
  8
4
100
AcDbLine
 10
269.1937074206769
 20
542.338579888708
 30
0.0
 11
264.6937059206768
 21
524.338579888708
 31
0.0
  0
LINE
  5
175
330
1B
100
AcDbEntity
  8
4
100
AcDbLine
 10
260.3830674206768
 20
524.0960433887078
 30
0.0
 11
260.3830674206768
 21
527.0960433887078
 31
0.0
  0
ARC
  5
176
330
1B
100
AcDbEntity
  8
4
100
AcDbCircle
 10
259.3830669206768
 20
527.0960433887078
 30
0.0
 40
1.0000005
100
AcDbArc
 50
0.0
 51
90.0
  0
ARC
  5
177
330
1B
100
AcDbEntity
  8
4
100
AcDbCircle
 10
259.3830669206768
 20
524.0960433887078
 30
0.0
 40
1.0000005
100
AcDbArc
 50
270.0
 51
0.0
  0
ARC
  5
178
330
1B
100
AcDbEntity
  8
4
100
AcDbCircle
 10
268.6899999206769
 20
524.0960433887078
 30
0.0
 40
1.0000005
100
AcDbArc
 50
270.0
 51
342.6105960000016
  0
ARC
  5
179
330
1B
100
AcDbEntity
  8
4
100
AcDbCircle
 10
265.6638489206769
 20
524.0960433887078
 30
0.0
 40
1.0000005
100
AcDbArc
 50
165.9637530000056
 51
270.0
  0
LINE
  5
17A
330
1B
100
AcDbEntity
  8
4
100
AcDbLine
 10
265.6638489206769
 20
523.0960443887079
 30
0.0
 11
268.6899999206769
 21
523.0960443887079
 31
0.0
  0
LINE
  5
17B
330
1B
100
AcDbEntity
  8
4
100
AcDbLine
 10
274.5724404206769
 20
542.338579888708
 30
0.0
 11
279.0724404206769
 21
524.338579888708
 31
0.0
  0
ARC
  5
17C
330
1B
100
AcDbEntity
  8
4
100
AcDbCircle
 10
278.1022989206767
 20
524.0960433887078
 30
0.0
 40
1.0000005
100
AcDbArc
 50
270.0
 51
14.03624699999442
  0
LINE
  5
17D
330
1B
100
AcDbEntity
  8
4
100
AcDbLine
 10
275.0761464206769
 20
523.0960443887079
 30
0.0
 11
278.1022989206767
 21
523.0960443887079
 31
0.0
  0
ARC
  5
17E
330
1B
100
AcDbEntity
  8
4
100
AcDbCircle
 10
275.0761464206769
 20
524.0960433887078
 30
0.0
 40
1.0000005
100
AcDbArc
 50
197.3894039999984
 51
270.0
  0
LINE
  5
17F
330
1B
100
AcDbEntity
  8
4
100
AcDbLine
 10
287.3830839206769
 20
530.5960443887079
 30
0.0
 11
284.3830839206769
 21
530.5960443887079
 31
0.0
  0
ARC
  5
180
330
1B
100
AcDbEntity
  8
4
100
AcDbCircle
 10
287.3830839206769
 20
531.5960433887078
 30
0.0
 40
1.0000005
100
AcDbArc
 50
270.0
 51
0.0
  0
ARC
  5
181
330
1B
100
AcDbEntity
  8
4
100
AcDbCircle
 10
284.3830839206769
 20
531.5960433887078
 30
0.0
 40
1.0000005
100
AcDbArc
 50
180.0
 51
270.0
  0
LINE
  5
182
330
1B
100
AcDbEntity
  8
4
100
AcDbLine
 10
288.3830829206768
 20
531.5960433887078
 30
0.0
 11
288.3830829206768
 21
534.5960433887078
 31
0.0
  0
LINE
  5
183
330
1B
100
AcDbEntity
  8
4
100
AcDbLine
 10
283.3830834206769
 20
531.5960433887078
 30
0.0
 11
283.3830834206769
 21
534.5960433887078
 31
0.0
  0
LINE
  5
184
330
1B
100
AcDbEntity
  8
4
100
AcDbLine
 10
292.5255909206767
 20
530.8335558887081
 30
0.0
 11
299.591780420677
 21
542.6105403887079
 31
0.0
  0
LINE
  5
185
330
1B
100
AcDbEntity
  8
4
100
AcDbLine
 10
304.8830829206768
 20
531.5960433887078
 30
0.0
 11
304.8830829206768
 21
542.0960433887078
 31
0.0
  0
LINE
  5
186
330
1B
100
AcDbEntity
  8
4
100
AcDbLine
 10
300.8830839206769
 20
523.0960443887079
 30
0.0
 11
303.8830839206769
 21
523.0960443887079
 31
0.0
  0
ARC
  5
187
330
1B
100
AcDbEntity
  8
4
100
AcDbCircle
 10
293.3830839206769
 20
526.5960438887082
 30
0.0
 40
1.0000005
100
AcDbArc
 50
180.0
 51
270.0
  0
LINE
  5
188
330
1B
100
AcDbEntity
  8
4
100
AcDbLine
 10
292.3830834206769
 20
530.3190603887078
 30
0.0
 11
292.3830834206769
 21
526.5960438887082
 31
0.0
  0
ARC
  5
189
330
1B
100
AcDbEntity
  8
4
100
AcDbCircle
 10
293.3830839206769
 20
530.3190603887078
 30
0.0
 40
1.0000005
100
AcDbArc
 50
149.0362430000045
 51
180.0
  0
LINE
  5
18A
330
1B
100
AcDbEntity
  8
4
100
AcDbLine
 10
299.8830834206769
 20
524.5960443887079
 30
0.0
 11
299.8830834206769
 21
524.0960433887078
 31
0.0
  0
LINE
  5
18B
330
1B
100
AcDbEntity
  8
4
100
AcDbLine
 10
293.3830839206769
 20
525.5960433887078
 30
0.0
 11
298.8830829206768
 21
525.5960433887078
 31
0.0
  0
ARC
  5
18C
330
1B
100
AcDbEntity
  8
4
100
AcDbCircle
 10
298.8830829206768
 20
524.5960443887079
 30
0.0
 40
1.0000005
100
AcDbArc
 50
0.0
 51
90.0
  0
ARC
  5
18D
330
1B
100
AcDbEntity
  8
4
100
AcDbCircle
 10
300.8830839206769
 20
524.0960433887078
 30
0.0
 40
1.0000005
100
AcDbArc
 50
180.0
 51
270.0
  0
LINE
  5
18E
330
1B
100
AcDbEntity
  8
4
100
AcDbLine
 10
307.3830834206769
 20
529.5960438887082
 30
0.0
 11
307.3830834206769
 21
526.5960438887082
 31
0.0
  0
LINE
  5
18F
330
1B
100
AcDbEntity
  8
4
100
AcDbLine
 10
305.8830834206769
 20
530.5960443887079
 30
0.0
 11
306.3830829206768
 21
530.5960443887079
 31
0.0
  0
LINE
  5
190
330
1B
100
AcDbEntity
  8
4
100
AcDbLine
 10
305.8830834206769
 20
525.5960433887078
 30
0.0
 11
306.3830829206768
 21
525.5960433887078
 31
0.0
  0
LINE
  5
191
330
1B
100
AcDbEntity
  8
4
100
AcDbLine
 10
304.8830829206768
 20
524.0960433887078
 30
0.0
 11
304.8830829206768
 21
524.5960443887079
 31
0.0
  0
ARC
  5
192
330
1B
100
AcDbEntity
  8
4
100
AcDbCircle
 10
303.8830839206769
 20
524.0960433887078
 30
0.0
 40
1.0000005
100
AcDbArc
 50
270.0
 51
0.0
  0
ARC
  5
193
330
1B
100
AcDbEntity
  8
4
100
AcDbCircle
 10
305.8830834206769
 20
524.5960443887079
 30
0.0
 40
1.0000005
100
AcDbArc
 50
90.0
 51
180.0
  0
ARC
  5
194
330
1B
100
AcDbEntity
  8
4
100
AcDbCircle
 10
306.3830829206768
 20
526.5960438887082
 30
0.0
 40
1.0000005
100
AcDbArc
 50
270.0
 51
0.0
  0
ARC
  5
195
330
1B
100
AcDbEntity
  8
4
100
AcDbCircle
 10
306.3830829206768
 20
529.5960438887082
 30
0.0
 40
1.0000005
100
AcDbArc
 50
0.0
 51
90.0
  0
ARC
  5
196
330
1B
100
AcDbEntity
  8
4
100
AcDbCircle
 10
305.8830834206769
 20
531.5960433887078
 30
0.0
 40
1.0000005
100
AcDbArc
 50
180.0
 51
270.0
  0
LINE
  5
197
330
1B
100
AcDbEntity
  8
4
100
AcDbLine
 10
312.3830829206768
 20
546.0960438887082
 30
0.0
 11
312.3830829206768
 21
517.680859934982
 31
0.0
  0
ARC
  5
198
330
1B
100
AcDbEntity
  8
4
100
AcDbCircle
 10
239.3830699206769
 20
517.6806645371364
 30
0.0
 40
2.0
100
AcDbArc
 50
286.2281751425022
 51
0.0
  0
ARC
  5
199
330
1B
100
AcDbEntity
  8
4
100
AcDbCircle
 10
314.3830829206768
 20
517.680859934982
 30
0.0
 40
2.0
100
AcDbArc
 50
180.0
 51
253.7768619521854
  0
LINE
  5
19A
330
1B
100
AcDbEntity
  8
4
100
AcDbLine
 10
705.9037459348854
 20
518.0960433887078
 30
0.0
 11
705.9037459348854
 21
547.0960443887079
 31
0.0
  0
LINE
  5
19B
330
1B
100
AcDbEntity
  8
4
100
AcDbLine
 10
706.903744934885
 20
548.0960433887078
 30
0.0
 11
715.1829867148292
 21
548.0960433887078
 31
0.0
  0
ARC
  5
19C
330
1B
100
AcDbEntity
  8
4
100
AcDbCircle
 10
706.903744934885
 20
547.0960443887079
 30
0.0
 40
1.0000005
100
AcDbArc
 50
90.0
 51
180.0
  0
ARC
  5
19D
330
1B
100
AcDbEntity
  8
4
100
AcDbCircle
 10
715.1829867148292
 20
549.0960433887078
 30
0.0
 40
1.0
100
AcDbArc
 50
270.0
 51
341.5650511770801
  0
TEXT
  5
19E
330
1B
100
AcDbEntity
  8
3
100
AcDbText
 10
894.4375035919261
 20
239.798189596823
 30
0.0
 40
7.5
  1
LA4-00
  7
KANJI
 72
     1
 11
914.4375035919261
 21
239.798189596823
 31
0.0
100
AcDbText
  0
LINE
  5
1A0
330
1B
100
AcDbEntity
  8
4
100
AcDbLine
 10
171.8830764206768
 20
912.3258599769905
 30
0.0
 11
381.8830764206768
 21
912.3258599769904
 31
0.0
  0
LINE
  5
1A1
330
1B
100
AcDbEntity
  8
4
100
AcDbLine
 10
169.8830764206768
 20
907.3258604769904
 30
0.0
 11
383.8830764206768
 21
907.3258604769903
 31
0.0
  0
LINE
  5
1A2
330
1B
100
AcDbEntity
  8
4
100
AcDbLine
 10
236.8830764206768
 20
787.3258604769901
 30
0.0
 11
316.8830764206768
 21
787.3258604769901
 31
0.0
  0
LINE
  5
1A3
330
1B
100
AcDbEntity
  8
4
100
AcDbLine
 10
234.8830764206768
 20
797.3258594769904
 30
0.0
 11
318.8830764206768
 21
797.3258594769904
 31
0.0
  0
LINE
  5
1A4
330
1B
100
AcDbEntity
  8
4
100
AcDbLine
 10
171.8830764206768
 20
813.3258599769905
 30
0.0
 11
381.8830764206768
 21
813.3258599769903
 31
0.0
  0
LINE
  5
1A5
330
1B
100
AcDbEntity
  8
4
100
AcDbLine
 10
169.8830764206768
 20
821.3258594769906
 30
0.0
 11
383.8830764206768
 21
821.3258594769904
 31
0.0
  0
LINE
  5
1A6
330
1B
100
AcDbEntity
  8
L-CENTER
 48
2.5
100
AcDbLine
 10
162.0303372689891
 20
864.3258599769904
 30
0.0
 11
460.1342720262271
 21
864.3258599769904
 31
0.0
  0
LINE
  5
1A7
330
1B
100
AcDbEntity
  8
L-CENTER
 48
2.5
100
AcDbLine
 10
194.0937009206768
 20
804.3258599769904
 30
0.0
 11
219.8891424206768
 21
804.3258599769904
 31
0.0
  0
LINE
  5
1A8
330
1B
100
AcDbEntity
  8
4
100
AcDbLine
 10
175.883076920677
 20
946.8258599769904
 30
0.0
 11
236.8830759206767
 21
946.8258599769904
 31
0.0
  0
LINE
  5
1A9
330
1B
100
AcDbEntity
  8
4
100
AcDbLine
 10
175.883076920677
 20
781.8258599769904
 30
0.0
 11
236.8830759206767
 21
781.8258599769904
 31
0.0
  0
LINE
  5
1AA
330
1B
100
AcDbEntity
  8
4
100
AcDbLine
 10
171.8830764206768
 20
785.8258604769903
 30
0.0
 11
171.8830764206768
 21
821.3258594769904
 31
0.0
  0
LINE
  5
1AB
330
1B
100
AcDbEntity
  8
4
100
AcDbLine
 10
166.3830759206767
 20
822.3258599769904
 30
0.0
 11
166.3830759206767
 21
906.3258599769904
 31
0.0
  0
LINE
  5
1AC
330
1B
100
AcDbEntity
  8
4
100
AcDbLine
 10
166.3830759206767
 20
822.3258599769904
 30
0.0
 11
169.8830764206768
 21
822.3258599769903
 31
0.0
  0
ARC
  5
1AD
330
1B
100
AcDbEntity
  8
4
100
AcDbCircle
 10
175.883076920677
 20
785.8258604769903
 30
0.0
 40
4.0000005
100
AcDbArc
 50
180.0
 51
270.0
  0
LINE
  5
1AE
330
1B
100
AcDbEntity
  8
4
100
AcDbLine
 10
166.3830759206767
 20
906.3258599769904
 30
0.0
 11
169.8830764206768
 21
906.3258599769903
 31
0.0
  0
ARC
  5
1AF
330
1B
100
AcDbEntity
  8
4
100
AcDbCircle
 10
175.883076920677
 20
942.8258594769904
 30
0.0
 40
4.0000005
100
AcDbArc
 50
90.0
 51
180.0
  0
LINE
  5
1B0
330
1B
100
AcDbEntity
  8
4
100
AcDbLine
 10
239.8830759206767
 20
784.8258599769904
 30
0.0
 11
239.8830759206767
 21
787.3258604769901
 31
0.0
  0
LINE
  5
1B1
330
1B
100
AcDbEntity
  8
L-CENTER
 48
2.5
100
AcDbLine
 10
276.8830764206768
 20
781.8552789813065
 30
0.0
 11
276.8830764206768
 21
1024.661706795302
 31
0.0
  0
LINE
  5
1B2
330
1B
100
AcDbEntity
  8
L-CENTER
 48
2.5
100
AcDbLine
 10
206.8830759206767
 20
791.3323754769904
 30
0.0
 11
206.8830759206767
 21
817.1275874769904
 31
0.0
  0
ARC
  5
1B3
330
1B
100
AcDbEntity
  8
4
100
AcDbCircle
 10
206.8830759206767
 20
804.3258599769904
 30
0.0
 40
7.5
100
AcDbArc
 50
149.4615420545442
 51
355.7025153382688
  0
ARC
  5
1B4
330
1B
100
AcDbEntity
  8
4
100
AcDbCircle
 10
236.8830759206767
 20
784.8258599769904
 30
0.0
 40
3.0
100
AcDbArc
 50
270.0
 51
0.0
  0
ARC
  5
1B5
330
1B
100
AcDbEntity
  8
4
100
AcDbCircle
 10
236.8830759206767
 20
943.8258599769904
 30
0.0
 40
3.0
100
AcDbArc
 50
7.6622556607744
 51
90.0
  0
LINE
  5
1B6
330
1B
100
AcDbEntity
  8
4
100
AcDbLine
 10
381.8830764206768
 20
785.8258604769903
 30
0.0
 11
381.8830764206768
 21
821.3258594769904
 31
0.0
  0
LINE
  5
1B7
330
1B
100
AcDbEntity
  8
4
100
AcDbLine
 10
387.383076920677
 20
822.3258599769904
 30
0.0
 11
387.383076920677
 21
906.3258599769904
 31
0.0
  0
LINE
  5
1B8
330
1B
100
AcDbEntity
  8
4
100
AcDbLine
 10
313.883076920677
 20
784.8258599769904
 30
0.0
 11
313.883076920677
 21
787.3258604769901
 31
0.0
  0
LINE
  5
1B9
330
1B
100
AcDbEntity
  8
4
100
AcDbLine
 10
316.883076920677
 20
781.8258599769904
 30
0.0
 11
377.8830759206767
 21
781.8258599769904
 31
0.0
  0
LINE
  5
1BA
330
1B
100
AcDbEntity
  8
L-CENTER
 48
2.5
100
AcDbLine
 10
333.995960420677
 20
804.3258599769904
 30
0.0
 11
359.7913554206771
 21
804.3258599769904
 31
0.0
  0
ARC
  5
1BB
330
1B
100
AcDbEntity
  8
4
100
AcDbCircle
 10
346.883076920677
 20
804.3258599769904
 30
0.0
 40
7.5
100
AcDbArc
 50
184.2974846617311
 51
30.53845794545576
  0
ARC
  5
1BC
330
1B
100
AcDbEntity
  8
4
100
AcDbCircle
 10
316.883076920677
 20
784.8258599769904
 30
0.0
 40
3.0
100
AcDbArc
 50
180.0
 51
270.0
  0
LINE
  5
1BD
330
1B
100
AcDbEntity
  8
L-CENTER
 48
2.5
100
AcDbLine
 10
346.883076920677
 20
791.9392784769905
 30
0.0
 11
346.883076920677
 21
817.1275874769904
 31
0.0
  0
LINE
  5
1BE
330
1B
100
AcDbEntity
  8
4
100
AcDbLine
 10
387.383076920677
 20
822.3258599769904
 30
0.0
 11
383.8830764206768
 21
822.3258599769903
 31
0.0
  0
ARC
  5
1BF
330
1B
100
AcDbEntity
  8
4
100
AcDbCircle
 10
377.8830759206767
 20
785.8258604769903
 30
0.0
 40
4.0000005
100
AcDbArc
 50
270.0
 51
0.0
  0
LINE
  5
1C0
330
1B
100
AcDbEntity
  8
4
100
AcDbLine
 10
316.883076920677
 20
946.8258599769904
 30
0.0
 11
377.8830759206767
 21
946.8258599769904
 31
0.0
  0
LINE
  5
1C1
330
1B
100
AcDbEntity
  8
L-CENTER
 48
2.5
100
AcDbLine
 10
346.883076920677
 20
911.5079969769904
 30
0.0
 11
346.883076920677
 21
936.3928529769904
 31
0.0
  0
ARC
  5
1C2
330
1B
100
AcDbEntity
  8
4
100
AcDbCircle
 10
346.883076920677
 20
924.3258599769904
 30
0.0
 40
7.5
100
AcDbArc
 50
12.32085769900282
 51
137.0424707140866
  0
LINE
  5
1C3
330
1B
100
AcDbEntity
  8
L-CENTER
 48
2.5
100
AcDbLine
 10
334.9063149206768
 20
924.3258599769904
 30
0.0
 11
360.094806920677
 21
924.3258599769904
 31
0.0
  0
ARC
  5
1C4
330
1B
100
AcDbEntity
  8
4
100
AcDbCircle
 10
316.883076920677
 20
943.8258599769904
 30
0.0
 40
3.0
100
AcDbArc
 50
90.0
 51
172.3377443392256
  0
LINE
  5
1C5
330
1B
100
AcDbEntity
  8
4
100
AcDbLine
 10
387.383076920677
 20
906.3258599769904
 30
0.0
 11
383.8830764206768
 21
906.3258599769903
 31
0.0
  0
ARC
  5
1C6
330
1B
100
AcDbEntity
  8
4
100
AcDbCircle
 10
377.8830759206767
 20
942.8258594769904
 30
0.0
 40
4.0000005
100
AcDbArc
 50
0.0
 51
90.0
  0
LINE
  5
1C7
330
1B
100
AcDbEntity
  8
4
100
AcDbLine
 10
169.8830764206768
 20
821.3258594769906
 30
0.0
 11
169.8830764206768
 21
907.3258604769904
 31
0.0
  0
LINE
  5
1C8
330
1B
100
AcDbEntity
  8
4
100
AcDbLine
 10
383.8830764206768
 20
821.3258594769904
 30
0.0
 11
383.8830764206768
 21
907.3258604769903
 31
0.0
  0
LINE
  5
1C9
330
1B
100
AcDbEntity
  8
4
100
AcDbLine
 10
171.8830764206768
 20
907.3258604769906
 30
0.0
 11
171.8830764206768
 21
942.8258594769904
 31
0.0
  0
LINE
  5
1CA
330
1B
100
AcDbEntity
  8
4
100
AcDbLine
 10
381.8830764206768
 20
907.3258604769903
 30
0.0
 11
381.8830764206768
 21
942.8258594769904
 31
0.0
  0
LINE
  5
1CB
330
1B
100
AcDbEntity
  8
4
100
AcDbLine
 10
381.8830764206768
 20
813.3258599769903
 30
0.0
 11
381.8830764206768
 21
821.3258594769904
 31
0.0
  0
LINE
  5
1CC
330
1B
100
AcDbEntity
  8
4
100
AcDbLine
 10
171.8830764206768
 20
813.3258599769905
 30
0.0
 11
171.8830764206768
 21
821.3258594769906
 31
0.0
  0
LINE
  5
1CD
330
1B
100
AcDbEntity
  8
4
100
AcDbLine
 10
171.8830764206768
 20
907.3258604769907
 30
0.0
 11
171.8830764206768
 21
912.3258599769905
 31
0.0
  0
LINE
  5
1CE
330
1B
100
AcDbEntity
  8
4
100
AcDbLine
 10
381.8830764206768
 20
907.3258604769903
 30
0.0
 11
381.8830764206768
 21
912.3258599769904
 31
0.0
  0
LINE
  5
1CF
330
1B
100
AcDbEntity
  8
4
100
AcDbLine
 10
234.8830764206768
 20
797.3258594769904
 30
0.0
 11
236.8830764206768
 21
787.3258604769902
 31
0.0
  0
LINE
  5
1D0
330
1B
100
AcDbEntity
  8
4
100
AcDbLine
 10
234.8830764206768
 20
797.3258594769904
 30
0.0
 11
183.8830764206768
 21
813.3258599769905
 31
0.0
  0
LINE
  5
1D1
330
1B
100
AcDbEntity
  8
4
100
AcDbLine
 10
318.8830764206768
 20
797.3258594769904
 30
0.0
 11
316.8830764206768
 21
787.3258604769902
 31
0.0
  0
LINE
  5
1D2
330
1B
100
AcDbEntity
  8
4
100
AcDbLine
 10
318.8830764206768
 20
797.3258594769904
 30
0.0
 11
369.8830764206768
 21
813.3258599769905
 31
0.0
  0
CIRCLE
  5
1D3
330
1B
100
AcDbEntity
  8
4
100
AcDbCircle
 10
276.8830764206768
 20
864.3258599769904
 30
0.0
 40
19.0
  0
LINE
  5
1D4
330
1B
100
AcDbEntity
  8
4
100
AcDbLine
 10
165.3830759206767
 20
895.3258599769903
 30
0.0
 11
166.3830759206767
 21
895.32585997699
 31
0.0
  0
LINE
  5
1D5
330
1B
100
AcDbEntity
  8
4
100
AcDbLine
 10
165.3830759206767
 20
833.3258599769904
 30
0.0
 11
166.3830759206767
 21
833.3258599769903
 31
0.0
  0
LINE
  5
1D6
330
1B
100
AcDbEntity
  8
4
100
AcDbLine
 10
165.3830759206767
 20
833.3258599769904
 30
0.0
 11
165.3830759206767
 21
895.3258599769905
 31
0.0
  0
LINE
  5
1D7
330
1B
100
AcDbEntity
  8
4
100
AcDbLine
 10
388.383076920677
 20
833.3258599769904
 30
0.0
 11
388.383076920677
 21
895.3258599769905
 31
0.0
  0
LINE
  5
1D8
330
1B
100
AcDbEntity
  8
4
100
AcDbLine
 10
387.383076920677
 20
895.3258599769902
 30
0.0
 11
388.383076920677
 21
895.3258599769903
 31
0.0
  0
LINE
  5
1D9
330
1B
100
AcDbEntity
  8
4
100
AcDbLine
 10
387.383076920677
 20
833.3258599769903
 30
0.0
 11
388.383076920677
 21
833.3258599769903
 31
0.0
  0
CIRCLE
  5
1DA
330
1B
100
AcDbEntity
  8
4
100
AcDbCircle
 10
276.8830764206768
 20
864.3258599769904
 30
0.0
 40
12.5
  0
LWPOLYLINE
  5
1DB
330
1B
100
AcDbEntity
  8
4
100
AcDbPolyline
 90
        6
 70
     1
 43
0.0
 10
289.3830764206768
 20
864.3258599769904
 10
283.1330764206768
 20
875.1511775242959
 10
270.6330764206768
 20
875.1511775242959
 10
264.3830764206768
 20
864.3258599769904
 10
270.6330764206768
 20
853.5005424296849
 10
283.1330764206768
 20
853.5005424296849
  0
LINE
  5
1DC
330
1B
100
AcDbEntity
  8
4
100
AcDbLine
 10
407.8830764206768
 20
876.8258599769904
 30
0.0
 11
455.8830764206768
 21
876.8258599769904
 31
0.0
  0
LINE
  5
1DD
330
1B
100
AcDbEntity
  8
4
100
AcDbLine
 10
407.8830764206768
 20
851.8258599769904
 30
0.0
 11
455.8830764206768
 21
851.8258599769904
 31
0.0
  0
LINE
  5
1DE
330
1B
100
AcDbEntity
  8
4
100
AcDbLine
 10
415.3830764206768
 20
867.8258599769904
 30
0.0
 11
456.8830764206768
 21
867.8258599769904
 31
0.0
  0
LINE
  5
1DF
330
1B
100
AcDbEntity
  8
4
100
AcDbLine
 10
415.3830764206768
 20
860.8258599769904
 30
0.0
 11
456.8830764206768
 21
860.8258599769904
 31
0.0
  0
LINE
  5
1E0
330
1B
100
AcDbEntity
  8
4
100
AcDbLine
 10
406.8830764206768
 20
879.3258599769904
 30
0.0
 11
406.8830764206768
 21
849.3258599769904
 31
0.0
  0
ARC
  5
1E1
330
1B
100
AcDbEntity
  8
4
100
AcDbCircle
 10
407.8830764206768
 20
850.8258599769904
 30
0.0
 40
1.0
100
AcDbArc
 50
90.0
 51
180.0
  0
ARC
  5
1E2
330
1B
100
AcDbEntity
  8
4
100
AcDbCircle
 10
407.8830764206768
 20
877.8258599769904
 30
0.0
 40
1.0
100
AcDbArc
 50
180.0
 51
270.0
  0
ARC
  5
1E3
330
1B
100
AcDbEntity
  8
4
100
AcDbCircle
 10
415.3830764206768
 20
864.3258599769904
 30
0.0
 40
3.5
100
AcDbArc
 50
90.0
 51
270.0
  0
LINE
  5
1E4
330
1B
100
AcDbEntity
  8
4
100
AcDbLine
 10
455.8830764206768
 20
860.8258599769904
 30
0.0
 11
455.8830764206768
 21
851.8258599769904
 31
0.0
  0
LINE
  5
1E5
330
1B
100
AcDbEntity
  8
4
100
AcDbLine
 10
456.8830764206768
 20
875.8258599769904
 30
0.0
 11
456.8830764206768
 21
852.8258599769904
 31
0.0
  0
LINE
  5
1E6
330
1B
100
AcDbEntity
  8
4
100
AcDbLine
 10
455.8830764206768
 20
851.8258599769904
 30
0.0
 11
456.8830764206768
 21
852.8258599769904
 31
0.0
  0
LINE
  5
1E7
330
1B
100
AcDbEntity
  8
4
100
AcDbLine
 10
455.8830764206768
 20
876.8258599769904
 30
0.0
 11
456.8830764206768
 21
875.8258599769904
 31
0.0
  0
LINE
  5
1E8
330
1B
100
AcDbEntity
  8
4
100
AcDbLine
 10
455.8830764206768
 20
876.8258599769904
 30
0.0
 11
455.8830764206768
 21
867.8258599769904
 31
0.0
  0
LINE
  5
1E9
330
1B
100
AcDbEntity
  8
4
100
AcDbLine
 10
388.383076920677
 20
879.3258599769904
 30
0.0
 11
406.8830764206768
 21
879.3258599769904
 31
0.0
  0
LINE
  5
1EA
330
1B
100
AcDbEntity
  8
4
100
AcDbLine
 10
388.383076920677
 20
849.3258599769905
 30
0.0
 11
406.8830764206768
 21
849.3258599769904
 31
0.0
  0
LINE
  5
1EB
330
1B
100
AcDbEntity
  8
4
100
AcDbLine
 10
381.8830764206768
 20
912.6258599769905
 30
0.0
 11
171.8830764206768
 21
912.6258599769905
 31
0.0
  0
LINE
  5
1EC
330
1B
100
AcDbEntity
  8
4
100
AcDbLine
 10
172.8830764206768
 20
923.6258599769905
 30
0.0
 11
380.8830764206768
 21
923.6258599769905
 31
0.0
  0
ARC
  5
1ED
330
1B
100
AcDbEntity
  8
4
100
AcDbCircle
 10
172.8830764206768
 20
922.6258599769905
 30
0.0
 40
1.0
100
AcDbArc
 50
90.0
 51
180.0
  0
LINE
  5
1EE
330
1B
100
AcDbEntity
  8
4
100
AcDbLine
 10
171.8830764206768
 20
922.6258599769905
 30
0.0
 11
171.8830764206768
 21
912.6258599769905
 31
0.0
  0
LINE
  5
1EF
330
1B
100
AcDbEntity
  8
4
100
AcDbLine
 10
251.8830764206768
 20
945.2258599769908
 30
0.0
 11
301.8830764206768
 21
945.2258599769906
 31
0.0
  0
LINE
  5
1F0
330
1B
100
AcDbEntity
  8
4
100
AcDbLine
 10
235.646872261676
 20
944.2258599769908
 30
0.0
 11
318.1192805796777
 21
944.2258599769908
 31
0.0
  0
LINE
  5
1F1
330
1B
100
AcDbEntity
  8
4
100
AcDbLine
 10
235.646872261676
 20
933.2258599769908
 30
0.0
 11
318.1192805796777
 21
933.2258599769908
 31
0.0
  0
LINE
  5
1F2
330
1B
100
AcDbEntity
  8
4
100
AcDbLine
 10
234.6821084404382
 20
943.488977382783
 30
0.0
 11
232.4916412572093
 21
935.4572643776099
 31
0.0
  0
LINE
  5
1F3
330
1B
100
AcDbEntity
  8
4
100
AcDbLine
 10
198.8830764206768
 20
932.725859976991
 30
0.0
 11
224.3797695808908
 21
932.725859976991
 31
0.0
  0
LINE
  5
1F4
330
1B
100
AcDbEntity
  8
4
100
AcDbLine
 10
191.157547358667
 20
923.6258599769905
 30
0.0
 11
231.7910591500527
 21
934.7559088589791
 31
0.0
  0
ARC
  5
1F5
330
1B
100
AcDbEntity
  8
4
100
AcDbCircle
 10
196.8830764206768
 20
926.2309928096473
 30
0.0
 40
1.0
100
AcDbArc
 50
285.3183357934568
 51
0.0
  0
LINE
  5
1F6
330
1B
100
AcDbEntity
  8
4
100
AcDbLine
 10
197.8830764206768
 20
931.725859976991
 30
0.0
 11
197.8830764206768
 21
926.2309928096473
 31
0.0
  0
ARC
  5
1F7
330
1B
100
AcDbEntity
  8
4
100
AcDbCircle
 10
198.8830764206768
 20
931.725859976991
 30
0.0
 40
1.0
100
AcDbArc
 50
90.0
 51
180.0
  0
LINE
  5
1F8
330
1B
100
AcDbEntity
  8
4
100
AcDbLine
 10
232.1833970440025
 20
934.3270355958517
 30
0.0
 11
232.4514394045354
 21
935.3098575844721
 31
0.0
  0
ARC
  5
1F9
330
1B
100
AcDbEntity
  8
4
100
AcDbCircle
 10
231.5268774359715
 20
935.7203817834021
 30
0.0
 40
1.0
100
AcDbArc
 50
285.3183357934568
 51
344.7448812969451
  0
ARC
  5
1FA
330
1B
100
AcDbEntity
  8
4
100
AcDbCircle
 10
235.646872261676
 20
943.2258599769908
 30
0.0
 40
1.0
100
AcDbArc
 50
90.0
 51
164.7448812969451
  0
LINE
  5
1FB
330
1B
100
AcDbEntity
  8
4
100
AcDbLine
 10
251.8830764206768
 20
945.2258599769908
 30
0.0
 11
251.8830764206768
 21
944.225859976991
 31
0.0
  0
LINE
  5
1FC
330
1B
100
AcDbEntity
  8
4
100
AcDbLine
 10
254.9306954682961
 20
923.6258599769905
 30
0.0
 11
251.8830764206768
 21
933.2258599769908
 31
0.0
  0
LINE
  5
1FD
330
1B
100
AcDbEntity
  8
4
100
AcDbLine
 10
321.4246718958073
 20
934.9066765681795
 30
0.0
 11
362.6086054826872
 21
923.6258599769902
 31
0.0
  0
LINE
  5
1FE
330
1B
100
AcDbEntity
  8
4
100
AcDbLine
 10
319.0840444009154
 20
943.4889773827828
 30
0.0
 11
321.5827557973512
 21
934.3270355958517
 31
0.0
  0
ARC
  5
1FF
330
1B
100
AcDbEntity
  8
4
100
AcDbCircle
 10
318.1192805796777
 20
943.2258599769908
 30
0.0
 40
1.0
100
AcDbArc
 50
15.25511870305491
 51
90.0
  0
LINE
  5
200
330
1B
100
AcDbEntity
  8
4
100
AcDbLine
 10
301.8830764206768
 20
945.2258599769906
 30
0.0
 11
301.8830764206766
 21
944.225859976991
 31
0.0
  0
LINE
  5
201
330
1B
100
AcDbEntity
  8
4
100
AcDbLine
 10
298.8354573730576
 20
923.6258599769905
 30
0.0
 11
301.8830764206768
 21
933.2258599769908
 31
0.0
  0
ARC
  5
202
330
1B
100
AcDbEntity
  8
4
100
AcDbCircle
 10
380.8830764206768
 20
922.6258599769905
 30
0.0
 40
1.0
100
AcDbArc
 50
0.0
 51
90.0
  0
LINE
  5
203
330
1B
100
AcDbEntity
  8
4
100
AcDbLine
 10
381.8830764206768
 20
922.6258599769905
 30
0.0
 11
381.8830764206768
 21
912.6258599769905
 31
0.0
  0
LINE
  5
204
330
1B
100
AcDbEntity
  8
L-CENTER
 48
2.5
100
AcDbLine
 10
218.8598379206769
 20
924.3258599769904
 30
0.0
 11
193.6713459206767
 21
924.3258599769904
 31
0.0
  0
LINE
  5
205
330
1B
100
AcDbEntity
  8
L-CENTER
 48
2.5
100
AcDbLine
 10
206.8830759206767
 20
911.5079969769904
 30
0.0
 11
206.8830759206767
 21
936.3928529769904
 31
0.0
  0
LINE
  5
206
330
1B
100
AcDbEntity
  8
4
100
AcDbLine
 10
271.8830764206768
 20
969.3258599769904
 30
0.0
 11
271.8830764206768
 21
1019.32585997699
 31
0.0
  0
LINE
  5
207
330
1B
100
AcDbEntity
  8
4
100
AcDbLine
 10
259.8830764206768
 20
959.8258599769904
 30
0.0
 11
259.8830764206768
 21
1018.32585997699
 31
0.0
  0
LINE
  5
208
330
1B
100
AcDbEntity
  8
4
100
AcDbLine
 10
281.8830764206768
 20
969.3258599769904
 30
0.0
 11
281.8830764206768
 21
1019.32585997699
 31
0.0
  0
LINE
  5
209
330
1B
100
AcDbEntity
  8
4
100
AcDbLine
 10
293.8830764206768
 20
959.8258599769904
 30
0.0
 11
293.8830764206768
 21
1018.32585997699
 31
0.0
  0
ARC
  5
20A
330
1B
100
AcDbEntity
  8
4
100
AcDbCircle
 10
276.8830764206768
 20
969.3258599769904
 30
0.0
 40
5.0
100
AcDbArc
 50
180.0
 51
0.0
  0
LINE
  5
20B
330
1B
100
AcDbEntity
  8
4
100
AcDbLine
 10
294.3830764206768
 20
959.3258599769904
 30
0.0
 11
259.3830764206768
 21
959.3258599769904
 31
0.0
  0
LINE
  5
20C
330
1B
100
AcDbEntity
  8
4
100
AcDbLine
 10
259.3830764206768
 20
945.2258599769908
 30
0.0
 11
259.3830764206768
 21
959.3258599769904
 31
0.0
  0
LINE
  5
20D
330
1B
100
AcDbEntity
  8
4
100
AcDbLine
 10
259.3830764206768
 20
959.3258599769904
 30
0.0
 11
259.3830764206768
 21
959.3258599769904
 31
0.0
  0
ARC
  5
20E
330
1B
100
AcDbEntity
  8
4
100
AcDbCircle
 10
259.3830764206768
 20
959.8258599769904
 30
0.0
 40
0.5
100
AcDbArc
 50
270.0
 51
0.0
  0
LINE
  5
20F
330
1B
100
AcDbEntity
  8
4
100
AcDbLine
 10
294.3830764206768
 20
945.2258599769906
 30
0.0
 11
294.3830764206768
 21
959.3258599769904
 31
0.0
  0
LINE
  5
210
330
1B
100
AcDbEntity
  8
4
100
AcDbLine
 10
294.3830764206768
 20
959.3258599769904
 30
0.0
 11
294.3830764206768
 21
959.3258599769904
 31
0.0
  0
ARC
  5
211
330
1B
100
AcDbEntity
  8
4
100
AcDbCircle
 10
294.3830764206768
 20
959.8258599769904
 30
0.0
 40
0.5
100
AcDbArc
 50
180.0
 51
270.0
  0
LINE
  5
212
330
1B
100
AcDbEntity
  8
4
100
AcDbLine
 10
260.8830764206768
 20
1019.32585997699
 30
0.0
 11
292.8830764206768
 21
1019.32585997699
 31
0.0
  0
LINE
  5
213
330
1B
100
AcDbEntity
  8
4
100
AcDbLine
 10
259.8830764206768
 20
1018.32585997699
 30
0.0
 11
271.8830764206768
 21
1018.32585997699
 31
0.0
  0
LINE
  5
214
330
1B
100
AcDbEntity
  8
4
100
AcDbLine
 10
259.8830764206768
 20
1018.32585997699
 30
0.0
 11
260.8830764206768
 21
1019.32585997699
 31
0.0
  0
LINE
  5
215
330
1B
100
AcDbEntity
  8
4
100
AcDbLine
 10
293.8830764206768
 20
1018.32585997699
 30
0.0
 11
292.8830764206768
 21
1019.32585997699
 31
0.0
  0
LINE
  5
216
330
1B
100
AcDbEntity
  8
4
100
AcDbLine
 10
281.8830764206768
 20
1018.32585997699
 30
0.0
 11
293.8830764206768
 21
1018.32585997699
 31
0.0
  0
LINE
  5
217
330
1B
100
AcDbEntity
  8
L-CENTER
 48
2.5
100
AcDbLine
 10
177.8830764206771
 20
935.4388474769904
 30
0.0
 11
177.8830764206771
 21
901.5989074769903
 31
0.0
  0
LINE
  5
218
330
1B
100
AcDbEntity
  8
L-CENTER
 48
2.5
100
AcDbLine
 10
227.3830764206773
 20
935.4388474769904
 30
0.0
 11
227.3830764206773
 21
901.5989074769903
 31
0.0
  0
LINE
  5
219
330
1B
100
AcDbEntity
  8
L-CENTER
 48
2.5
100
AcDbLine
 10
375.8830764206766
 20
935.4388474769904
 30
0.0
 11
375.8830764206766
 21
901.5989074769903
 31
0.0
  0
LINE
  5
21A
330
1B
100
AcDbEntity
  8
L-CENTER
 48
2.5
100
AcDbLine
 10
326.3830764206762
 20
935.4388474769904
 30
0.0
 11
326.3830764206762
 21
901.5989074769903
 31
0.0
  0
LINE
  5
21B
330
1B
100
AcDbEntity
  8
4
 48
2.5
100
AcDbLine
 10
241.3830764206768
 20
797.3258594769906
 30
0.0
 11
241.3830764206768
 21
805.8258594769904
 31
0.0
  0
LINE
  5
21C
330
1B
100
AcDbEntity
  8
4
 48
2.5
100
AcDbLine
 10
312.3830764206768
 20
797.3258594769904
 30
0.0
 11
312.3830764206768
 21
805.8258594769904
 31
0.0
  0
LINE
  5
21D
330
1B
100
AcDbEntity
  8
4
100
AcDbLine
 10
243.123213018617
 20
805.8258594769904
 30
0.0
 11
310.9236747006369
 21
805.8258594769906
 31
0.0
  0
LINE
  5
21E
330
1B
100
AcDbEntity
  8
4
100
AcDbLine
 10
254.5380764206768
 20
805.8258594769904
 30
0.0
 11
255.791076420677
 21
813.3258599769904
 31
0.0
  0
LINE
  5
21F
330
1B
100
AcDbEntity
  8
4
100
AcDbLine
 10
299.2280764206769
 20
805.8258594769904
 30
0.0
 11
297.9750764206767
 21
813.3258599769904
 31
0.0
  0
LINE
  5
220
330
1B
100
AcDbEntity
  8
4
100
AcDbLine
 10
833.7036479348851
 20
567.582614388708
 30
0.0
 11
833.7036479348856
 21
556.082614388708
 31
0.0
  0
LINE
  5
221
330
1B
100
AcDbEntity
  8
4
100
AcDbLine
 10
839.7036479348851
 20
566.832614388708
 30
0.0
 11
839.7036479348851
 21
556.832614388708
 31
0.0
  0
LINE
  5
222
330
1B
100
AcDbEntity
  8
4
100
AcDbLine
 10
833.7036479348851
 20
567.582614388708
 30
0.0
 11
832.2036479348851
 21
567.582614388708
 31
0.0
  0
LINE
  5
223
330
1B
100
AcDbEntity
  8
4
100
AcDbLine
 10
833.7036479348856
 20
556.082614388708
 30
0.0
 11
832.2036479348851
 21
556.082614388708
 31
0.0
  0
LINE
  5
224
330
1B
100
AcDbEntity
  8
4
100
AcDbLine
 10
839.7036479348851
 20
566.832614388708
 30
0.0
 11
833.7036479348856
 21
566.832614388708
 31
0.0
  0
LINE
  5
225
330
1B
100
AcDbEntity
  8
4
100
AcDbLine
 10
839.7036479348851
 20
556.832614388708
 30
0.0
 11
833.7036479348856
 21
556.8326143887081
 31
0.0
  0
LINE
  5
226
330
1B
100
AcDbEntity
  8
2
100
AcDbLine
 10
832.2036479348856
 20
561.832614388708
 30
0.0
 11
833.7036479348856
 21
563.332614388708
 31
0.0
  0
LINE
  5
227
330
1B
100
AcDbEntity
  8
2
100
AcDbLine
 10
832.2036479348856
 20
559.7112940451484
 30
0.0
 11
833.7036479348856
 21
561.2112940451484
 31
0.0
  0
LINE
  5
228
330
1B
100
AcDbEntity
  8
2
100
AcDbLine
 10
832.2036479348856
 20
473.9747215451484
 30
0.0
 11
833.7036479348856
 21
475.4747215451484
 31
0.0
  0
LINE
  5
229
330
1B
100
AcDbEntity
  8
2
100
AcDbLine
 10
832.2036479348856
 20
476.096041888708
 30
0.0
 11
833.7036479348856
 21
477.596041888708
 31
0.0
  0
LINE
  5
22A
330
1B
100
AcDbEntity
  8
4
100
AcDbLine
 10
839.7036479348851
 20
471.096041888708
 30
0.0
 11
833.7036479348856
 21
471.0960418887081
 31
0.0
  0
LINE
  5
22B
330
1B
100
AcDbEntity
  8
4
100
AcDbLine
 10
839.7036479348851
 20
481.096041888708
 30
0.0
 11
833.7036479348856
 21
481.096041888708
 31
0.0
  0
LINE
  5
22C
330
1B
100
AcDbEntity
  8
4
100
AcDbLine
 10
833.7036479348856
 20
470.346041888708
 30
0.0
 11
832.2036479348851
 21
470.346041888708
 31
0.0
  0
LINE
  5
22D
330
1B
100
AcDbEntity
  8
4
100
AcDbLine
 10
833.7036479348851
 20
481.846041888708
 30
0.0
 11
832.2036479348851
 21
481.846041888708
 31
0.0
  0
LINE
  5
22E
330
1B
100
AcDbEntity
  8
4
100
AcDbLine
 10
839.7036479348851
 20
481.096041888708
 30
0.0
 11
839.7036479348851
 21
471.096041888708
 31
0.0
  0
LINE
  5
22F
330
1B
100
AcDbEntity
  8
4
100
AcDbLine
 10
833.7036479348851
 20
481.846041888708
 30
0.0
 11
833.7036479348856
 21
470.346041888708
 31
0.0
  0
LINE
  5
230
330
1B
100
AcDbEntity
  8
2
100
AcDbLine
 10
832.2036479348856
 20
392.4807897322676
 30
0.0
 11
833.7036479348856
 21
390.9807897322676
 31
0.0
  0
LINE
  5
231
330
1B
100
AcDbEntity
  8
2
100
AcDbLine
 10
832.2036479348856
 20
390.359469388708
 30
0.0
 11
833.7036479348856
 21
388.859469388708
 31
0.0
  0
LINE
  5
232
330
1B
100
AcDbEntity
  8
4
100
AcDbLine
 10
839.7036479348851
 20
395.359469388708
 30
0.0
 11
833.7036479348856
 21
395.3594693887079
 31
0.0
  0
LINE
  5
233
330
1B
100
AcDbEntity
  8
4
100
AcDbLine
 10
839.7036479348851
 20
385.359469388708
 30
0.0
 11
833.7036479348856
 21
385.359469388708
 31
0.0
  0
LINE
  5
234
330
1B
100
AcDbEntity
  8
4
100
AcDbLine
 10
833.7036479348856
 20
396.109469388708
 30
0.0
 11
832.2036479348851
 21
396.109469388708
 31
0.0
  0
LINE
  5
235
330
1B
100
AcDbEntity
  8
4
100
AcDbLine
 10
833.7036479348851
 20
384.609469388708
 30
0.0
 11
832.2036479348851
 21
384.609469388708
 31
0.0
  0
LINE
  5
236
330
1B
100
AcDbEntity
  8
4
100
AcDbLine
 10
839.7036479348851
 20
385.359469388708
 30
0.0
 11
839.7036479348851
 21
395.359469388708
 31
0.0
  0
LINE
  5
237
330
1B
100
AcDbEntity
  8
4
100
AcDbLine
 10
833.7036479348851
 20
384.609469388708
 30
0.0
 11
833.7036479348856
 21
396.109469388708
 31
0.0
  0
LINE
  5
238
330
1B
100
AcDbEntity
  8
L-CENTER
 48
2.5
100
AcDbLine
 10
844.0166354348855
 20
390.359469388708
 30
0.0
 11
810.1766954348852
 21
390.359469388708
 31
0.0
  0
LINE
  5
239
330
1B
100
AcDbEntity
  8
4
100
AcDbLine
 10
222.3830764206775
 20
931.1258599769903
 30
0.0
 11
222.3830764206775
 21
925.1258599769906
 31
0.0
  0
LINE
  5
23A
330
1B
100
AcDbEntity
  8
4
100
AcDbLine
 10
221.6330764206775
 20
925.1258599769903
 30
0.0
 11
221.6330764206775
 21
923.6258599769903
 31
0.0
  0
LINE
  5
23B
330
1B
100
AcDbEntity
  8
4
100
AcDbLine
 10
222.3830764206775
 20
931.1258599769903
 30
0.0
 11
232.3830764206773
 21
931.1258599769903
 31
0.0
  0
LINE
  5
23C
330
1B
100
AcDbEntity
  8
4
100
AcDbLine
 10
221.6330764206775
 20
925.1258599769903
 30
0.0
 11
233.1330764206773
 21
925.1258599769906
 31
0.0
  0
LINE
  5
23D
330
1B
100
AcDbEntity
  8
4
100
AcDbLine
 10
232.3830764206773
 20
931.1258599769903
 30
0.0
 11
232.3830764206773
 21
925.1258599769908
 31
0.0
  0
LINE
  5
23E
330
1B
100
AcDbEntity
  8
4
100
AcDbLine
 10
233.1330764206773
 20
925.1258599769906
 30
0.0
 11
233.1330764206773
 21
923.6258599769903
 31
0.0
  0
LINE
  5
23F
330
1B
100
AcDbEntity
  8
4
100
AcDbLine
 10
183.6330764206771
 20
925.1258599769906
 30
0.0
 11
183.6330764206771
 21
923.6258599769903
 31
0.0
  0
LINE
  5
240
330
1B
100
AcDbEntity
  8
4
100
AcDbLine
 10
182.8830764206771
 20
931.1258599769903
 30
0.0
 11
182.8830764206771
 21
925.1258599769908
 31
0.0
  0
LINE
  5
241
330
1B
100
AcDbEntity
  8
4
100
AcDbLine
 10
172.1330764206771
 20
925.1258599769903
 30
0.0
 11
183.6330764206771
 21
925.1258599769906
 31
0.0
  0
LINE
  5
242
330
1B
100
AcDbEntity
  8
4
100
AcDbLine
 10
172.8830764206771
 20
931.1258599769903
 30
0.0
 11
182.8830764206771
 21
931.1258599769903
 31
0.0
  0
LINE
  5
243
330
1B
100
AcDbEntity
  8
4
100
AcDbLine
 10
172.1330764206771
 20
925.1258599769903
 30
0.0
 11
172.1330764206771
 21
923.6258599769903
 31
0.0
  0
LINE
  5
244
330
1B
100
AcDbEntity
  8
4
100
AcDbLine
 10
172.8830764206771
 20
931.1258599769903
 30
0.0
 11
172.8830764206771
 21
925.1258599769906
 31
0.0
  0
LINE
  5
245
330
1B
100
AcDbEntity
  8
4
100
AcDbLine
 10
332.1330764206762
 20
925.1258599769906
 30
0.0
 11
332.1330764206762
 21
923.6258599769903
 31
0.0
  0
LINE
  5
246
330
1B
100
AcDbEntity
  8
4
100
AcDbLine
 10
331.3830764206762
 20
931.1258599769903
 30
0.0
 11
331.3830764206762
 21
925.1258599769908
 31
0.0
  0
LINE
  5
247
330
1B
100
AcDbEntity
  8
4
100
AcDbLine
 10
320.6330764206762
 20
925.1258599769903
 30
0.0
 11
332.1330764206762
 21
925.1258599769906
 31
0.0
  0
LINE
  5
248
330
1B
100
AcDbEntity
  8
4
100
AcDbLine
 10
321.3830764206762
 20
931.1258599769903
 30
0.0
 11
331.3830764206762
 21
931.1258599769903
 31
0.0
  0
LINE
  5
249
330
1B
100
AcDbEntity
  8
4
100
AcDbLine
 10
320.6330764206762
 20
925.1258599769903
 30
0.0
 11
320.6330764206762
 21
923.6258599769903
 31
0.0
  0
LINE
  5
24A
330
1B
100
AcDbEntity
  8
4
100
AcDbLine
 10
321.3830764206762
 20
931.1258599769903
 30
0.0
 11
321.3830764206762
 21
925.1258599769906
 31
0.0
  0
LINE
  5
24B
330
1B
100
AcDbEntity
  8
4
100
AcDbLine
 10
370.8830764206766
 20
931.1258599769903
 30
0.0
 11
370.8830764206766
 21
925.1258599769906
 31
0.0
  0
LINE
  5
24C
330
1B
100
AcDbEntity
  8
4
100
AcDbLine
 10
370.1330764206766
 20
925.1258599769903
 30
0.0
 11
370.1330764206766
 21
923.6258599769903
 31
0.0
  0
LINE
  5
24D
330
1B
100
AcDbEntity
  8
4
100
AcDbLine
 10
370.8830764206766
 20
931.1258599769903
 30
0.0
 11
380.8830764206764
 21
931.1258599769903
 31
0.0
  0
LINE
  5
24E
330
1B
100
AcDbEntity
  8
4
100
AcDbLine
 10
370.1330764206766
 20
925.1258599769903
 30
0.0
 11
381.6330764206764
 21
925.1258599769906
 31
0.0
  0
LINE
  5
24F
330
1B
100
AcDbEntity
  8
4
100
AcDbLine
 10
380.8830764206764
 20
931.1258599769903
 30
0.0
 11
380.8830764206764
 21
925.1258599769908
 31
0.0
  0
LINE
  5
250
330
1B
100
AcDbEntity
  8
4
100
AcDbLine
 10
381.6330764206764
 20
925.1258599769906
 30
0.0
 11
381.6330764206764
 21
923.6258599769903
 31
0.0
  0
ENDSEC
  0
SECTION
  2
OBJECTS
  0
DICTIONARY
  5
9
330
0
100
AcDbDictionary
281
     1
  3
ACAD_COLOR
350
30
  3
ACAD_GROUP
350
2E
  3
ACAD_LAYOUT
350
24
  3
ACAD_MATERIAL
350
B
  3
ACAD_MLEADERSTYLE
350
254
  3
ACAD_MLINESTYLE
350
19
  3
ACAD_PLOTSETTINGS
350
2F
  3
ACAD_PLOTSTYLENAME
350
8
  3
ACAD_SCALELIST
350
35
  3
ACAD_TABLESTYLE
350
253
  3
ACAD_VISUALSTYLE
350
31
  3
ACDBHEADERROUNDTRIPXREC
350
277
  3
AcDbVariableDictionary
350
251
  3
DWGPROPS
350
27A
  0
DICTIONARY
  5
2D
330
2C
100
AcDbDictionary
280
     1
281
     1
  3
ACAD_XREC_ROUNDTRIP
360
27B
  0
DICTIONARY
  5
3
330
2
100
AcDbDictionary
280
     1
281
     1
  3
ACAD_LAYERSTATES
360
4
  0
DICTIONARY
  5
20
330
1F
100
AcDbDictionary
280
     1
281
     1
  3
ADSK_XREC_LAYER_RECONCILED
360
21
  0
DICTIONARY
  5
5
330
1
100
AcDbDictionary
280
     1
281
     1
  3
ADSK_XREC_LAYER_RECONCILED
360
6
  0
DICTIONARY
  5
5B
330
5A
100
AcDbDictionary
280
     1
281
     1
  3
ADSK_XREC_LAYER_RECONCILED
360
5C
  0
DICTIONARY
  5
68
330
67
100
AcDbDictionary
280
     1
281
     1
  3
ADSK_XREC_LAYER_RECONCILED
360
69
  0
DICTIONARY
  5
1C
330
1B
100
AcDbDictionary
280
     1
281
     1
  3
ACAD_SORTENTS
360
1D
  0
DICTIONARY
  5
30
102
{ACAD_REACTORS
330
9
102
}
330
9
100
AcDbDictionary
281
     1
  0
DICTIONARY
  5
2E
102
{ACAD_REACTORS
330
9
102
}
330
9
100
AcDbDictionary
281
     1
  0
DICTIONARY
  5
24
102
{ACAD_REACTORS
330
9
102
}
330
9
100
AcDbDictionary
281
     1
  3
Model
350
23
  3
レイアウト1
350
29
  0
DICTIONARY
  5
B
102
{ACAD_REACTORS
330
9
102
}
330
9
100
AcDbDictionary
281
     1
  3
ByBlock
350
58
  3
ByLayer
350
14
  3
Global
350
A
  0
DICTIONARY
  5
254
102
{ACAD_REACTORS
330
9
102
}
330
9
100
AcDbDictionary
281
     1
  3
Standard
350
270
  0
DICTIONARY
  5
19
102
{ACAD_REACTORS
330
9
102
}
330
9
100
AcDbDictionary
281
     1
  3
STANDARD
350
18
  0
DICTIONARY
  5
2F
102
{ACAD_REACTORS
330
9
102
}
330
9
100
AcDbDictionary
281
     1
  0
ACDBDICTIONARYWDFLT
  5
8
102
{ACAD_REACTORS
330
9
102
}
330
9
100
AcDbDictionary
281
     1
  3
Normal
350
7
100
AcDbDictionaryWithDefault
340
7
  0
DICTIONARY
  5
35
102
{ACAD_REACTORS
330
9
102
}
330
9
100
AcDbDictionary
281
     1
  3
*A1
350
57
  0
DICTIONARY
  5
253
102
{ACAD_REACTORS
330
9
102
}
330
9
100
AcDbDictionary
281
     1
  3
Standard
350
26F
  0
DICTIONARY
  5
31
102
{ACAD_REACTORS
330
9
102
}
330
9
100
AcDbDictionary
281
     1
  3
2dWireframe
350
25B
  3
Basic
350
25E
  3
Brighten
350
262
  3
ColorChange
350
266
  3
Conceptual
350
260
  3
Dim
350
261
  3
EdgeColorOff
350
269
  3
Facepattern
350
265
  3
Flat
350
257
  3
FlatWithEdges
350
258
  3
Gouraud
350
259
  3
GouraudWithEdges
350
25A
  3
Hidden
350
25D
  3
JitterOff
350
267
  3
Linepattern
350
264
  3
OverhangOff
350
268
  3
Realistic
350
25F
  3
Shaded
350
26E
  3
Shaded with edges
350
26D
  3
Shades of Gray
350
26A
  3
Sketchy
350
26B
  3
Thicken
350
263
  3
Wireframe
350
25C
  3
X-Ray
350
26C
  0
DICTIONARY
  5
277
102
{ACAD_REACTORS
330
9
102
}
330
9
100
AcDbDictionary
281
     1
  3
COLORDICT
350
278
  3
MATERIALDICT
350
279
  0
DICTIONARY
  5
251
102
{ACAD_REACTORS
330
9
102
}
330
9
100
AcDbDictionary
281
     1
  3
CANNOSCALE
350
252
  3
CMLEADERSTYLE
350
273
  3
CTABLESTYLE
350
272
  3
DIMASSOC
350
274
  3
HIDETEXT
350
276
  3
MSLTSCALE
350
27C
  3
XCLIPFRAME
350
275
  0
XRECORD
  5
27A
102
{ACAD_REACTORS
330
9
102
}
330
9
100
AcDbXrecord
280
     1
  1
DWGPROPS COOKIE
  2

  3

  4

  6

  7

  8
sg-d04
  9

300
=
301
=
302
=
303
=
304
=
305
=
306
=
307
=
308
=
309
=
 40
0.0
 41
2457420.333614583
 42
2457841.088779005
  1

 90
        0
  0
XRECORD
  5
27B
102
{ACAD_REACTORS
330
2D
102
}
330
2D
100
AcDbXrecord
280
     1
102
VTR_0.000_0.000_1.000_1.000_GRIDDISPLAY
 70
     3
102
VTR_0.000_0.000_1.000_1.000_GRIDMAJOR
 70
     5
102
VTR_0.000_0.000_1.000_1.000_DEFAULTLIGHTING
280
     1
102
VTR_0.000_0.000_1.000_1.000_DEFAULTLIGHTINGTYPE
 70
     1
102
VTR_0.000_0.000_1.000_1.000_BRIGHTNESS
141
0.0
102
VTR_0.000_0.000_1.000_1.000_CONTRAST
142
0.0
  0
DICTIONARY
  5
4
102
{ACAD_REACTORS
330
3
102
}
330
3
100
AcDbDictionary
281
     1
  0
XRECORD
  5
21
102
{ACAD_REACTORS
330
20
102
}
330
20
100
AcDbXrecord
280
     1
290
     1
  0
XRECORD
  5
6
102
{ACAD_REACTORS
330
5
102
}
330
5
100
AcDbXrecord
280
     1
290
     1
  0
XRECORD
  5
5C
102
{ACAD_REACTORS
330
5B
102
}
330
5B
100
AcDbXrecord
280
     1
290
     1
  0
XRECORD
  5
69
102
{ACAD_REACTORS
330
68
102
}
330
68
100
AcDbXrecord
280
     1
290
     1
  0
SORTENTSTABLE
  5
1D
102
{ACAD_REACTORS
330
1C
102
}
330
1C
100
AcDbSortentsTable
330
1B
  0
LAYOUT
  5
23
102
{ACAD_REACTORS
330
24
102
}
330
24
100
AcDbPlotSettings
  1

  2
Bullzip PDF Printer.pc3
  4
A3
  6

 40
0.2
 41
0.0
 42
0.0
 43
0.0
 44
420.2
 45
297.1
 46
25.0
 47
12.0
 48
57.49999988333343
 49
10.0
140
1012.499997695834
141
691.2499984104165
142
1.0
143
2.5
 70
 11936
 72
     1
 73
     0
 74
     4
  7
monochrome.ctb
 75
     0
147
0.4
148
-57.49999988333343
149
-10.0
100
AcDbLayout
  1
Model
 70
     0
 71
     0
 10
0.0
 20
0.0
 11
12.0
 21
9.0
 12
0.0
 22
0.0
 32
0.0
 14
161.4258314206769
 24
239.798189596823
 34
0.0
 15
1000.046885060139
 25
1024.661706795302
 35
0.0
146
0.0
 13
0.0
 23
0.0
 33
0.0
 16
1.0
 26
0.0
 36
0.0
 17
0.0
 27
1.0
 37
0.0
 76
     0
330
1B
331
32
1001
ACAD_PSEXT
1000
Bullzip PDF Printer.pc3
1000
Bullzip PDF Printer
1000
BULLZIP
1000
Bullzip PDF Printer 10.1.0.1871
1070
     0
  0
LAYOUT
  5
29
102
{ACAD_REACTORS
330
24
102
}
330
24
100
AcDbPlotSettings
  1

  2
RICOH imagio Neo 250 RP-GL/2
  4

  6

 40
0.0
 41
0.0
 42
0.0
 43
0.0
 44
0.0
 45
0.0
 46
0.0
 47
0.0
 48
0.0
 49
0.0
140
0.0
141
0.0
142
1.0
143
1.0
 70
   688
 72
     0
 73
     0
 74
     5
  7
monochrome.ctb
 75
    16
147
1.0
148
0.0
149
0.0
100
AcDbLayout
  1
レイアウト1
 70
     0
 71
     1
 10
0.0
 20
0.0
 11
12.0
 21
9.0
 12
0.0
 22
0.0
 32
0.0
 14
1.000000000000000E+20
 24
1.000000000000000E+20
 34
1.000000000000000E+20
 15
-1.000000000000000E+20
 25
-1.000000000000000E+20
 35
-1.000000000000000E+20
146
0.0
 13
0.0
 23
0.0
 33
0.0
 16
1.0
 26
0.0
 36
0.0
 17
0.0
 27
1.0
 37
0.0
 76
     0
330
26
  0
MATERIAL
  5
58
102
{ACAD_REACTORS
330
B
102
}
102
{ACAD_XDICTIONARY
360
281
102
}
330
B
100
AcDbMaterial
  1
ByBlock
 72
     0
 73
     2
 43
0.0208333333333333
 43
0.0
 43
0.0
 43
0.0
 43
0.0
 43
0.0208333333333333
 43
0.0
 43
0.0
 43
0.0
 43
0.0
 43
1.0
 43
0.0
 43
0.0
 43
0.0
 43
0.0
 43
1.0
 77
     0
 78
     2
 47
0.0208333333333333
 47
0.0
 47
0.0
 47
0.0
 47
0.0
 47
0.0208333333333333
 47
0.0
 47
0.0
 47
0.0
 47
0.0
 47
1.0
 47
0.0
 47
0.0
 47
0.0
 47
0.0
 47
1.0
171
     0
172
     2
 49
0.0208333333333333
 49
0.0
 49
0.0
 49
0.0
 49
0.0
 49
0.0208333333333333
 49
0.0
 49
0.0
 49
0.0
 49
0.0
 49
1.0
 49
0.0
 49
0.0
 49
0.0
 49
0.0
 49
1.0
175
     0
176
     2
142
0.0208333333333333
142
0.0
142
0.0
142
0.0
142
0.0
142
0.0208333333333333
142
0.0
142
0.0
142
0.0
142
0.0
142
1.0
142
0.0
142
0.0
142
0.0
142
0.0
142
1.0
179
     0
270
     2
144
0.0208333333333333
144
0.0
144
0.0
144
0.0
144
0.0
144
0.0208333333333333
144
0.0
144
0.0
144
0.0
144
0.0
144
1.0
144
0.0
144
0.0
144
0.0
144
0.0
144
1.0
274
     2
147
0.0208333333333333
147
0.0
147
0.0
147
0.0
147
0.0
147
0.0208333333333333
147
0.0
147
0.0
147
0.0
147
0.0
147
1.0
147
0.0
147
0.0
147
0.0
147
0.0
147
1.0
  0
MATERIAL
  5
14
102
{ACAD_REACTORS
330
B
102
}
102
{ACAD_XDICTIONARY
360
27D
102
}
330
B
100
AcDbMaterial
  1
ByLayer
 72
     0
 73
     2
 43
0.0208333333333333
 43
0.0
 43
0.0
 43
0.0
 43
0.0
 43
0.0208333333333333
 43
0.0
 43
0.0
 43
0.0
 43
0.0
 43
1.0
 43
0.0
 43
0.0
 43
0.0
 43
0.0
 43
1.0
 77
     0
 78
     2
 47
0.0208333333333333
 47
0.0
 47
0.0
 47
0.0
 47
0.0
 47
0.0208333333333333
 47
0.0
 47
0.0
 47
0.0
 47
0.0
 47
1.0
 47
0.0
 47
0.0
 47
0.0
 47
0.0
 47
1.0
171
     0
172
     2
 49
0.0208333333333333
 49
0.0
 49
0.0
 49
0.0
 49
0.0
 49
0.0208333333333333
 49
0.0
 49
0.0
 49
0.0
 49
0.0
 49
1.0
 49
0.0
 49
0.0
 49
0.0
 49
0.0
 49
1.0
175
     0
176
     2
142
0.0208333333333333
142
0.0
142
0.0
142
0.0
142
0.0
142
0.0208333333333333
142
0.0
142
0.0
142
0.0
142
0.0
142
1.0
142
0.0
142
0.0
142
0.0
142
0.0
142
1.0
179
     0
270
     2
144
0.0208333333333333
144
0.0
144
0.0
144
0.0
144
0.0
144
0.0208333333333333
144
0.0
144
0.0
144
0.0
144
0.0
144
1.0
144
0.0
144
0.0
144
0.0
144
0.0
144
1.0
274
     2
147
0.0208333333333333
147
0.0
147
0.0
147
0.0
147
0.0
147
0.0208333333333333
147
0.0
147
0.0
147
0.0
147
0.0
147
1.0
147
0.0
147
0.0
147
0.0
147
0.0
147
1.0
  0
MATERIAL
  5
A
102
{ACAD_REACTORS
330
B
102
}
102
{ACAD_XDICTIONARY
360
27F
102
}
330
B
100
AcDbMaterial
  1
Global
 72
     0
 73
     2
 43
0.0208333333333333
 43
0.0
 43
0.0
 43
0.0
 43
0.0
 43
0.0208333333333333
 43
0.0
 43
0.0
 43
0.0
 43
0.0
 43
1.0
 43
0.0
 43
0.0
 43
0.0
 43
0.0
 43
1.0
 77
     0
 78
     2
 47
0.0208333333333333
 47
0.0
 47
0.0
 47
0.0
 47
0.0
 47
0.0208333333333333
 47
0.0
 47
0.0
 47
0.0
 47
0.0
 47
1.0
 47
0.0
 47
0.0
 47
0.0
 47
0.0
 47
1.0
171
     0
172
     2
 49
0.0208333333333333
 49
0.0
 49
0.0
 49
0.0
 49
0.0
 49
0.0208333333333333
 49
0.0
 49
0.0
 49
0.0
 49
0.0
 49
1.0
 49
0.0
 49
0.0
 49
0.0
 49
0.0
 49
1.0
175
     0
176
     2
142
0.0208333333333333
142
0.0
142
0.0
142
0.0
142
0.0
142
0.0208333333333333
142
0.0
142
0.0
142
0.0
142
0.0
142
1.0
142
0.0
142
0.0
142
0.0
142
0.0
142
1.0
179
     0
270
     2
144
0.0208333333333333
144
0.0
144
0.0
144
0.0
144
0.0
144
0.0208333333333333
144
0.0
144
0.0
144
0.0
144
0.0
144
1.0
144
0.0
144
0.0
144
0.0
144
0.0
144
1.0
274
     2
147
0.0208333333333333
147
0.0
147
0.0
147
0.0
147
0.0
147
0.0208333333333333
147
0.0
147
0.0
147
0.0
147
0.0
147
1.0
147
0.0
147
0.0
147
0.0
147
0.0
147
1.0
1001
ACAD
1070
    -1
1070
     3
1070
     0
1000

1071
        0
  0
MLEADERSTYLE
  5
270
102
{ACAD_REACTORS
330
254
102
}
102
{ACAD_XDICTIONARY
360
2B3
102
}
330
254
100
AcDbMLeaderStyle
170
     2
171
     1
172
     0
 90
        2
 40
0.0
 41
0.0
173
     1
 91
-1056964608
340
11
 92
       -2
290
     1
 42
0.09
291
     1
 43
0.36
  3
Standard
341
0
 44
0.18
300

342
12
174
     1
178
     6
175
     1
176
     0
 93
-1056964608
 45
0.18
292
     0
297
     0
 46
0.18
343
0
 94
-1056964608
 47
1.0
 49
1.0
140
1.0
293
     1
141
0.0
294
     1
177
     0
142
1.0
295
     0
296
     0
143
0.125
1001
ACAD_MLEADERVER
1070
     2
  0
MLINESTYLE
  5
18
102
{ACAD_REACTORS
330
19
102
}
330
19
100
AcDbMlineStyle
  2
STANDARD
 70
     0
  3

 62
     0
 51
90.0
 52
90.0
 71
     2
 49
0.5
 62
   256
  6
BYLAYER
 49
-0.5
 62
   256
  6
BYLAYER
  0
ACDBPLACEHOLDER
  5
7
102
{ACAD_REACTORS
330
8
102
}
330
8
  0
SCALE
  5
57
102
{ACAD_REACTORS
330
35
102
}
330
35
100
AcDbScale
 70
     0
300
1:1
140
1.0
141
1.0
290
     1
  0
TABLESTYLE
  5
26F
102
{ACAD_REACTORS
330
253
102
}
330
253
100
AcDbTableStyle
  3
Standard
 70
     0
 71
     0
 40
0.06
 41
0.06
280
     0
281
     0
  7
STANDARD
140
0.18
170
     2
 62
     0
 63
   257
283
     0
274
    -2
284
     1
 64
     0
275
    -2
285
     1
 65
     0
276
    -2
286
     1
 66
     0
277
    -2
287
     1
 67
     0
278
    -2
288
     1
 68
     0
279
    -2
289
     1
 69
     0
  7
STANDARD
140
0.25
170
     5
 62
     0
 63
   257
283
     0
274
    -2
284
     1
 64
     0
275
    -2
285
     1
 65
     0
276
    -2
286
     1
 66
     0
277
    -2
287
     1
 67
     0
278
    -2
288
     1
 68
     0
279
    -2
289
     1
 69
     0
  7
STANDARD
140
0.18
170
     5
 62
     0
 63
   257
283
     0
274
    -2
284
     1
 64
     0
275
    -2
285
     1
 65
     0
276
    -2
286
     1
 66
     0
277
    -2
287
     1
 67
     0
278
    -2
288
     1
 68
     0
279
    -2
289
     1
 69
     0
  0
VISUALSTYLE
  5
25B
102
{ACAD_REACTORS
330
31
102
}
102
{ACAD_XDICTIONARY
360
28B
102
}
330
31
100
AcDbVisualStyle
  2
2dWireframe
 70
     4
 71
     0
 72
     2
 73
     0
 90
        0
 40
0.6
 41
30.0
 62
     5
 63
     7
 74
     1
 91
        4
 64
     7
 65
   257
 75
     1
175
     1
 42
1.0
 92
        0
 66
   257
 43
1.0
 76
     1
 77
     6
 78
     2
 67
     7
 79
     5
170
     0
171
     0
290
     0
174
     0
 93
        1
 44
0.0
173
     0
291
     0
 45
0.0
1001
ACAD
1000
AcDbSavedByObjectVersion
1070
     0
  0
VISUALSTYLE
  5
25E
102
{ACAD_REACTORS
330
31
102
}
102
{ACAD_XDICTIONARY
360
291
102
}
330
31
100
AcDbVisualStyle
  2
Basic
 70
     7
 71
     1
 72
     0
 73
     1
 90
        0
 40
0.6
 41
30.0
 62
     5
 63
     7
 74
     0
 91
        4
 64
     7
 65
   257
 75
     1
175
     1
 42
1.0
 92
        8
 66
     7
 43
1.0
 76
     1
 77
     6
 78
     2
 67
     7
 79
     5
170
     0
171
     0
290
     0
174
     0
 93
        1
 44
0.0
173
     0
291
     1
 45
0.0
1001
ACAD
1000
AcDbSavedByObjectVersion
1070
     0
  0
VISUALSTYLE
  5
262
102
{ACAD_REACTORS
330
31
102
}
102
{ACAD_XDICTIONARY
360
299
102
}
330
31
100
AcDbVisualStyle
  2
Brighten
 70
    12
 71
     2
 72
     2
 73
     0
 90
        0
 40
0.6
 41
30.0
 62
     5
 63
     7
 74
     1
 91
        4
 64
     7
 65
   257
 75
     1
175
     1
 42
1.0
 92
        8
 66
     7
 43
1.0
 76
     1
 77
     6
 78
     2
 67
     7
 79
     5
170
     0
171
     0
290
     0
174
     0
 93
        1
 44
50.0
173
     0
291
     1
 45
0.0
1001
ACAD
1000
AcDbSavedByObjectVersion
1070
     0
  0
VISUALSTYLE
  5
266
102
{ACAD_REACTORS
330
31
102
}
102
{ACAD_XDICTIONARY
360
2A1
102
}
330
31
100
AcDbVisualStyle
  2
ColorChange
 70
    16
 71
     2
 72
     2
 73
     3
 90
        0
 40
0.6
 41
30.0
 62
     5
 63
     8
 74
     1
 91
        4
 64
     7
 65
   257
 75
     1
175
     1
 42
1.0
 92
        8
 66
     8
 43
1.0
 76
     1
 77
     6
 78
     2
 67
     7
 79
     5
170
     0
171
     0
290
     0
174
     0
 93
        1
 44
0.0
173
     0
291
     1
 45
0.0
1001
ACAD
1000
AcDbSavedByObjectVersion
1070
     0
  0
VISUALSTYLE
  5
260
102
{ACAD_REACTORS
330
31
102
}
102
{ACAD_XDICTIONARY
360
295
102
}
330
31
100
AcDbVisualStyle
  2
Conceptual
 70
     9
 71
     3
 72
     2
 73
     0
 90
        0
 40
0.6
 41
30.0
 62
     5
 63
     7
 74
     2
 91
        2
 64
     7
 65
   257
 75
     1
175
     1
 42
40.0
 92
        8
 66
     7
 43
1.0
 76
     1
 77
     6
 78
     2
 67
     7
 79
     3
170
     0
171
     0
290
     0
174
     0
 93
        1
 44
0.0
173
     0
291
     0
 45
0.0
1001
ACAD
1000
AcDbSavedByObjectVersion
1070
     0
  0
VISUALSTYLE
  5
261
102
{ACAD_REACTORS
330
31
102
}
102
{ACAD_XDICTIONARY
360
297
102
}
330
31
100
AcDbVisualStyle
  2
Dim
 70
    11
 71
     2
 72
     2
 73
     0
 90
        0
 40
0.6
 41
30.0
 62
     5
 63
     7
 74
     1
 91
        4
 64
     7
 65
   257
 75
     1
175
     1
 42
1.0
 92
        8
 66
     7
 43
1.0
 76
     1
 77
     6
 78
     2
 67
     7
 79
     5
170
     0
171
     0
290
     0
174
     0
 93
        1
 44
-50.0
173
     0
291
     1
 45
0.0
1001
ACAD
1000
AcDbSavedByObjectVersion
1070
     0
  0
VISUALSTYLE
  5
269
102
{ACAD_REACTORS
330
31
102
}
102
{ACAD_XDICTIONARY
360
2A7
102
}
330
31
100
AcDbVisualStyle
  2
EdgeColorOff
 70
    22
 71
     2
 72
     2
 73
     0
 90
        0
 40
0.6
 41
30.0
 62
     5
 63
     7
 74
     1
 91
        4
 64
     7
 65
   257
 75
     1
175
     1
 42
1.0
 92
        8
 66
     7
 43
1.0
 76
     1
 77
     6
 78
     2
 67
     7
 79
     5
170
     0
171
     0
290
     0
174
     0
 93
        1
 44
0.0
173
     0
291
     1
 45
0.0
1001
ACAD
1000
AcDbSavedByObjectVersion
1070
     0
  0
VISUALSTYLE
  5
265
102
{ACAD_REACTORS
330
31
102
}
102
{ACAD_XDICTIONARY
360
29F
102
}
330
31
100
AcDbVisualStyle
  2
Facepattern
 70
    15
 71
     2
 72
     2
 73
     0
 90
        0
 40
0.6
 41
30.0
 62
     5
 63
     7
 74
     1
 91
        4
 64
     7
 65
   257
 75
     1
175
     1
 42
1.0
 92
        8
 66
     7
 43
1.0
 76
     1
 77
     6
 78
     2
 67
     7
 79
     5
170
     0
171
     0
290
     0
174
     0
 93
        1
 44
0.0
173
     0
291
     1
 45
0.0
1001
ACAD
1000
AcDbSavedByObjectVersion
1070
     0
  0
VISUALSTYLE
  5
257
102
{ACAD_REACTORS
330
31
102
}
102
{ACAD_XDICTIONARY
360
283
102
}
330
31
100
AcDbVisualStyle
  2
Flat
 70
     0
 71
     2
 72
     1
 73
     1
 90
        2
 40
0.6
 41
30.0
 62
     5
 63
     7
 74
     0
 91
        4
 64
     7
 65
   257
 75
     1
175
     1
 42
1.0
 92
        8
 66
     7
 43
1.0
 76
     1
 77
     6
 78
     2
 67
     7
 79
     5
170
     0
171
     0
290
     0
174
     0
 93
       13
 44
0.0
173
     0
291
     1
 45
0.0
1001
ACAD
1000
AcDbSavedByObjectVersion
1070
     0
  0
VISUALSTYLE
  5
258
102
{ACAD_REACTORS
330
31
102
}
102
{ACAD_XDICTIONARY
360
285
102
}
330
31
100
AcDbVisualStyle
  2
FlatWithEdges
 70
     1
 71
     2
 72
     1
 73
     1
 90
        2
 40
0.6
 41
30.0
 62
     5
 63
     7
 74
     1
 91
        4
 64
     7
 65
   257
 75
     1
175
     1
 42
1.0
 92
        0
 66
   257
 43
1.0
 76
     1
 77
     6
 78
     2
 67
     7
 79
     5
170
     0
171
     0
290
     0
174
     0
 93
       13
 44
0.0
173
     0
291
     1
 45
0.0
1001
ACAD
1000
AcDbSavedByObjectVersion
1070
     0
  0
VISUALSTYLE
  5
259
102
{ACAD_REACTORS
330
31
102
}
102
{ACAD_XDICTIONARY
360
287
102
}
330
31
100
AcDbVisualStyle
  2
Gouraud
 70
     2
 71
     2
 72
     2
 73
     1
 90
        2
 40
0.6
 41
30.0
 62
     5
 63
     7
 74
     0
 91
        4
 64
     7
 65
   257
 75
     1
175
     1
 42
1.0
 92
        0
 66
     7
 43
1.0
 76
     1
 77
     6
 78
     2
 67
     7
 79
     5
170
     0
171
     0
290
     0
174
     0
 93
       13
 44
0.0
173
     0
291
     1
 45
0.0
1001
ACAD
1000
AcDbSavedByObjectVersion
1070
     0
  0
VISUALSTYLE
  5
25A
102
{ACAD_REACTORS
330
31
102
}
102
{ACAD_XDICTIONARY
360
289
102
}
330
31
100
AcDbVisualStyle
  2
GouraudWithEdges
 70
     3
 71
     2
 72
     2
 73
     1
 90
        2
 40
0.6
 41
30.0
 62
     5
 63
     7
 74
     1
 91
        4
 64
     7
 65
   257
 75
     1
175
     1
 42
1.0
 92
        0
 66
   257
 43
1.0
 76
     1
 77
     6
 78
     2
 67
     7
 79
     5
170
     0
171
     0
290
     0
174
     0
 93
       13
 44
0.0
173
     0
291
     1
 45
0.0
1001
ACAD
1000
AcDbSavedByObjectVersion
1070
     0
  0
VISUALSTYLE
  5
25D
102
{ACAD_REACTORS
330
31
102
}
102
{ACAD_XDICTIONARY
360
28F
102
}
330
31
100
AcDbVisualStyle
  2
Hidden
 70
     6
 71
     1
 72
     2
 73
     2
 90
        0
 40
0.6
 41
30.0
 62
     5
 63
     7
 74
     2
 91
        2
 64
     7
 65
   257
 75
     2
175
     1
 42
40.0
 92
        0
 66
   257
 43
1.0
 76
     1
 77
     6
 78
     2
 67
     7
 79
     3
170
     0
171
     0
290
     0
174
     0
 93
        1
 44
0.0
173
     0
291
     0
 45
0.0
1001
ACAD
1000
AcDbSavedByObjectVersion
1070
     0
  0
VISUALSTYLE
  5
267
102
{ACAD_REACTORS
330
31
102
}
102
{ACAD_XDICTIONARY
360
2A3
102
}
330
31
100
AcDbVisualStyle
  2
JitterOff
 70
    20
 71
     2
 72
     2
 73
     0
 90
        0
 40
0.6
 41
30.0
 62
     5
 63
     7
 74
     1
 91
        4
 64
     7
 65
   257
 75
     1
175
     1
 42
1.0
 92
       10
 66
     7
 43
1.0
 76
     1
 77
     6
 78
     2
 67
     7
 79
     5
170
     0
171
     0
290
     0
174
     0
 93
        1
 44
0.0
173
     0
291
     1
 45
0.0
1001
ACAD
1000
AcDbSavedByObjectVersion
1070
     0
  0
VISUALSTYLE
  5
264
102
{ACAD_REACTORS
330
31
102
}
102
{ACAD_XDICTIONARY
360
29D
102
}
330
31
100
AcDbVisualStyle
  2
Linepattern
 70
    14
 71
     2
 72
     2
 73
     0
 90
        0
 40
0.6
 41
30.0
 62
     5
 63
     7
 74
     1
 91
        4
 64
     7
 65
   257
 75
     7
175
     7
 42
1.0
 92
        8
 66
     7
 43
1.0
 76
     1
 77
     6
 78
     2
 67
     7
 79
     5
170
     0
171
     0
290
     0
174
     0
 93
        1
 44
0.0
173
     0
291
     1
 45
0.0
1001
ACAD
1000
AcDbSavedByObjectVersion
1070
     0
  0
VISUALSTYLE
  5
268
102
{ACAD_REACTORS
330
31
102
}
102
{ACAD_XDICTIONARY
360
2A5
102
}
330
31
100
AcDbVisualStyle
  2
OverhangOff
 70
    21
 71
     2
 72
     2
 73
     0
 90
        0
 40
0.6
 41
30.0
 62
     5
 63
     7
 74
     1
 91
        4
 64
     7
 65
   257
 75
     1
175
     1
 42
1.0
 92
        9
 66
     7
 43
1.0
 76
     1
 77
     6
 78
     2
 67
     7
 79
     5
170
     0
171
     0
290
     0
174
     0
 93
        1
 44
0.0
173
     0
291
     1
 45
0.0
1001
ACAD
1000
AcDbSavedByObjectVersion
1070
     0
  0
VISUALSTYLE
  5
25F
102
{ACAD_REACTORS
330
31
102
}
102
{ACAD_XDICTIONARY
360
293
102
}
330
31
100
AcDbVisualStyle
  2
Realistic
 70
     8
 71
     2
 72
     3
 73
     0
 90
        2
 40
0.6
 41
30.0
 62
     5
 63
     7
 74
     0
 91
        0
 64
     7
 65
   257
 75
     1
175
     1
 42
1.0
 92
        8
 66
   257
 43
1.0
 76
     1
 77
     6
 78
     2
 67
     7
 79
     3
170
     0
171
     0
290
     0
174
     0
 93
       13
 44
0.0
173
     0
291
     0
 45
0.0
1001
ACAD
1000
AcDbSavedByObjectVersion
1070
     0
  0
VISUALSTYLE
  5
26E
102
{ACAD_REACTORS
330
31
102
}
102
{ACAD_XDICTIONARY
360
2B1
102
}
330
31
100
AcDbVisualStyle
  2
Shaded
 70
    27
 71
     2
 72
     2
 73
     1
 90
        2
 40
0.6
 41
30.0
 62
     5
 63
     7
 74
     0
 91
        4
 64
     7
 65
   257
 75
     1
175
     1
 42
1.0
 92
        8
 66
   257
 43
1.0
 76
     1
 77
     6
 78
     2
 67
   251
 79
     3
170
     0
171
     0
290
     0
174
     0
 93
        5
 44
0.0
173
     0
291
     0
 45
0.0
1001
ACAD
1000
AcDbSavedByObjectVersion
1070
     0
  0
VISUALSTYLE
  5
26D
102
{ACAD_REACTORS
330
31
102
}
102
{ACAD_XDICTIONARY
360
2AF
102
}
330
31
100
AcDbVisualStyle
  2
Shaded with edges
 70
    26
 71
     2
 72
     2
 73
     1
 90
        2
 40
0.6
 41
30.0
 62
     5
 63
     7
 74
     1
 91
       10
 64
     7
 65
   257
 75
     2
175
     1
 42
1.0
 92
        8
 66
   257
 43
1.0
 76
     1
 77
     6
 78
     2
 67
     7
 79
     3
170
     0
171
     0
290
     0
174
     0
 93
        5
 44
0.0
173
     0
291
     0
 45
0.0
1001
ACAD
1000
AcDbSavedByObjectVersion
1070
     0
  0
VISUALSTYLE
  5
26A
102
{ACAD_REACTORS
330
31
102
}
102
{ACAD_XDICTIONARY
360
2A9
102
}
330
31
100
AcDbVisualStyle
  2
Shades of Gray
 70
    23
 71
     2
 72
     2
 73
     3
 90
        0
 40
0.6
 41
30.0
 62
     5
 63
     7
 74
     2
 91
        2
 64
     7
 65
     7
 75
     1
175
     1
 42
40.0
 92
        8
 66
     7
 43
1.0
 76
     1
 77
     6
 78
     2
 67
     7
 79
     3
170
     0
171
     0
290
     0
174
     0
 93
        1
 44
0.0
173
     0
291
     0
 45
0.0
1001
ACAD
1000
AcDbSavedByObjectVersion
1070
     0
  0
VISUALSTYLE
  5
26B
102
{ACAD_REACTORS
330
31
102
}
102
{ACAD_XDICTIONARY
360
2AB
102
}
330
31
100
AcDbVisualStyle
  2
Sketchy
 70
    24
 71
     1
 72
     2
 73
     2
 90
        0
 40
0.6
 41
30.0
 62
     5
 63
     7
 74
     2
 91
        2
 64
     7
 65
     7
 75
     1
175
     1
 42
40.0
 92
       11
 66
     7
 43
1.0
 76
     1
 77
     6
 78
     2
 67
     7
 79
     6
170
     0
171
     0
290
     0
174
     0
 93
        1
 44
0.0
173
     0
291
     0
 45
0.0
1001
ACAD
1000
AcDbSavedByObjectVersion
1070
     0
  0
VISUALSTYLE
  5
263
102
{ACAD_REACTORS
330
31
102
}
102
{ACAD_XDICTIONARY
360
29B
102
}
330
31
100
AcDbVisualStyle
  2
Thicken
 70
    13
 71
     2
 72
     2
 73
     0
 90
        0
 40
0.6
 41
30.0
 62
     5
 63
     7
 74
     1
 91
        4
 64
     7
 65
   257
 75
     1
175
     1
 42
1.0
 92
       12
 66
     7
 43
1.0
 76
     1
 77
     6
 78
     2
 67
     7
 79
     5
170
     0
171
     0
290
     0
174
     0
 93
        1
 44
0.0
173
     0
291
     1
 45
0.0
1001
ACAD
1000
AcDbSavedByObjectVersion
1070
     0
  0
VISUALSTYLE
  5
25C
102
{ACAD_REACTORS
330
31
102
}
102
{ACAD_XDICTIONARY
360
28D
102
}
330
31
100
AcDbVisualStyle
  2
Wireframe
 70
     5
 71
     0
 72
     2
 73
     0
 90
        0
 40
0.6
 41
30.0
 62
     5
 63
     7
 74
     1
 91
        4
 64
     7
 65
   257
 75
     1
175
     1
 42
1.0
 92
        0
 66
   257
 43
1.0
 76
     1
 77
     6
 78
     2
 67
     7
 79
     5
170
     0
171
     0
290
     0
174
     0
 93
        1
 44
0.0
173
     0
291
     0
 45
0.0
1001
ACAD
1000
AcDbSavedByObjectVersion
1070
     0
  0
VISUALSTYLE
  5
26C
102
{ACAD_REACTORS
330
31
102
}
102
{ACAD_XDICTIONARY
360
2AD
102
}
330
31
100
AcDbVisualStyle
  2
X-Ray
 70
    25
 71
     2
 72
     2
 73
     1
 90
        1
 40
0.5
 41
30.0
 62
     5
 63
     7
 74
     1
 91
        0
 64
     7
 65
   257
 75
     1
175
     1
 42
1.0
 92
        8
 66
     7
 43
1.0
 76
     1
 77
     6
 78
     2
 67
     7
 79
     3
170
     0
171
     0
290
     0
174
     0
 93
       13
 44
0.0
173
     0
291
     0
 45
0.0
1001
ACAD
1000
AcDbSavedByObjectVersion
1070
     0
  0
XRECORD
  5
278
102
{ACAD_REACTORS
330
277
102
}
330
277
100
AcDbXrecord
280
     1
340
30
  0
XRECORD
  5
279
102
{ACAD_REACTORS
330
277
102
}
330
277
100
AcDbXrecord
280
     1
340
B
  0
DICTIONARYVAR
  5
252
102
{ACAD_REACTORS
330
251
102
}
330
251
100
DictionaryVariables
280
     0
  1
1:1
  0
DICTIONARYVAR
  5
273
102
{ACAD_REACTORS
330
251
102
}
330
251
100
DictionaryVariables
280
     0
  1
Standard
  0
DICTIONARYVAR
  5
272
102
{ACAD_REACTORS
330
251
102
}
330
251
100
DictionaryVariables
280
     0
  1
Standard
  0
DICTIONARYVAR
  5
274
102
{ACAD_REACTORS
330
251
102
}
330
251
100
DictionaryVariables
280
     0
  1
0
  0
DICTIONARYVAR
  5
276
102
{ACAD_REACTORS
330
251
102
}
330
251
100
DictionaryVariables
280
     0
  1
1
  0
DICTIONARYVAR
  5
27C
102
{ACAD_REACTORS
330
251
102
}
330
251
100
DictionaryVariables
280
     0
  1
1
  0
DICTIONARYVAR
  5
275
102
{ACAD_REACTORS
330
251
102
}
330
251
100
DictionaryVariables
280
     0
  1
0
  0
DICTIONARY
  5
281
330
58
100
AcDbDictionary
280
     1
281
     1
  3
ACAD_XREC_ROUNDTRIP
360
282
  0
DICTIONARY
  5
27D
330
14
100
AcDbDictionary
280
     1
281
     1
  3
ACAD_XREC_ROUNDTRIP
360
27E
  0
DICTIONARY
  5
27F
330
A
100
AcDbDictionary
280
     1
281
     1
  3
ACAD_XREC_ROUNDTRIP
360
280
  0
DICTIONARY
  5
2B3
330
270
100
AcDbDictionary
280
     1
281
     1
  3
ACAD_XREC_ROUNDTRIP
360
2B4
  0
DICTIONARY
  5
28B
330
25B
100
AcDbDictionary
280
     1
281
     1
  3
ACAD_XREC_ROUNDTRIP
360
28C
  0
DICTIONARY
  5
291
330
25E
100
AcDbDictionary
280
     1
281
     1
  3
ACAD_XREC_ROUNDTRIP
360
292
  0
DICTIONARY
  5
299
330
262
100
AcDbDictionary
280
     1
281
     1
  3
ACAD_XREC_ROUNDTRIP
360
29A
  0
DICTIONARY
  5
2A1
330
266
100
AcDbDictionary
280
     1
281
     1
  3
ACAD_XREC_ROUNDTRIP
360
2A2
  0
DICTIONARY
  5
295
330
260
100
AcDbDictionary
280
     1
281
     1
  3
ACAD_XREC_ROUNDTRIP
360
296
  0
DICTIONARY
  5
297
330
261
100
AcDbDictionary
280
     1
281
     1
  3
ACAD_XREC_ROUNDTRIP
360
298
  0
DICTIONARY
  5
2A7
330
269
100
AcDbDictionary
280
     1
281
     1
  3
ACAD_XREC_ROUNDTRIP
360
2A8
  0
DICTIONARY
  5
29F
330
265
100
AcDbDictionary
280
     1
281
     1
  3
ACAD_XREC_ROUNDTRIP
360
2A0
  0
DICTIONARY
  5
283
330
257
100
AcDbDictionary
280
     1
281
     1
  3
ACAD_XREC_ROUNDTRIP
360
284
  0
DICTIONARY
  5
285
330
258
100
AcDbDictionary
280
     1
281
     1
  3
ACAD_XREC_ROUNDTRIP
360
286
  0
DICTIONARY
  5
287
330
259
100
AcDbDictionary
280
     1
281
     1
  3
ACAD_XREC_ROUNDTRIP
360
288
  0
DICTIONARY
  5
289
330
25A
100
AcDbDictionary
280
     1
281
     1
  3
ACAD_XREC_ROUNDTRIP
360
28A
  0
DICTIONARY
  5
28F
330
25D
100
AcDbDictionary
280
     1
281
     1
  3
ACAD_XREC_ROUNDTRIP
360
290
  0
DICTIONARY
  5
2A3
330
267
100
AcDbDictionary
280
     1
281
     1
  3
ACAD_XREC_ROUNDTRIP
360
2A4
  0
DICTIONARY
  5
29D
330
264
100
AcDbDictionary
280
     1
281
     1
  3
ACAD_XREC_ROUNDTRIP
360
29E
  0
DICTIONARY
  5
2A5
330
268
100
AcDbDictionary
280
     1
281
     1
  3
ACAD_XREC_ROUNDTRIP
360
2A6
  0
DICTIONARY
  5
293
330
25F
100
AcDbDictionary
280
     1
281
     1
  3
ACAD_XREC_ROUNDTRIP
360
294
  0
DICTIONARY
  5
2B1
330
26E
100
AcDbDictionary
280
     1
281
     1
  3
ACAD_XREC_ROUNDTRIP
360
2B2
  0
DICTIONARY
  5
2AF
330
26D
100
AcDbDictionary
280
     1
281
     1
  3
ACAD_XREC_ROUNDTRIP
360
2B0
  0
DICTIONARY
  5
2A9
330
26A
100
AcDbDictionary
280
     1
281
     1
  3
ACAD_XREC_ROUNDTRIP
360
2AA
  0
DICTIONARY
  5
2AB
330
26B
100
AcDbDictionary
280
     1
281
     1
  3
ACAD_XREC_ROUNDTRIP
360
2AC
  0
DICTIONARY
  5
29B
330
263
100
AcDbDictionary
280
     1
281
     1
  3
ACAD_XREC_ROUNDTRIP
360
29C
  0
DICTIONARY
  5
28D
330
25C
100
AcDbDictionary
280
     1
281
     1
  3
ACAD_XREC_ROUNDTRIP
360
28E
  0
DICTIONARY
  5
2AD
330
26C
100
AcDbDictionary
280
     1
281
     1
  3
ACAD_XREC_ROUNDTRIP
360
2AE
  0
XRECORD
  5
282
102
{ACAD_REACTORS
330
281
102
}
330
281
100
AcDbXrecord
280
     1
102
MATERIAL
148
0.0
149
0.0
149
0.0
 93
        0
 94
      127
282
     0
 72
     0
 77
     0
171
     0
175
     0
179
     0
273
     0
  0
XRECORD
  5
27E
102
{ACAD_REACTORS
330
27D
102
}
330
27D
100
AcDbXrecord
280
     1
102
MATERIAL
148
0.0
149
0.0
149
0.0
 93
        0
 94
      127
282
     0
 72
     0
 77
     0
171
     0
175
     0
179
     0
273
     0
  0
XRECORD
  5
280
102
{ACAD_REACTORS
330
27F
102
}
330
27F
100
AcDbXrecord
280
     1
102
MATERIAL
148
0.0
149
0.0
149
0.0
 93
        0
 94
      127
282
     0
 72
     0
 77
     0
171
     0
175
     0
179
     0
273
     0
  0
XRECORD
  5
2B4
102
{ACAD_REACTORS
330
2B3
102
}
330
2B3
100
AcDbXrecord
280
     1
102
ACAD_ROUNDTRIP_2010_MLEADER_STYLE
  0
XRECORD
  5
28C
102
{ACAD_REACTORS
330
28B
102
}
330
28B
100
AcDbXrecord
280
     1
102
RTVSPropertyOp0
 70
     1
102
RTVSPropertyOp1
 70
     1
102
RTVSPropertyOp2
 70
     1
102
RTVSPropertyOp3
 70
     1
102
RTVSPropertyOp4
 70
     1
102
RTVSPropertyOp5
 70
     1
102
RTVSPropertyOp6
 70
     1
102
RTVSPropertyOp7
 70
     1
102
RTVSPropertyOp8
 70
     1
102
RTVSPropertyOp9
 70
     1
102
RTVSPropertyOp10
 70
     1
102
RTVSPropertyOp11
 70
     1
102
RTVSPropertyOp12
 70
     1
102
RTVSPropertyOp13
 70
     1
102
RTVSPropertyOp14
 70
     1
102
RTVSPropertyOp15
 70
     1
102
RTVSPropertyOp16
 70
     1
102
RTVSPropertyOp17
 70
     1
102
RTVSPropertyOp18
 70
     1
102
RTVSPropertyOp19
 70
     1
102
RTVSPropertyOp20
 70
     1
102
RTVSPropertyOp21
 70
     1
102
RTVSPropertyOp22
 70
     1
102
RTVSPropertyOp23
 70
     1
102
RTVSPropertyOp24
 70
     1
102
RTVSPropertyOp25
 70
     1
102
RTVSPropertyOp26
 70
     1
102
RTVSPropertyOp27
 70
     1
102
RTVSPropertyOp28
 70
     1
102
RTVSPropertyOp29
 70
     1
102
RTVSPropertyOp30
 70
     1
102
RTVSPropertyOp31
 70
     1
102
RTVSPropertyOp32
 70
     1
102
RTVSPropertyOp33
 70
     1
102
RTVSPropertyOp34
 70
     1
102
RTVSPropertyOp35
 70
     1
102
RTVSPropertyOp36
 70
     1
102
RTVSPropertyOp37
 70
     1
102
RTVSPropertyOp38
 70
     1
102
RTVSPropertyOp39
 70
     1
102
RTVSPropertyOp40
 70
     1
102
RTVSPropertyOp41
 70
     1
102
RTVSPropertyOp42
 70
     1
102
RTVSPropertyOp43
 70
     1
102
RTVSPropertyOp44
 70
     1
102
RTVSPropertyOp45
 70
     1
102
RTVSPropertyOp46
 70
     1
102
RTVSPropertyOp47
 70
     1
102
RTVSPropertyOp48
 70
     1
102
RTVSPropertyOp49
 70
     1
102
RTVSPropertyOp50
 70
     1
102
RTVSPropertyOp51
 70
     0
102
RTVSPropertyOp52
 70
     0
102
RTVSPropertyOp53
 70
     1
102
RTVSPropertyOp54
 70
     1
102
RTVSPropertyOp55
 70
     1
102
RTVSPropertyOp56
 70
     1
102
RTVSPropertyOp57
 70
     1
102
RTVSPost2010Prop28
280
     1
102
RTVSPost2010PropOp28
 70
     1
102
RTVSPost2010Prop29
280
     1
102
RTVSPost2010PropOp29
 70
     1
102
RTVSPost2010Prop30
280
     0
102
RTVSPost2010PropOp30
 70
     1
102
RTVSPost2010Prop31
280
     0
102
RTVSPost2010PropOp31
 70
     1
102
RTVSPost2010Prop32
280
     0
102
RTVSPost2010PropOp32
 70
     1
102
RTVSPost2010Prop33
280
     0
102
RTVSPost2010PropOp33
 70
     1
102
RTVSPost2010Prop34
280
     0
102
RTVSPost2010PropOp34
 70
     1
102
RTVSPost2010Prop35
280
     0
102
RTVSPost2010PropOp35
 70
     1
102
RTVSPost2010Prop36
280
     0
102
RTVSPost2010PropOp36
 70
     1
102
RTVSPost2010Prop37
 90
       50
102
RTVSPost2010PropOp37
 70
     1
102
RTVSPost2010Prop38
140
0.0
102
RTVSPost2010PropOp38
 70
     1
102
RTVSPost2010Prop39
140
1.0
102
RTVSPost2010PropOp39
 70
     1
102
RTVSPost2010Prop40
 90
        0
102
RTVSPost2010PropOp40
 70
     1
102
RTVSPost2010Prop41ColorIndex
 90
       18
102
RTVSPost2010Prop41ColorRGB
 90
        0
102
RTVSPost2010PropOp41
 70
     1
102
RTVSPost2010Prop42
 90
       50
102
RTVSPost2010PropOp42
 70
     1
102
RTVSPost2010Prop43
 90
        3
102
RTVSPost2010PropOp43
 70
     1
102
RTVSPost2010Prop44ColorIndex
 90
        5
102
RTVSPost2010Prop44ColorRGB
 90
      255
102
RTVSPost2010PropOp44
 70
     1
102
RTVSPost2010Prop45
280
     0
102
RTVSPost2010PropOp45
 70
     1
102
RTVSPost2010Prop46
 90
       50
102
RTVSPost2010PropOp46
 70
     1
102
RTVSPost2010Prop47
 90
       50
102
RTVSPost2010PropOp47
 70
     1
102
RTVSPost2010Prop48
 90
       50
102
RTVSPost2010PropOp48
 70
     1
102
RTVSPost2010Prop49
280
     0
102
RTVSPost2010PropOp49
 70
     1
102
RTVSPost2010Prop50
 90
       50
102
RTVSPost2010PropOp50
 70
     1
102
RTVSPost2010Prop51ColorIndex
 90
      256
102
RTVSPost2010Prop51ColorRGB
 90
-16777216
102
RTVSPost2010PropOp51
 70
     0
102
RTVSPost2010Prop52
140
1.0
102
RTVSPost2010PropOp52
 70
     0
102
RTVSPost2010Prop53
 90
        2
102
RTVSPost2010PropOp53
 70
     1
102
RTVSPost2010Prop54
  1
strokes_ogs.tif
102
RTVSPost2010PropOp54
 70
     1
102
RTVSPost2010Prop55
280
     0
102
RTVSPost2010PropOp55
 70
     1
102
RTVSPost2010Prop56
140
1.0
102
RTVSPost2010PropOp56
 70
     1
102
RTVSPost2010Prop57
140
1.0
102
RTVSPost2010PropOp57
 70
     1
  0
XRECORD
  5
292
102
{ACAD_REACTORS
330
291
102
}
330
291
100
AcDbXrecord
280
     1
102
RTVSPropertyOp0
 70
     1
102
RTVSPropertyOp1
 70
     1
102
RTVSPropertyOp2
 70
     1
102
RTVSPropertyOp3
 70
     1
102
RTVSPropertyOp4
 70
     1
102
RTVSPropertyOp5
 70
     1
102
RTVSPropertyOp6
 70
     1
102
RTVSPropertyOp7
 70
     1
102
RTVSPropertyOp8
 70
     1
102
RTVSPropertyOp9
 70
     1
102
RTVSPropertyOp10
 70
     1
102
RTVSPropertyOp11
 70
     1
102
RTVSPropertyOp12
 70
     1
102
RTVSPropertyOp13
 70
     1
102
RTVSPropertyOp14
 70
     1
102
RTVSPropertyOp15
 70
     1
102
RTVSPropertyOp16
 70
     1
102
RTVSPropertyOp17
 70
     1
102
RTVSPropertyOp18
 70
     1
102
RTVSPropertyOp19
 70
     1
102
RTVSPropertyOp20
 70
     1
102
RTVSPropertyOp21
 70
     1
102
RTVSPropertyOp22
 70
     1
102
RTVSPropertyOp23
 70
     1
102
RTVSPropertyOp24
 70
     1
102
RTVSPropertyOp25
 70
     1
102
RTVSPropertyOp26
 70
     1
102
RTVSPropertyOp27
 70
     1
102
RTVSPropertyOp28
 70
     1
102
RTVSPropertyOp29
 70
     1
102
RTVSPropertyOp30
 70
     1
102
RTVSPropertyOp31
 70
     1
102
RTVSPropertyOp32
 70
     1
102
RTVSPropertyOp33
 70
     1
102
RTVSPropertyOp34
 70
     1
102
RTVSPropertyOp35
 70
     1
102
RTVSPropertyOp36
 70
     1
102
RTVSPropertyOp37
 70
     1
102
RTVSPropertyOp38
 70
     1
102
RTVSPropertyOp39
 70
     1
102
RTVSPropertyOp40
 70
     1
102
RTVSPropertyOp41
 70
     1
102
RTVSPropertyOp42
 70
     1
102
RTVSPropertyOp43
 70
     1
102
RTVSPropertyOp44
 70
     1
102
RTVSPropertyOp45
 70
     1
102
RTVSPropertyOp46
 70
     1
102
RTVSPropertyOp47
 70
     1
102
RTVSPropertyOp48
 70
     1
102
RTVSPropertyOp49
 70
     1
102
RTVSPropertyOp50
 70
     1
102
RTVSPropertyOp51
 70
     0
102
RTVSPropertyOp52
 70
     0
102
RTVSPropertyOp53
 70
     1
102
RTVSPropertyOp54
 70
     1
102
RTVSPropertyOp55
 70
     1
102
RTVSPropertyOp56
 70
     1
102
RTVSPropertyOp57
 70
     1
102
RTVSPost2010Prop28
280
     0
102
RTVSPost2010PropOp28
 70
     1
102
RTVSPost2010Prop29
280
     1
102
RTVSPost2010PropOp29
 70
     1
102
RTVSPost2010Prop30
280
     1
102
RTVSPost2010PropOp30
 70
     1
102
RTVSPost2010Prop31
280
     0
102
RTVSPost2010PropOp31
 70
     1
102
RTVSPost2010Prop32
280
     0
102
RTVSPost2010PropOp32
 70
     1
102
RTVSPost2010Prop33
280
     0
102
RTVSPost2010PropOp33
 70
     1
102
RTVSPost2010Prop34
280
     0
102
RTVSPost2010PropOp34
 70
     1
102
RTVSPost2010Prop35
280
     0
102
RTVSPost2010PropOp35
 70
     1
102
RTVSPost2010Prop36
280
     0
102
RTVSPost2010PropOp36
 70
     1
102
RTVSPost2010Prop37
 90
       50
102
RTVSPost2010PropOp37
 70
     1
102
RTVSPost2010Prop38
140
0.0
102
RTVSPost2010PropOp38
 70
     1
102
RTVSPost2010Prop39
140
1.0
102
RTVSPost2010PropOp39
 70
     1
102
RTVSPost2010Prop40
 90
        0
102
RTVSPost2010PropOp40
 70
     1
102
RTVSPost2010Prop41ColorIndex
 90
       18
102
RTVSPost2010Prop41ColorRGB
 90
        0
102
RTVSPost2010PropOp41
 70
     1
102
RTVSPost2010Prop42
 90
       50
102
RTVSPost2010PropOp42
 70
     1
102
RTVSPost2010Prop43
 90
        3
102
RTVSPost2010PropOp43
 70
     1
102
RTVSPost2010Prop44ColorIndex
 90
        5
102
RTVSPost2010Prop44ColorRGB
 90
      255
102
RTVSPost2010PropOp44
 70
     1
102
RTVSPost2010Prop45
280
     0
102
RTVSPost2010PropOp45
 70
     1
102
RTVSPost2010Prop46
 90
       50
102
RTVSPost2010PropOp46
 70
     1
102
RTVSPost2010Prop47
 90
       50
102
RTVSPost2010PropOp47
 70
     1
102
RTVSPost2010Prop48
 90
       50
102
RTVSPost2010PropOp48
 70
     1
102
RTVSPost2010Prop49
280
     0
102
RTVSPost2010PropOp49
 70
     1
102
RTVSPost2010Prop50
 90
       50
102
RTVSPost2010PropOp50
 70
     1
102
RTVSPost2010Prop51ColorIndex
 90
      256
102
RTVSPost2010Prop51ColorRGB
 90
-16777216
102
RTVSPost2010PropOp51
 70
     0
102
RTVSPost2010Prop52
140
1.0
102
RTVSPost2010PropOp52
 70
     0
102
RTVSPost2010Prop53
 90
        2
102
RTVSPost2010PropOp53
 70
     1
102
RTVSPost2010Prop54
  1
strokes_ogs.tif
102
RTVSPost2010PropOp54
 70
     1
102
RTVSPost2010Prop55
280
     0
102
RTVSPost2010PropOp55
 70
     1
102
RTVSPost2010Prop56
140
1.0
102
RTVSPost2010PropOp56
 70
     1
102
RTVSPost2010Prop57
140
1.0
102
RTVSPost2010PropOp57
 70
     1
  0
XRECORD
  5
29A
102
{ACAD_REACTORS
330
299
102
}
330
299
100
AcDbXrecord
280
     1
102
RTVSPropertyOp0
 70
     1
102
RTVSPropertyOp1
 70
     1
102
RTVSPropertyOp2
 70
     1
102
RTVSPropertyOp3
 70
     1
102
RTVSPropertyOp4
 70
     1
102
RTVSPropertyOp5
 70
     1
102
RTVSPropertyOp6
 70
     1
102
RTVSPropertyOp7
 70
     1
102
RTVSPropertyOp8
 70
     1
102
RTVSPropertyOp9
 70
     1
102
RTVSPropertyOp10
 70
     1
102
RTVSPropertyOp11
 70
     1
102
RTVSPropertyOp12
 70
     1
102
RTVSPropertyOp13
 70
     1
102
RTVSPropertyOp14
 70
     1
102
RTVSPropertyOp15
 70
     1
102
RTVSPropertyOp16
 70
     1
102
RTVSPropertyOp17
 70
     1
102
RTVSPropertyOp18
 70
     1
102
RTVSPropertyOp19
 70
     1
102
RTVSPropertyOp20
 70
     1
102
RTVSPropertyOp21
 70
     1
102
RTVSPropertyOp22
 70
     1
102
RTVSPropertyOp23
 70
     1
102
RTVSPropertyOp24
 70
     1
102
RTVSPropertyOp25
 70
     1
102
RTVSPropertyOp26
 70
     1
102
RTVSPropertyOp27
 70
     1
102
RTVSPropertyOp28
 70
     1
102
RTVSPropertyOp29
 70
     1
102
RTVSPropertyOp30
 70
     1
102
RTVSPropertyOp31
 70
     1
102
RTVSPropertyOp32
 70
     1
102
RTVSPropertyOp33
 70
     1
102
RTVSPropertyOp34
 70
     1
102
RTVSPropertyOp35
 70
     1
102
RTVSPropertyOp36
 70
     1
102
RTVSPropertyOp37
 70
     1
102
RTVSPropertyOp38
 70
     1
102
RTVSPropertyOp39
 70
     1
102
RTVSPropertyOp40
 70
     1
102
RTVSPropertyOp41
 70
     1
102
RTVSPropertyOp42
 70
     1
102
RTVSPropertyOp43
 70
     1
102
RTVSPropertyOp44
 70
     1
102
RTVSPropertyOp45
 70
     1
102
RTVSPropertyOp46
 70
     1
102
RTVSPropertyOp47
 70
     1
102
RTVSPropertyOp48
 70
     1
102
RTVSPropertyOp49
 70
     1
102
RTVSPropertyOp50
 70
     1
102
RTVSPropertyOp51
 70
     0
102
RTVSPropertyOp52
 70
     0
102
RTVSPropertyOp53
 70
     1
102
RTVSPropertyOp54
 70
     1
102
RTVSPropertyOp55
 70
     1
102
RTVSPropertyOp56
 70
     1
102
RTVSPropertyOp57
 70
     1
102
RTVSPost2010Prop28
280
     0
102
RTVSPost2010PropOp28
 70
     1
102
RTVSPost2010Prop29
280
     1
102
RTVSPost2010PropOp29
 70
     1
102
RTVSPost2010Prop30
280
     1
102
RTVSPost2010PropOp30
 70
     1
102
RTVSPost2010Prop31
280
     0
102
RTVSPost2010PropOp31
 70
     1
102
RTVSPost2010Prop32
280
     0
102
RTVSPost2010PropOp32
 70
     1
102
RTVSPost2010Prop33
280
     0
102
RTVSPost2010PropOp33
 70
     1
102
RTVSPost2010Prop34
280
     0
102
RTVSPost2010PropOp34
 70
     1
102
RTVSPost2010Prop35
280
     0
102
RTVSPost2010PropOp35
 70
     1
102
RTVSPost2010Prop36
280
     0
102
RTVSPost2010PropOp36
 70
     1
102
RTVSPost2010Prop37
 90
       50
102
RTVSPost2010PropOp37
 70
     1
102
RTVSPost2010Prop38
140
0.0
102
RTVSPost2010PropOp38
 70
     1
102
RTVSPost2010Prop39
140
1.0
102
RTVSPost2010PropOp39
 70
     1
102
RTVSPost2010Prop40
 90
        0
102
RTVSPost2010PropOp40
 70
     1
102
RTVSPost2010Prop41ColorIndex
 90
       18
102
RTVSPost2010Prop41ColorRGB
 90
        0
102
RTVSPost2010PropOp41
 70
     1
102
RTVSPost2010Prop42
 90
       50
102
RTVSPost2010PropOp42
 70
     1
102
RTVSPost2010Prop43
 90
        3
102
RTVSPost2010PropOp43
 70
     1
102
RTVSPost2010Prop44ColorIndex
 90
        5
102
RTVSPost2010Prop44ColorRGB
 90
      255
102
RTVSPost2010PropOp44
 70
     1
102
RTVSPost2010Prop45
280
     0
102
RTVSPost2010PropOp45
 70
     1
102
RTVSPost2010Prop46
 90
       50
102
RTVSPost2010PropOp46
 70
     1
102
RTVSPost2010Prop47
 90
       50
102
RTVSPost2010PropOp47
 70
     1
102
RTVSPost2010Prop48
 90
       50
102
RTVSPost2010PropOp48
 70
     1
102
RTVSPost2010Prop49
280
     0
102
RTVSPost2010PropOp49
 70
     1
102
RTVSPost2010Prop50
 90
       50
102
RTVSPost2010PropOp50
 70
     1
102
RTVSPost2010Prop51ColorIndex
 90
      256
102
RTVSPost2010Prop51ColorRGB
 90
-16777216
102
RTVSPost2010PropOp51
 70
     0
102
RTVSPost2010Prop52
140
1.0
102
RTVSPost2010PropOp52
 70
     0
102
RTVSPost2010Prop53
 90
        2
102
RTVSPost2010PropOp53
 70
     1
102
RTVSPost2010Prop54
  1
strokes_ogs.tif
102
RTVSPost2010PropOp54
 70
     1
102
RTVSPost2010Prop55
280
     0
102
RTVSPost2010PropOp55
 70
     1
102
RTVSPost2010Prop56
140
1.0
102
RTVSPost2010PropOp56
 70
     1
102
RTVSPost2010Prop57
140
1.0
102
RTVSPost2010PropOp57
 70
     1
  0
XRECORD
  5
2A2
102
{ACAD_REACTORS
330
2A1
102
}
330
2A1
100
AcDbXrecord
280
     1
102
RTVSPropertyOp0
 70
     1
102
RTVSPropertyOp1
 70
     1
102
RTVSPropertyOp2
 70
     1
102
RTVSPropertyOp3
 70
     1
102
RTVSPropertyOp4
 70
     1
102
RTVSPropertyOp5
 70
     1
102
RTVSPropertyOp6
 70
     1
102
RTVSPropertyOp7
 70
     1
102
RTVSPropertyOp8
 70
     1
102
RTVSPropertyOp9
 70
     1
102
RTVSPropertyOp10
 70
     1
102
RTVSPropertyOp11
 70
     1
102
RTVSPropertyOp12
 70
     1
102
RTVSPropertyOp13
 70
     1
102
RTVSPropertyOp14
 70
     1
102
RTVSPropertyOp15
 70
     1
102
RTVSPropertyOp16
 70
     1
102
RTVSPropertyOp17
 70
     1
102
RTVSPropertyOp18
 70
     1
102
RTVSPropertyOp19
 70
     1
102
RTVSPropertyOp20
 70
     1
102
RTVSPropertyOp21
 70
     1
102
RTVSPropertyOp22
 70
     1
102
RTVSPropertyOp23
 70
     1
102
RTVSPropertyOp24
 70
     1
102
RTVSPropertyOp25
 70
     1
102
RTVSPropertyOp26
 70
     1
102
RTVSPropertyOp27
 70
     1
102
RTVSPropertyOp28
 70
     1
102
RTVSPropertyOp29
 70
     1
102
RTVSPropertyOp30
 70
     1
102
RTVSPropertyOp31
 70
     1
102
RTVSPropertyOp32
 70
     1
102
RTVSPropertyOp33
 70
     1
102
RTVSPropertyOp34
 70
     1
102
RTVSPropertyOp35
 70
     1
102
RTVSPropertyOp36
 70
     1
102
RTVSPropertyOp37
 70
     1
102
RTVSPropertyOp38
 70
     1
102
RTVSPropertyOp39
 70
     1
102
RTVSPropertyOp40
 70
     1
102
RTVSPropertyOp41
 70
     1
102
RTVSPropertyOp42
 70
     1
102
RTVSPropertyOp43
 70
     1
102
RTVSPropertyOp44
 70
     1
102
RTVSPropertyOp45
 70
     1
102
RTVSPropertyOp46
 70
     1
102
RTVSPropertyOp47
 70
     1
102
RTVSPropertyOp48
 70
     1
102
RTVSPropertyOp49
 70
     1
102
RTVSPropertyOp50
 70
     1
102
RTVSPropertyOp51
 70
     0
102
RTVSPropertyOp52
 70
     0
102
RTVSPropertyOp53
 70
     1
102
RTVSPropertyOp54
 70
     1
102
RTVSPropertyOp55
 70
     1
102
RTVSPropertyOp56
 70
     1
102
RTVSPropertyOp57
 70
     1
102
RTVSPost2010Prop28
280
     0
102
RTVSPost2010PropOp28
 70
     1
102
RTVSPost2010Prop29
280
     1
102
RTVSPost2010PropOp29
 70
     1
102
RTVSPost2010Prop30
280
     1
102
RTVSPost2010PropOp30
 70
     1
102
RTVSPost2010Prop31
280
     0
102
RTVSPost2010PropOp31
 70
     1
102
RTVSPost2010Prop32
280
     0
102
RTVSPost2010PropOp32
 70
     1
102
RTVSPost2010Prop33
280
     0
102
RTVSPost2010PropOp33
 70
     1
102
RTVSPost2010Prop34
280
     0
102
RTVSPost2010PropOp34
 70
     1
102
RTVSPost2010Prop35
280
     0
102
RTVSPost2010PropOp35
 70
     1
102
RTVSPost2010Prop36
280
     0
102
RTVSPost2010PropOp36
 70
     1
102
RTVSPost2010Prop37
 90
       50
102
RTVSPost2010PropOp37
 70
     1
102
RTVSPost2010Prop38
140
0.0
102
RTVSPost2010PropOp38
 70
     1
102
RTVSPost2010Prop39
140
1.0
102
RTVSPost2010PropOp39
 70
     1
102
RTVSPost2010Prop40
 90
        0
102
RTVSPost2010PropOp40
 70
     1
102
RTVSPost2010Prop41ColorIndex
 90
       18
102
RTVSPost2010Prop41ColorRGB
 90
        0
102
RTVSPost2010PropOp41
 70
     1
102
RTVSPost2010Prop42
 90
       50
102
RTVSPost2010PropOp42
 70
     1
102
RTVSPost2010Prop43
 90
        3
102
RTVSPost2010PropOp43
 70
     1
102
RTVSPost2010Prop44ColorIndex
 90
        5
102
RTVSPost2010Prop44ColorRGB
 90
      255
102
RTVSPost2010PropOp44
 70
     1
102
RTVSPost2010Prop45
280
     0
102
RTVSPost2010PropOp45
 70
     1
102
RTVSPost2010Prop46
 90
       50
102
RTVSPost2010PropOp46
 70
     1
102
RTVSPost2010Prop47
 90
       50
102
RTVSPost2010PropOp47
 70
     1
102
RTVSPost2010Prop48
 90
       50
102
RTVSPost2010PropOp48
 70
     1
102
RTVSPost2010Prop49
280
     0
102
RTVSPost2010PropOp49
 70
     1
102
RTVSPost2010Prop50
 90
       50
102
RTVSPost2010PropOp50
 70
     1
102
RTVSPost2010Prop51ColorIndex
 90
      256
102
RTVSPost2010Prop51ColorRGB
 90
-16777216
102
RTVSPost2010PropOp51
 70
     0
102
RTVSPost2010Prop52
140
1.0
102
RTVSPost2010PropOp52
 70
     0
102
RTVSPost2010Prop53
 90
        2
102
RTVSPost2010PropOp53
 70
     1
102
RTVSPost2010Prop54
  1
strokes_ogs.tif
102
RTVSPost2010PropOp54
 70
     1
102
RTVSPost2010Prop55
280
     0
102
RTVSPost2010PropOp55
 70
     1
102
RTVSPost2010Prop56
140
1.0
102
RTVSPost2010PropOp56
 70
     1
102
RTVSPost2010Prop57
140
1.0
102
RTVSPost2010PropOp57
 70
     1
  0
XRECORD
  5
296
102
{ACAD_REACTORS
330
295
102
}
330
295
100
AcDbXrecord
280
     1
102
RTVSPropertyOp0
 70
     1
102
RTVSPropertyOp1
 70
     1
102
RTVSPropertyOp2
 70
     1
102
RTVSPropertyOp3
 70
     1
102
RTVSPropertyOp4
 70
     1
102
RTVSPropertyOp5
 70
     1
102
RTVSPropertyOp6
 70
     1
102
RTVSPropertyOp7
 70
     1
102
RTVSPropertyOp8
 70
     1
102
RTVSPropertyOp9
 70
     1
102
RTVSPropertyOp10
 70
     1
102
RTVSPropertyOp11
 70
     1
102
RTVSPropertyOp12
 70
     1
102
RTVSPropertyOp13
 70
     1
102
RTVSPropertyOp14
 70
     1
102
RTVSPropertyOp15
 70
     1
102
RTVSPropertyOp16
 70
     1
102
RTVSPropertyOp17
 70
     1
102
RTVSPropertyOp18
 70
     1
102
RTVSPropertyOp19
 70
     1
102
RTVSPropertyOp20
 70
     1
102
RTVSPropertyOp21
 70
     1
102
RTVSPropertyOp22
 70
     1
102
RTVSPropertyOp23
 70
     1
102
RTVSPropertyOp24
 70
     1
102
RTVSPropertyOp25
 70
     1
102
RTVSPropertyOp26
 70
     1
102
RTVSPropertyOp27
 70
     1
102
RTVSPropertyOp28
 70
     1
102
RTVSPropertyOp29
 70
     1
102
RTVSPropertyOp30
 70
     1
102
RTVSPropertyOp31
 70
     1
102
RTVSPropertyOp32
 70
     1
102
RTVSPropertyOp33
 70
     1
102
RTVSPropertyOp34
 70
     1
102
RTVSPropertyOp35
 70
     1
102
RTVSPropertyOp36
 70
     1
102
RTVSPropertyOp37
 70
     1
102
RTVSPropertyOp38
 70
     1
102
RTVSPropertyOp39
 70
     1
102
RTVSPropertyOp40
 70
     1
102
RTVSPropertyOp41
 70
     1
102
RTVSPropertyOp42
 70
     1
102
RTVSPropertyOp43
 70
     1
102
RTVSPropertyOp44
 70
     1
102
RTVSPropertyOp45
 70
     1
102
RTVSPropertyOp46
 70
     1
102
RTVSPropertyOp47
 70
     1
102
RTVSPropertyOp48
 70
     1
102
RTVSPropertyOp49
 70
     1
102
RTVSPropertyOp50
 70
     1
102
RTVSPropertyOp51
 70
     0
102
RTVSPropertyOp52
 70
     0
102
RTVSPropertyOp53
 70
     1
102
RTVSPropertyOp54
 70
     1
102
RTVSPropertyOp55
 70
     1
102
RTVSPropertyOp56
 70
     1
102
RTVSPropertyOp57
 70
     1
102
RTVSPost2010Prop28
280
     0
102
RTVSPost2010PropOp28
 70
     1
102
RTVSPost2010Prop29
280
     1
102
RTVSPost2010PropOp29
 70
     1
102
RTVSPost2010Prop30
280
     1
102
RTVSPost2010PropOp30
 70
     1
102
RTVSPost2010Prop31
280
     0
102
RTVSPost2010PropOp31
 70
     1
102
RTVSPost2010Prop32
280
     0
102
RTVSPost2010PropOp32
 70
     1
102
RTVSPost2010Prop33
280
     0
102
RTVSPost2010PropOp33
 70
     1
102
RTVSPost2010Prop34
280
     0
102
RTVSPost2010PropOp34
 70
     1
102
RTVSPost2010Prop35
280
     0
102
RTVSPost2010PropOp35
 70
     1
102
RTVSPost2010Prop36
280
     0
102
RTVSPost2010PropOp36
 70
     1
102
RTVSPost2010Prop37
 90
       50
102
RTVSPost2010PropOp37
 70
     1
102
RTVSPost2010Prop38
140
0.0
102
RTVSPost2010PropOp38
 70
     1
102
RTVSPost2010Prop39
140
1.0
102
RTVSPost2010PropOp39
 70
     1
102
RTVSPost2010Prop40
 90
        0
102
RTVSPost2010PropOp40
 70
     1
102
RTVSPost2010Prop41ColorIndex
 90
       18
102
RTVSPost2010Prop41ColorRGB
 90
        0
102
RTVSPost2010PropOp41
 70
     1
102
RTVSPost2010Prop42
 90
       50
102
RTVSPost2010PropOp42
 70
     1
102
RTVSPost2010Prop43
 90
        3
102
RTVSPost2010PropOp43
 70
     1
102
RTVSPost2010Prop44ColorIndex
 90
        5
102
RTVSPost2010Prop44ColorRGB
 90
      255
102
RTVSPost2010PropOp44
 70
     1
102
RTVSPost2010Prop45
280
     0
102
RTVSPost2010PropOp45
 70
     1
102
RTVSPost2010Prop46
 90
       50
102
RTVSPost2010PropOp46
 70
     1
102
RTVSPost2010Prop47
 90
       50
102
RTVSPost2010PropOp47
 70
     1
102
RTVSPost2010Prop48
 90
       50
102
RTVSPost2010PropOp48
 70
     1
102
RTVSPost2010Prop49
280
     0
102
RTVSPost2010PropOp49
 70
     1
102
RTVSPost2010Prop50
 90
       50
102
RTVSPost2010PropOp50
 70
     1
102
RTVSPost2010Prop51ColorIndex
 90
      256
102
RTVSPost2010Prop51ColorRGB
 90
-16777216
102
RTVSPost2010PropOp51
 70
     0
102
RTVSPost2010Prop52
140
1.0
102
RTVSPost2010PropOp52
 70
     0
102
RTVSPost2010Prop53
 90
        2
102
RTVSPost2010PropOp53
 70
     1
102
RTVSPost2010Prop54
  1
strokes_ogs.tif
102
RTVSPost2010PropOp54
 70
     1
102
RTVSPost2010Prop55
280
     0
102
RTVSPost2010PropOp55
 70
     1
102
RTVSPost2010Prop56
140
1.0
102
RTVSPost2010PropOp56
 70
     1
102
RTVSPost2010Prop57
140
1.0
102
RTVSPost2010PropOp57
 70
     1
  0
XRECORD
  5
298
102
{ACAD_REACTORS
330
297
102
}
330
297
100
AcDbXrecord
280
     1
102
RTVSPropertyOp0
 70
     1
102
RTVSPropertyOp1
 70
     1
102
RTVSPropertyOp2
 70
     1
102
RTVSPropertyOp3
 70
     1
102
RTVSPropertyOp4
 70
     1
102
RTVSPropertyOp5
 70
     1
102
RTVSPropertyOp6
 70
     1
102
RTVSPropertyOp7
 70
     1
102
RTVSPropertyOp8
 70
     1
102
RTVSPropertyOp9
 70
     1
102
RTVSPropertyOp10
 70
     1
102
RTVSPropertyOp11
 70
     1
102
RTVSPropertyOp12
 70
     1
102
RTVSPropertyOp13
 70
     1
102
RTVSPropertyOp14
 70
     1
102
RTVSPropertyOp15
 70
     1
102
RTVSPropertyOp16
 70
     1
102
RTVSPropertyOp17
 70
     1
102
RTVSPropertyOp18
 70
     1
102
RTVSPropertyOp19
 70
     1
102
RTVSPropertyOp20
 70
     1
102
RTVSPropertyOp21
 70
     1
102
RTVSPropertyOp22
 70
     1
102
RTVSPropertyOp23
 70
     1
102
RTVSPropertyOp24
 70
     1
102
RTVSPropertyOp25
 70
     1
102
RTVSPropertyOp26
 70
     1
102
RTVSPropertyOp27
 70
     1
102
RTVSPropertyOp28
 70
     1
102
RTVSPropertyOp29
 70
     1
102
RTVSPropertyOp30
 70
     1
102
RTVSPropertyOp31
 70
     1
102
RTVSPropertyOp32
 70
     1
102
RTVSPropertyOp33
 70
     1
102
RTVSPropertyOp34
 70
     1
102
RTVSPropertyOp35
 70
     1
102
RTVSPropertyOp36
 70
     1
102
RTVSPropertyOp37
 70
     1
102
RTVSPropertyOp38
 70
     1
102
RTVSPropertyOp39
 70
     1
102
RTVSPropertyOp40
 70
     1
102
RTVSPropertyOp41
 70
     1
102
RTVSPropertyOp42
 70
     1
102
RTVSPropertyOp43
 70
     1
102
RTVSPropertyOp44
 70
     1
102
RTVSPropertyOp45
 70
     1
102
RTVSPropertyOp46
 70
     1
102
RTVSPropertyOp47
 70
     1
102
RTVSPropertyOp48
 70
     1
102
RTVSPropertyOp49
 70
     1
102
RTVSPropertyOp50
 70
     1
102
RTVSPropertyOp51
 70
     0
102
RTVSPropertyOp52
 70
     0
102
RTVSPropertyOp53
 70
     1
102
RTVSPropertyOp54
 70
     1
102
RTVSPropertyOp55
 70
     1
102
RTVSPropertyOp56
 70
     1
102
RTVSPropertyOp57
 70
     1
102
RTVSPost2010Prop28
280
     0
102
RTVSPost2010PropOp28
 70
     1
102
RTVSPost2010Prop29
280
     1
102
RTVSPost2010PropOp29
 70
     1
102
RTVSPost2010Prop30
280
     1
102
RTVSPost2010PropOp30
 70
     1
102
RTVSPost2010Prop31
280
     0
102
RTVSPost2010PropOp31
 70
     1
102
RTVSPost2010Prop32
280
     0
102
RTVSPost2010PropOp32
 70
     1
102
RTVSPost2010Prop33
280
     0
102
RTVSPost2010PropOp33
 70
     1
102
RTVSPost2010Prop34
280
     0
102
RTVSPost2010PropOp34
 70
     1
102
RTVSPost2010Prop35
280
     0
102
RTVSPost2010PropOp35
 70
     1
102
RTVSPost2010Prop36
280
     0
102
RTVSPost2010PropOp36
 70
     1
102
RTVSPost2010Prop37
 90
       50
102
RTVSPost2010PropOp37
 70
     1
102
RTVSPost2010Prop38
140
0.0
102
RTVSPost2010PropOp38
 70
     1
102
RTVSPost2010Prop39
140
1.0
102
RTVSPost2010PropOp39
 70
     1
102
RTVSPost2010Prop40
 90
        0
102
RTVSPost2010PropOp40
 70
     1
102
RTVSPost2010Prop41ColorIndex
 90
       18
102
RTVSPost2010Prop41ColorRGB
 90
        0
102
RTVSPost2010PropOp41
 70
     1
102
RTVSPost2010Prop42
 90
       50
102
RTVSPost2010PropOp42
 70
     1
102
RTVSPost2010Prop43
 90
        3
102
RTVSPost2010PropOp43
 70
     1
102
RTVSPost2010Prop44ColorIndex
 90
        5
102
RTVSPost2010Prop44ColorRGB
 90
      255
102
RTVSPost2010PropOp44
 70
     1
102
RTVSPost2010Prop45
280
     0
102
RTVSPost2010PropOp45
 70
     1
102
RTVSPost2010Prop46
 90
       50
102
RTVSPost2010PropOp46
 70
     1
102
RTVSPost2010Prop47
 90
       50
102
RTVSPost2010PropOp47
 70
     1
102
RTVSPost2010Prop48
 90
       50
102
RTVSPost2010PropOp48
 70
     1
102
RTVSPost2010Prop49
280
     0
102
RTVSPost2010PropOp49
 70
     1
102
RTVSPost2010Prop50
 90
       50
102
RTVSPost2010PropOp50
 70
     1
102
RTVSPost2010Prop51ColorIndex
 90
      256
102
RTVSPost2010Prop51ColorRGB
 90
-16777216
102
RTVSPost2010PropOp51
 70
     0
102
RTVSPost2010Prop52
140
1.0
102
RTVSPost2010PropOp52
 70
     0
102
RTVSPost2010Prop53
 90
        2
102
RTVSPost2010PropOp53
 70
     1
102
RTVSPost2010Prop54
  1
strokes_ogs.tif
102
RTVSPost2010PropOp54
 70
     1
102
RTVSPost2010Prop55
280
     0
102
RTVSPost2010PropOp55
 70
     1
102
RTVSPost2010Prop56
140
1.0
102
RTVSPost2010PropOp56
 70
     1
102
RTVSPost2010Prop57
140
1.0
102
RTVSPost2010PropOp57
 70
     1
  0
XRECORD
  5
2A8
102
{ACAD_REACTORS
330
2A7
102
}
330
2A7
100
AcDbXrecord
280
     1
102
RTVSPropertyOp0
 70
     0
102
RTVSPropertyOp1
 70
     0
102
RTVSPropertyOp2
 70
     0
102
RTVSPropertyOp3
 70
     0
102
RTVSPropertyOp4
 70
     0
102
RTVSPropertyOp5
 70
     0
102
RTVSPropertyOp6
 70
     0
102
RTVSPropertyOp7
 70
     0
102
RTVSPropertyOp8
 70
     0
102
RTVSPropertyOp9
 70
     0
102
RTVSPropertyOp10
 70
     0
102
RTVSPropertyOp11
 70
     0
102
RTVSPropertyOp12
 70
     0
102
RTVSPropertyOp13
 70
     0
102
RTVSPropertyOp14
 70
     0
102
RTVSPropertyOp15
 70
     0
102
RTVSPropertyOp16
 70
     0
102
RTVSPropertyOp17
 70
     0
102
RTVSPropertyOp18
 70
     0
102
RTVSPropertyOp19
 70
     0
102
RTVSPropertyOp20
 70
     0
102
RTVSPropertyOp21
 70
     0
102
RTVSPropertyOp22
 70
     0
102
RTVSPropertyOp23
 70
     0
102
RTVSPropertyOp24
 70
     0
102
RTVSPropertyOp25
 70
     0
102
RTVSPropertyOp26
 70
     0
102
RTVSPropertyOp27
 70
     0
102
RTVSPropertyOp28
 70
     1
102
RTVSPropertyOp29
 70
     1
102
RTVSPropertyOp30
 70
     1
102
RTVSPropertyOp31
 70
     1
102
RTVSPropertyOp32
 70
     1
102
RTVSPropertyOp33
 70
     1
102
RTVSPropertyOp34
 70
     1
102
RTVSPropertyOp35
 70
     1
102
RTVSPropertyOp36
 70
     1
102
RTVSPropertyOp37
 70
     1
102
RTVSPropertyOp38
 70
     1
102
RTVSPropertyOp39
 70
     1
102
RTVSPropertyOp40
 70
     1
102
RTVSPropertyOp41
 70
     1
102
RTVSPropertyOp42
 70
     1
102
RTVSPropertyOp43
 70
     1
102
RTVSPropertyOp44
 70
     1
102
RTVSPropertyOp45
 70
     1
102
RTVSPropertyOp46
 70
     1
102
RTVSPropertyOp47
 70
     1
102
RTVSPropertyOp48
 70
     1
102
RTVSPropertyOp49
 70
     1
102
RTVSPropertyOp50
 70
     1
102
RTVSPropertyOp51
 70
     0
102
RTVSPropertyOp52
 70
     0
102
RTVSPropertyOp53
 70
     1
102
RTVSPropertyOp54
 70
     1
102
RTVSPropertyOp55
 70
     1
102
RTVSPropertyOp56
 70
     1
102
RTVSPropertyOp57
 70
     1
102
RTVSPost2010Prop28
280
     0
102
RTVSPost2010PropOp28
 70
     1
102
RTVSPost2010Prop29
280
     1
102
RTVSPost2010PropOp29
 70
     1
102
RTVSPost2010Prop30
280
     1
102
RTVSPost2010PropOp30
 70
     1
102
RTVSPost2010Prop31
280
     0
102
RTVSPost2010PropOp31
 70
     1
102
RTVSPost2010Prop32
280
     0
102
RTVSPost2010PropOp32
 70
     1
102
RTVSPost2010Prop33
280
     0
102
RTVSPost2010PropOp33
 70
     1
102
RTVSPost2010Prop34
280
     0
102
RTVSPost2010PropOp34
 70
     1
102
RTVSPost2010Prop35
280
     0
102
RTVSPost2010PropOp35
 70
     1
102
RTVSPost2010Prop36
280
     0
102
RTVSPost2010PropOp36
 70
     1
102
RTVSPost2010Prop37
 90
       50
102
RTVSPost2010PropOp37
 70
     1
102
RTVSPost2010Prop38
140
0.0
102
RTVSPost2010PropOp38
 70
     1
102
RTVSPost2010Prop39
140
1.0
102
RTVSPost2010PropOp39
 70
     1
102
RTVSPost2010Prop40
 90
        0
102
RTVSPost2010PropOp40
 70
     1
102
RTVSPost2010Prop41ColorIndex
 90
       18
102
RTVSPost2010Prop41ColorRGB
 90
        0
102
RTVSPost2010PropOp41
 70
     1
102
RTVSPost2010Prop42
 90
       50
102
RTVSPost2010PropOp42
 70
     1
102
RTVSPost2010Prop43
 90
        3
102
RTVSPost2010PropOp43
 70
     1
102
RTVSPost2010Prop44ColorIndex
 90
        5
102
RTVSPost2010Prop44ColorRGB
 90
      255
102
RTVSPost2010PropOp44
 70
     1
102
RTVSPost2010Prop45
280
     0
102
RTVSPost2010PropOp45
 70
     1
102
RTVSPost2010Prop46
 90
       50
102
RTVSPost2010PropOp46
 70
     1
102
RTVSPost2010Prop47
 90
       50
102
RTVSPost2010PropOp47
 70
     1
102
RTVSPost2010Prop48
 90
       50
102
RTVSPost2010PropOp48
 70
     1
102
RTVSPost2010Prop49
280
     0
102
RTVSPost2010PropOp49
 70
     1
102
RTVSPost2010Prop50
 90
       50
102
RTVSPost2010PropOp50
 70
     1
102
RTVSPost2010Prop51ColorIndex
 90
      256
102
RTVSPost2010Prop51ColorRGB
 90
-16777216
102
RTVSPost2010PropOp51
 70
     0
102
RTVSPost2010Prop52
140
1.0
102
RTVSPost2010PropOp52
 70
     0
102
RTVSPost2010Prop53
 90
        2
102
RTVSPost2010PropOp53
 70
     1
102
RTVSPost2010Prop54
  1
strokes_ogs.tif
102
RTVSPost2010PropOp54
 70
     1
102
RTVSPost2010Prop55
280
     0
102
RTVSPost2010PropOp55
 70
     1
102
RTVSPost2010Prop56
140
1.0
102
RTVSPost2010PropOp56
 70
     1
102
RTVSPost2010Prop57
140
1.0
102
RTVSPost2010PropOp57
 70
     1
  0
XRECORD
  5
2A0
102
{ACAD_REACTORS
330
29F
102
}
330
29F
100
AcDbXrecord
280
     1
102
RTVSPropertyOp0
 70
     1
102
RTVSPropertyOp1
 70
     1
102
RTVSPropertyOp2
 70
     1
102
RTVSPropertyOp3
 70
     1
102
RTVSPropertyOp4
 70
     1
102
RTVSPropertyOp5
 70
     1
102
RTVSPropertyOp6
 70
     1
102
RTVSPropertyOp7
 70
     1
102
RTVSPropertyOp8
 70
     1
102
RTVSPropertyOp9
 70
     1
102
RTVSPropertyOp10
 70
     1
102
RTVSPropertyOp11
 70
     1
102
RTVSPropertyOp12
 70
     1
102
RTVSPropertyOp13
 70
     1
102
RTVSPropertyOp14
 70
     1
102
RTVSPropertyOp15
 70
     1
102
RTVSPropertyOp16
 70
     1
102
RTVSPropertyOp17
 70
     1
102
RTVSPropertyOp18
 70
     1
102
RTVSPropertyOp19
 70
     1
102
RTVSPropertyOp20
 70
     1
102
RTVSPropertyOp21
 70
     1
102
RTVSPropertyOp22
 70
     1
102
RTVSPropertyOp23
 70
     1
102
RTVSPropertyOp24
 70
     1
102
RTVSPropertyOp25
 70
     1
102
RTVSPropertyOp26
 70
     1
102
RTVSPropertyOp27
 70
     1
102
RTVSPropertyOp28
 70
     1
102
RTVSPropertyOp29
 70
     1
102
RTVSPropertyOp30
 70
     1
102
RTVSPropertyOp31
 70
     1
102
RTVSPropertyOp32
 70
     1
102
RTVSPropertyOp33
 70
     1
102
RTVSPropertyOp34
 70
     1
102
RTVSPropertyOp35
 70
     1
102
RTVSPropertyOp36
 70
     1
102
RTVSPropertyOp37
 70
     1
102
RTVSPropertyOp38
 70
     1
102
RTVSPropertyOp39
 70
     1
102
RTVSPropertyOp40
 70
     1
102
RTVSPropertyOp41
 70
     1
102
RTVSPropertyOp42
 70
     1
102
RTVSPropertyOp43
 70
     1
102
RTVSPropertyOp44
 70
     1
102
RTVSPropertyOp45
 70
     1
102
RTVSPropertyOp46
 70
     1
102
RTVSPropertyOp47
 70
     1
102
RTVSPropertyOp48
 70
     1
102
RTVSPropertyOp49
 70
     1
102
RTVSPropertyOp50
 70
     1
102
RTVSPropertyOp51
 70
     0
102
RTVSPropertyOp52
 70
     0
102
RTVSPropertyOp53
 70
     1
102
RTVSPropertyOp54
 70
     1
102
RTVSPropertyOp55
 70
     1
102
RTVSPropertyOp56
 70
     1
102
RTVSPropertyOp57
 70
     1
102
RTVSPost2010Prop28
280
     0
102
RTVSPost2010PropOp28
 70
     1
102
RTVSPost2010Prop29
280
     1
102
RTVSPost2010PropOp29
 70
     1
102
RTVSPost2010Prop30
280
     1
102
RTVSPost2010PropOp30
 70
     1
102
RTVSPost2010Prop31
280
     0
102
RTVSPost2010PropOp31
 70
     1
102
RTVSPost2010Prop32
280
     0
102
RTVSPost2010PropOp32
 70
     1
102
RTVSPost2010Prop33
280
     0
102
RTVSPost2010PropOp33
 70
     1
102
RTVSPost2010Prop34
280
     0
102
RTVSPost2010PropOp34
 70
     1
102
RTVSPost2010Prop35
280
     0
102
RTVSPost2010PropOp35
 70
     1
102
RTVSPost2010Prop36
280
     0
102
RTVSPost2010PropOp36
 70
     1
102
RTVSPost2010Prop37
 90
       50
102
RTVSPost2010PropOp37
 70
     1
102
RTVSPost2010Prop38
140
0.0
102
RTVSPost2010PropOp38
 70
     1
102
RTVSPost2010Prop39
140
1.0
102
RTVSPost2010PropOp39
 70
     1
102
RTVSPost2010Prop40
 90
        0
102
RTVSPost2010PropOp40
 70
     1
102
RTVSPost2010Prop41ColorIndex
 90
       18
102
RTVSPost2010Prop41ColorRGB
 90
        0
102
RTVSPost2010PropOp41
 70
     1
102
RTVSPost2010Prop42
 90
       50
102
RTVSPost2010PropOp42
 70
     1
102
RTVSPost2010Prop43
 90
        3
102
RTVSPost2010PropOp43
 70
     1
102
RTVSPost2010Prop44ColorIndex
 90
        5
102
RTVSPost2010Prop44ColorRGB
 90
      255
102
RTVSPost2010PropOp44
 70
     1
102
RTVSPost2010Prop45
280
     0
102
RTVSPost2010PropOp45
 70
     1
102
RTVSPost2010Prop46
 90
       50
102
RTVSPost2010PropOp46
 70
     1
102
RTVSPost2010Prop47
 90
       50
102
RTVSPost2010PropOp47
 70
     1
102
RTVSPost2010Prop48
 90
       50
102
RTVSPost2010PropOp48
 70
     1
102
RTVSPost2010Prop49
280
     0
102
RTVSPost2010PropOp49
 70
     1
102
RTVSPost2010Prop50
 90
       50
102
RTVSPost2010PropOp50
 70
     1
102
RTVSPost2010Prop51ColorIndex
 90
      256
102
RTVSPost2010Prop51ColorRGB
 90
-16777216
102
RTVSPost2010PropOp51
 70
     0
102
RTVSPost2010Prop52
140
1.0
102
RTVSPost2010PropOp52
 70
     0
102
RTVSPost2010Prop53
 90
        2
102
RTVSPost2010PropOp53
 70
     1
102
RTVSPost2010Prop54
  1
strokes_ogs.tif
102
RTVSPost2010PropOp54
 70
     1
102
RTVSPost2010Prop55
280
     0
102
RTVSPost2010PropOp55
 70
     1
102
RTVSPost2010Prop56
140
1.0
102
RTVSPost2010PropOp56
 70
     1
102
RTVSPost2010Prop57
140
1.0
102
RTVSPost2010PropOp57
 70
     1
  0
XRECORD
  5
284
102
{ACAD_REACTORS
330
283
102
}
330
283
100
AcDbXrecord
280
     1
102
RTVSPropertyOp0
 70
     1
102
RTVSPropertyOp1
 70
     1
102
RTVSPropertyOp2
 70
     1
102
RTVSPropertyOp3
 70
     1
102
RTVSPropertyOp4
 70
     1
102
RTVSPropertyOp5
 70
     1
102
RTVSPropertyOp6
 70
     1
102
RTVSPropertyOp7
 70
     1
102
RTVSPropertyOp8
 70
     1
102
RTVSPropertyOp9
 70
     1
102
RTVSPropertyOp10
 70
     1
102
RTVSPropertyOp11
 70
     1
102
RTVSPropertyOp12
 70
     1
102
RTVSPropertyOp13
 70
     1
102
RTVSPropertyOp14
 70
     1
102
RTVSPropertyOp15
 70
     1
102
RTVSPropertyOp16
 70
     1
102
RTVSPropertyOp17
 70
     1
102
RTVSPropertyOp18
 70
     1
102
RTVSPropertyOp19
 70
     1
102
RTVSPropertyOp20
 70
     1
102
RTVSPropertyOp21
 70
     1
102
RTVSPropertyOp22
 70
     1
102
RTVSPropertyOp23
 70
     1
102
RTVSPropertyOp24
 70
     1
102
RTVSPropertyOp25
 70
     1
102
RTVSPropertyOp26
 70
     1
102
RTVSPropertyOp27
 70
     1
102
RTVSPropertyOp28
 70
     1
102
RTVSPropertyOp29
 70
     1
102
RTVSPropertyOp30
 70
     1
102
RTVSPropertyOp31
 70
     1
102
RTVSPropertyOp32
 70
     1
102
RTVSPropertyOp33
 70
     1
102
RTVSPropertyOp34
 70
     1
102
RTVSPropertyOp35
 70
     1
102
RTVSPropertyOp36
 70
     1
102
RTVSPropertyOp37
 70
     1
102
RTVSPropertyOp38
 70
     1
102
RTVSPropertyOp39
 70
     1
102
RTVSPropertyOp40
 70
     1
102
RTVSPropertyOp41
 70
     1
102
RTVSPropertyOp42
 70
     1
102
RTVSPropertyOp43
 70
     1
102
RTVSPropertyOp44
 70
     1
102
RTVSPropertyOp45
 70
     1
102
RTVSPropertyOp46
 70
     1
102
RTVSPropertyOp47
 70
     1
102
RTVSPropertyOp48
 70
     1
102
RTVSPropertyOp49
 70
     1
102
RTVSPropertyOp50
 70
     1
102
RTVSPropertyOp51
 70
     0
102
RTVSPropertyOp52
 70
     0
102
RTVSPropertyOp53
 70
     1
102
RTVSPropertyOp54
 70
     1
102
RTVSPropertyOp55
 70
     1
102
RTVSPropertyOp56
 70
     1
102
RTVSPropertyOp57
 70
     1
102
RTVSPost2010Prop28
280
     0
102
RTVSPost2010PropOp28
 70
     1
102
RTVSPost2010Prop29
280
     1
102
RTVSPost2010PropOp29
 70
     1
102
RTVSPost2010Prop30
280
     1
102
RTVSPost2010PropOp30
 70
     1
102
RTVSPost2010Prop31
280
     0
102
RTVSPost2010PropOp31
 70
     1
102
RTVSPost2010Prop32
280
     0
102
RTVSPost2010PropOp32
 70
     1
102
RTVSPost2010Prop33
280
     0
102
RTVSPost2010PropOp33
 70
     1
102
RTVSPost2010Prop34
280
     0
102
RTVSPost2010PropOp34
 70
     1
102
RTVSPost2010Prop35
280
     0
102
RTVSPost2010PropOp35
 70
     1
102
RTVSPost2010Prop36
280
     0
102
RTVSPost2010PropOp36
 70
     1
102
RTVSPost2010Prop37
 90
       50
102
RTVSPost2010PropOp37
 70
     1
102
RTVSPost2010Prop38
140
0.0
102
RTVSPost2010PropOp38
 70
     1
102
RTVSPost2010Prop39
140
1.0
102
RTVSPost2010PropOp39
 70
     1
102
RTVSPost2010Prop40
 90
        0
102
RTVSPost2010PropOp40
 70
     1
102
RTVSPost2010Prop41ColorIndex
 90
       18
102
RTVSPost2010Prop41ColorRGB
 90
        0
102
RTVSPost2010PropOp41
 70
     1
102
RTVSPost2010Prop42
 90
       50
102
RTVSPost2010PropOp42
 70
     1
102
RTVSPost2010Prop43
 90
        3
102
RTVSPost2010PropOp43
 70
     1
102
RTVSPost2010Prop44ColorIndex
 90
        5
102
RTVSPost2010Prop44ColorRGB
 90
      255
102
RTVSPost2010PropOp44
 70
     1
102
RTVSPost2010Prop45
280
     0
102
RTVSPost2010PropOp45
 70
     1
102
RTVSPost2010Prop46
 90
       50
102
RTVSPost2010PropOp46
 70
     1
102
RTVSPost2010Prop47
 90
       50
102
RTVSPost2010PropOp47
 70
     1
102
RTVSPost2010Prop48
 90
       50
102
RTVSPost2010PropOp48
 70
     1
102
RTVSPost2010Prop49
280
     0
102
RTVSPost2010PropOp49
 70
     1
102
RTVSPost2010Prop50
 90
       50
102
RTVSPost2010PropOp50
 70
     1
102
RTVSPost2010Prop51ColorIndex
 90
      256
102
RTVSPost2010Prop51ColorRGB
 90
-16777216
102
RTVSPost2010PropOp51
 70
     0
102
RTVSPost2010Prop52
140
1.0
102
RTVSPost2010PropOp52
 70
     0
102
RTVSPost2010Prop53
 90
        2
102
RTVSPost2010PropOp53
 70
     1
102
RTVSPost2010Prop54
  1
strokes_ogs.tif
102
RTVSPost2010PropOp54
 70
     1
102
RTVSPost2010Prop55
280
     0
102
RTVSPost2010PropOp55
 70
     1
102
RTVSPost2010Prop56
140
1.0
102
RTVSPost2010PropOp56
 70
     1
102
RTVSPost2010Prop57
140
1.0
102
RTVSPost2010PropOp57
 70
     1
  0
XRECORD
  5
286
102
{ACAD_REACTORS
330
285
102
}
330
285
100
AcDbXrecord
280
     1
102
RTVSPropertyOp0
 70
     1
102
RTVSPropertyOp1
 70
     1
102
RTVSPropertyOp2
 70
     1
102
RTVSPropertyOp3
 70
     1
102
RTVSPropertyOp4
 70
     1
102
RTVSPropertyOp5
 70
     1
102
RTVSPropertyOp6
 70
     1
102
RTVSPropertyOp7
 70
     1
102
RTVSPropertyOp8
 70
     1
102
RTVSPropertyOp9
 70
     1
102
RTVSPropertyOp10
 70
     1
102
RTVSPropertyOp11
 70
     1
102
RTVSPropertyOp12
 70
     1
102
RTVSPropertyOp13
 70
     1
102
RTVSPropertyOp14
 70
     1
102
RTVSPropertyOp15
 70
     1
102
RTVSPropertyOp16
 70
     1
102
RTVSPropertyOp17
 70
     1
102
RTVSPropertyOp18
 70
     1
102
RTVSPropertyOp19
 70
     1
102
RTVSPropertyOp20
 70
     1
102
RTVSPropertyOp21
 70
     1
102
RTVSPropertyOp22
 70
     1
102
RTVSPropertyOp23
 70
     1
102
RTVSPropertyOp24
 70
     1
102
RTVSPropertyOp25
 70
     1
102
RTVSPropertyOp26
 70
     1
102
RTVSPropertyOp27
 70
     1
102
RTVSPropertyOp28
 70
     1
102
RTVSPropertyOp29
 70
     1
102
RTVSPropertyOp30
 70
     1
102
RTVSPropertyOp31
 70
     1
102
RTVSPropertyOp32
 70
     1
102
RTVSPropertyOp33
 70
     1
102
RTVSPropertyOp34
 70
     1
102
RTVSPropertyOp35
 70
     1
102
RTVSPropertyOp36
 70
     1
102
RTVSPropertyOp37
 70
     1
102
RTVSPropertyOp38
 70
     1
102
RTVSPropertyOp39
 70
     1
102
RTVSPropertyOp40
 70
     1
102
RTVSPropertyOp41
 70
     1
102
RTVSPropertyOp42
 70
     1
102
RTVSPropertyOp43
 70
     1
102
RTVSPropertyOp44
 70
     1
102
RTVSPropertyOp45
 70
     1
102
RTVSPropertyOp46
 70
     1
102
RTVSPropertyOp47
 70
     1
102
RTVSPropertyOp48
 70
     1
102
RTVSPropertyOp49
 70
     1
102
RTVSPropertyOp50
 70
     1
102
RTVSPropertyOp51
 70
     0
102
RTVSPropertyOp52
 70
     0
102
RTVSPropertyOp53
 70
     1
102
RTVSPropertyOp54
 70
     1
102
RTVSPropertyOp55
 70
     1
102
RTVSPropertyOp56
 70
     1
102
RTVSPropertyOp57
 70
     1
102
RTVSPost2010Prop28
280
     0
102
RTVSPost2010PropOp28
 70
     1
102
RTVSPost2010Prop29
280
     1
102
RTVSPost2010PropOp29
 70
     1
102
RTVSPost2010Prop30
280
     1
102
RTVSPost2010PropOp30
 70
     1
102
RTVSPost2010Prop31
280
     0
102
RTVSPost2010PropOp31
 70
     1
102
RTVSPost2010Prop32
280
     0
102
RTVSPost2010PropOp32
 70
     1
102
RTVSPost2010Prop33
280
     0
102
RTVSPost2010PropOp33
 70
     1
102
RTVSPost2010Prop34
280
     0
102
RTVSPost2010PropOp34
 70
     1
102
RTVSPost2010Prop35
280
     0
102
RTVSPost2010PropOp35
 70
     1
102
RTVSPost2010Prop36
280
     0
102
RTVSPost2010PropOp36
 70
     1
102
RTVSPost2010Prop37
 90
       50
102
RTVSPost2010PropOp37
 70
     1
102
RTVSPost2010Prop38
140
0.0
102
RTVSPost2010PropOp38
 70
     1
102
RTVSPost2010Prop39
140
1.0
102
RTVSPost2010PropOp39
 70
     1
102
RTVSPost2010Prop40
 90
        0
102
RTVSPost2010PropOp40
 70
     1
102
RTVSPost2010Prop41ColorIndex
 90
       18
102
RTVSPost2010Prop41ColorRGB
 90
        0
102
RTVSPost2010PropOp41
 70
     1
102
RTVSPost2010Prop42
 90
       50
102
RTVSPost2010PropOp42
 70
     1
102
RTVSPost2010Prop43
 90
        3
102
RTVSPost2010PropOp43
 70
     1
102
RTVSPost2010Prop44ColorIndex
 90
        5
102
RTVSPost2010Prop44ColorRGB
 90
      255
102
RTVSPost2010PropOp44
 70
     1
102
RTVSPost2010Prop45
280
     0
102
RTVSPost2010PropOp45
 70
     1
102
RTVSPost2010Prop46
 90
       50
102
RTVSPost2010PropOp46
 70
     1
102
RTVSPost2010Prop47
 90
       50
102
RTVSPost2010PropOp47
 70
     1
102
RTVSPost2010Prop48
 90
       50
102
RTVSPost2010PropOp48
 70
     1
102
RTVSPost2010Prop49
280
     0
102
RTVSPost2010PropOp49
 70
     1
102
RTVSPost2010Prop50
 90
       50
102
RTVSPost2010PropOp50
 70
     1
102
RTVSPost2010Prop51ColorIndex
 90
      256
102
RTVSPost2010Prop51ColorRGB
 90
-16777216
102
RTVSPost2010PropOp51
 70
     0
102
RTVSPost2010Prop52
140
1.0
102
RTVSPost2010PropOp52
 70
     0
102
RTVSPost2010Prop53
 90
        2
102
RTVSPost2010PropOp53
 70
     1
102
RTVSPost2010Prop54
  1
strokes_ogs.tif
102
RTVSPost2010PropOp54
 70
     1
102
RTVSPost2010Prop55
280
     0
102
RTVSPost2010PropOp55
 70
     1
102
RTVSPost2010Prop56
140
1.0
102
RTVSPost2010PropOp56
 70
     1
102
RTVSPost2010Prop57
140
1.0
102
RTVSPost2010PropOp57
 70
     1
  0
XRECORD
  5
288
102
{ACAD_REACTORS
330
287
102
}
330
287
100
AcDbXrecord
280
     1
102
RTVSPropertyOp0
 70
     1
102
RTVSPropertyOp1
 70
     1
102
RTVSPropertyOp2
 70
     1
102
RTVSPropertyOp3
 70
     1
102
RTVSPropertyOp4
 70
     1
102
RTVSPropertyOp5
 70
     1
102
RTVSPropertyOp6
 70
     1
102
RTVSPropertyOp7
 70
     1
102
RTVSPropertyOp8
 70
     1
102
RTVSPropertyOp9
 70
     1
102
RTVSPropertyOp10
 70
     1
102
RTVSPropertyOp11
 70
     1
102
RTVSPropertyOp12
 70
     1
102
RTVSPropertyOp13
 70
     1
102
RTVSPropertyOp14
 70
     1
102
RTVSPropertyOp15
 70
     1
102
RTVSPropertyOp16
 70
     1
102
RTVSPropertyOp17
 70
     1
102
RTVSPropertyOp18
 70
     1
102
RTVSPropertyOp19
 70
     1
102
RTVSPropertyOp20
 70
     1
102
RTVSPropertyOp21
 70
     1
102
RTVSPropertyOp22
 70
     1
102
RTVSPropertyOp23
 70
     1
102
RTVSPropertyOp24
 70
     1
102
RTVSPropertyOp25
 70
     1
102
RTVSPropertyOp26
 70
     1
102
RTVSPropertyOp27
 70
     1
102
RTVSPropertyOp28
 70
     1
102
RTVSPropertyOp29
 70
     1
102
RTVSPropertyOp30
 70
     1
102
RTVSPropertyOp31
 70
     1
102
RTVSPropertyOp32
 70
     1
102
RTVSPropertyOp33
 70
     1
102
RTVSPropertyOp34
 70
     1
102
RTVSPropertyOp35
 70
     1
102
RTVSPropertyOp36
 70
     1
102
RTVSPropertyOp37
 70
     1
102
RTVSPropertyOp38
 70
     1
102
RTVSPropertyOp39
 70
     1
102
RTVSPropertyOp40
 70
     1
102
RTVSPropertyOp41
 70
     1
102
RTVSPropertyOp42
 70
     1
102
RTVSPropertyOp43
 70
     1
102
RTVSPropertyOp44
 70
     1
102
RTVSPropertyOp45
 70
     1
102
RTVSPropertyOp46
 70
     1
102
RTVSPropertyOp47
 70
     1
102
RTVSPropertyOp48
 70
     1
102
RTVSPropertyOp49
 70
     1
102
RTVSPropertyOp50
 70
     1
102
RTVSPropertyOp51
 70
     0
102
RTVSPropertyOp52
 70
     0
102
RTVSPropertyOp53
 70
     1
102
RTVSPropertyOp54
 70
     1
102
RTVSPropertyOp55
 70
     1
102
RTVSPropertyOp56
 70
     1
102
RTVSPropertyOp57
 70
     1
102
RTVSPost2010Prop28
280
     0
102
RTVSPost2010PropOp28
 70
     1
102
RTVSPost2010Prop29
280
     1
102
RTVSPost2010PropOp29
 70
     1
102
RTVSPost2010Prop30
280
     1
102
RTVSPost2010PropOp30
 70
     1
102
RTVSPost2010Prop31
280
     0
102
RTVSPost2010PropOp31
 70
     1
102
RTVSPost2010Prop32
280
     0
102
RTVSPost2010PropOp32
 70
     1
102
RTVSPost2010Prop33
280
     0
102
RTVSPost2010PropOp33
 70
     1
102
RTVSPost2010Prop34
280
     0
102
RTVSPost2010PropOp34
 70
     1
102
RTVSPost2010Prop35
280
     0
102
RTVSPost2010PropOp35
 70
     1
102
RTVSPost2010Prop36
280
     0
102
RTVSPost2010PropOp36
 70
     1
102
RTVSPost2010Prop37
 90
       50
102
RTVSPost2010PropOp37
 70
     1
102
RTVSPost2010Prop38
140
0.0
102
RTVSPost2010PropOp38
 70
     1
102
RTVSPost2010Prop39
140
1.0
102
RTVSPost2010PropOp39
 70
     1
102
RTVSPost2010Prop40
 90
        0
102
RTVSPost2010PropOp40
 70
     1
102
RTVSPost2010Prop41ColorIndex
 90
       18
102
RTVSPost2010Prop41ColorRGB
 90
        0
102
RTVSPost2010PropOp41
 70
     1
102
RTVSPost2010Prop42
 90
       50
102
RTVSPost2010PropOp42
 70
     1
102
RTVSPost2010Prop43
 90
        3
102
RTVSPost2010PropOp43
 70
     1
102
RTVSPost2010Prop44ColorIndex
 90
        5
102
RTVSPost2010Prop44ColorRGB
 90
      255
102
RTVSPost2010PropOp44
 70
     1
102
RTVSPost2010Prop45
280
     0
102
RTVSPost2010PropOp45
 70
     1
102
RTVSPost2010Prop46
 90
       50
102
RTVSPost2010PropOp46
 70
     1
102
RTVSPost2010Prop47
 90
       50
102
RTVSPost2010PropOp47
 70
     1
102
RTVSPost2010Prop48
 90
       50
102
RTVSPost2010PropOp48
 70
     1
102
RTVSPost2010Prop49
280
     0
102
RTVSPost2010PropOp49
 70
     1
102
RTVSPost2010Prop50
 90
       50
102
RTVSPost2010PropOp50
 70
     1
102
RTVSPost2010Prop51ColorIndex
 90
      256
102
RTVSPost2010Prop51ColorRGB
 90
-16777216
102
RTVSPost2010PropOp51
 70
     0
102
RTVSPost2010Prop52
140
1.0
102
RTVSPost2010PropOp52
 70
     0
102
RTVSPost2010Prop53
 90
        2
102
RTVSPost2010PropOp53
 70
     1
102
RTVSPost2010Prop54
  1
strokes_ogs.tif
102
RTVSPost2010PropOp54
 70
     1
102
RTVSPost2010Prop55
280
     0
102
RTVSPost2010PropOp55
 70
     1
102
RTVSPost2010Prop56
140
1.0
102
RTVSPost2010PropOp56
 70
     1
102
RTVSPost2010Prop57
140
1.0
102
RTVSPost2010PropOp57
 70
     1
  0
XRECORD
  5
28A
102
{ACAD_REACTORS
330
289
102
}
330
289
100
AcDbXrecord
280
     1
102
RTVSPropertyOp0
 70
     1
102
RTVSPropertyOp1
 70
     1
102
RTVSPropertyOp2
 70
     1
102
RTVSPropertyOp3
 70
     1
102
RTVSPropertyOp4
 70
     1
102
RTVSPropertyOp5
 70
     1
102
RTVSPropertyOp6
 70
     1
102
RTVSPropertyOp7
 70
     1
102
RTVSPropertyOp8
 70
     1
102
RTVSPropertyOp9
 70
     1
102
RTVSPropertyOp10
 70
     1
102
RTVSPropertyOp11
 70
     1
102
RTVSPropertyOp12
 70
     1
102
RTVSPropertyOp13
 70
     1
102
RTVSPropertyOp14
 70
     1
102
RTVSPropertyOp15
 70
     1
102
RTVSPropertyOp16
 70
     1
102
RTVSPropertyOp17
 70
     1
102
RTVSPropertyOp18
 70
     1
102
RTVSPropertyOp19
 70
     1
102
RTVSPropertyOp20
 70
     1
102
RTVSPropertyOp21
 70
     1
102
RTVSPropertyOp22
 70
     1
102
RTVSPropertyOp23
 70
     1
102
RTVSPropertyOp24
 70
     1
102
RTVSPropertyOp25
 70
     1
102
RTVSPropertyOp26
 70
     1
102
RTVSPropertyOp27
 70
     1
102
RTVSPropertyOp28
 70
     1
102
RTVSPropertyOp29
 70
     1
102
RTVSPropertyOp30
 70
     1
102
RTVSPropertyOp31
 70
     1
102
RTVSPropertyOp32
 70
     1
102
RTVSPropertyOp33
 70
     1
102
RTVSPropertyOp34
 70
     1
102
RTVSPropertyOp35
 70
     1
102
RTVSPropertyOp36
 70
     1
102
RTVSPropertyOp37
 70
     1
102
RTVSPropertyOp38
 70
     1
102
RTVSPropertyOp39
 70
     1
102
RTVSPropertyOp40
 70
     1
102
RTVSPropertyOp41
 70
     1
102
RTVSPropertyOp42
 70
     1
102
RTVSPropertyOp43
 70
     1
102
RTVSPropertyOp44
 70
     1
102
RTVSPropertyOp45
 70
     1
102
RTVSPropertyOp46
 70
     1
102
RTVSPropertyOp47
 70
     1
102
RTVSPropertyOp48
 70
     1
102
RTVSPropertyOp49
 70
     1
102
RTVSPropertyOp50
 70
     1
102
RTVSPropertyOp51
 70
     0
102
RTVSPropertyOp52
 70
     0
102
RTVSPropertyOp53
 70
     1
102
RTVSPropertyOp54
 70
     1
102
RTVSPropertyOp55
 70
     1
102
RTVSPropertyOp56
 70
     1
102
RTVSPropertyOp57
 70
     1
102
RTVSPost2010Prop28
280
     0
102
RTVSPost2010PropOp28
 70
     1
102
RTVSPost2010Prop29
280
     1
102
RTVSPost2010PropOp29
 70
     1
102
RTVSPost2010Prop30
280
     1
102
RTVSPost2010PropOp30
 70
     1
102
RTVSPost2010Prop31
280
     0
102
RTVSPost2010PropOp31
 70
     1
102
RTVSPost2010Prop32
280
     0
102
RTVSPost2010PropOp32
 70
     1
102
RTVSPost2010Prop33
280
     0
102
RTVSPost2010PropOp33
 70
     1
102
RTVSPost2010Prop34
280
     0
102
RTVSPost2010PropOp34
 70
     1
102
RTVSPost2010Prop35
280
     0
102
RTVSPost2010PropOp35
 70
     1
102
RTVSPost2010Prop36
280
     0
102
RTVSPost2010PropOp36
 70
     1
102
RTVSPost2010Prop37
 90
       50
102
RTVSPost2010PropOp37
 70
     1
102
RTVSPost2010Prop38
140
0.0
102
RTVSPost2010PropOp38
 70
     1
102
RTVSPost2010Prop39
140
1.0
102
RTVSPost2010PropOp39
 70
     1
102
RTVSPost2010Prop40
 90
        0
102
RTVSPost2010PropOp40
 70
     1
102
RTVSPost2010Prop41ColorIndex
 90
       18
102
RTVSPost2010Prop41ColorRGB
 90
        0
102
RTVSPost2010PropOp41
 70
     1
102
RTVSPost2010Prop42
 90
       50
102
RTVSPost2010PropOp42
 70
     1
102
RTVSPost2010Prop43
 90
        3
102
RTVSPost2010PropOp43
 70
     1
102
RTVSPost2010Prop44ColorIndex
 90
        5
102
RTVSPost2010Prop44ColorRGB
 90
      255
102
RTVSPost2010PropOp44
 70
     1
102
RTVSPost2010Prop45
280
     0
102
RTVSPost2010PropOp45
 70
     1
102
RTVSPost2010Prop46
 90
       50
102
RTVSPost2010PropOp46
 70
     1
102
RTVSPost2010Prop47
 90
       50
102
RTVSPost2010PropOp47
 70
     1
102
RTVSPost2010Prop48
 90
       50
102
RTVSPost2010PropOp48
 70
     1
102
RTVSPost2010Prop49
280
     0
102
RTVSPost2010PropOp49
 70
     1
102
RTVSPost2010Prop50
 90
       50
102
RTVSPost2010PropOp50
 70
     1
102
RTVSPost2010Prop51ColorIndex
 90
      256
102
RTVSPost2010Prop51ColorRGB
 90
-16777216
102
RTVSPost2010PropOp51
 70
     0
102
RTVSPost2010Prop52
140
1.0
102
RTVSPost2010PropOp52
 70
     0
102
RTVSPost2010Prop53
 90
        2
102
RTVSPost2010PropOp53
 70
     1
102
RTVSPost2010Prop54
  1
strokes_ogs.tif
102
RTVSPost2010PropOp54
 70
     1
102
RTVSPost2010Prop55
280
     0
102
RTVSPost2010PropOp55
 70
     1
102
RTVSPost2010Prop56
140
1.0
102
RTVSPost2010PropOp56
 70
     1
102
RTVSPost2010Prop57
140
1.0
102
RTVSPost2010PropOp57
 70
     1
  0
XRECORD
  5
290
102
{ACAD_REACTORS
330
28F
102
}
330
28F
100
AcDbXrecord
280
     1
102
RTVSPropertyOp0
 70
     1
102
RTVSPropertyOp1
 70
     1
102
RTVSPropertyOp2
 70
     1
102
RTVSPropertyOp3
 70
     1
102
RTVSPropertyOp4
 70
     1
102
RTVSPropertyOp5
 70
     1
102
RTVSPropertyOp6
 70
     1
102
RTVSPropertyOp7
 70
     1
102
RTVSPropertyOp8
 70
     1
102
RTVSPropertyOp9
 70
     1
102
RTVSPropertyOp10
 70
     1
102
RTVSPropertyOp11
 70
     1
102
RTVSPropertyOp12
 70
     1
102
RTVSPropertyOp13
 70
     1
102
RTVSPropertyOp14
 70
     1
102
RTVSPropertyOp15
 70
     1
102
RTVSPropertyOp16
 70
     1
102
RTVSPropertyOp17
 70
     1
102
RTVSPropertyOp18
 70
     1
102
RTVSPropertyOp19
 70
     1
102
RTVSPropertyOp20
 70
     1
102
RTVSPropertyOp21
 70
     1
102
RTVSPropertyOp22
 70
     1
102
RTVSPropertyOp23
 70
     1
102
RTVSPropertyOp24
 70
     1
102
RTVSPropertyOp25
 70
     1
102
RTVSPropertyOp26
 70
     1
102
RTVSPropertyOp27
 70
     1
102
RTVSPropertyOp28
 70
     1
102
RTVSPropertyOp29
 70
     1
102
RTVSPropertyOp30
 70
     1
102
RTVSPropertyOp31
 70
     1
102
RTVSPropertyOp32
 70
     1
102
RTVSPropertyOp33
 70
     1
102
RTVSPropertyOp34
 70
     1
102
RTVSPropertyOp35
 70
     1
102
RTVSPropertyOp36
 70
     1
102
RTVSPropertyOp37
 70
     1
102
RTVSPropertyOp38
 70
     1
102
RTVSPropertyOp39
 70
     1
102
RTVSPropertyOp40
 70
     1
102
RTVSPropertyOp41
 70
     1
102
RTVSPropertyOp42
 70
     1
102
RTVSPropertyOp43
 70
     1
102
RTVSPropertyOp44
 70
     1
102
RTVSPropertyOp45
 70
     1
102
RTVSPropertyOp46
 70
     1
102
RTVSPropertyOp47
 70
     1
102
RTVSPropertyOp48
 70
     1
102
RTVSPropertyOp49
 70
     1
102
RTVSPropertyOp50
 70
     1
102
RTVSPropertyOp51
 70
     0
102
RTVSPropertyOp52
 70
     0
102
RTVSPropertyOp53
 70
     1
102
RTVSPropertyOp54
 70
     1
102
RTVSPropertyOp55
 70
     1
102
RTVSPropertyOp56
 70
     1
102
RTVSPropertyOp57
 70
     1
102
RTVSPost2010Prop28
280
     0
102
RTVSPost2010PropOp28
 70
     1
102
RTVSPost2010Prop29
280
     1
102
RTVSPost2010PropOp29
 70
     1
102
RTVSPost2010Prop30
280
     1
102
RTVSPost2010PropOp30
 70
     1
102
RTVSPost2010Prop31
280
     0
102
RTVSPost2010PropOp31
 70
     1
102
RTVSPost2010Prop32
280
     0
102
RTVSPost2010PropOp32
 70
     1
102
RTVSPost2010Prop33
280
     0
102
RTVSPost2010PropOp33
 70
     1
102
RTVSPost2010Prop34
280
     0
102
RTVSPost2010PropOp34
 70
     1
102
RTVSPost2010Prop35
280
     0
102
RTVSPost2010PropOp35
 70
     1
102
RTVSPost2010Prop36
280
     0
102
RTVSPost2010PropOp36
 70
     1
102
RTVSPost2010Prop37
 90
       50
102
RTVSPost2010PropOp37
 70
     1
102
RTVSPost2010Prop38
140
0.0
102
RTVSPost2010PropOp38
 70
     1
102
RTVSPost2010Prop39
140
1.0
102
RTVSPost2010PropOp39
 70
     1
102
RTVSPost2010Prop40
 90
        0
102
RTVSPost2010PropOp40
 70
     1
102
RTVSPost2010Prop41ColorIndex
 90
       18
102
RTVSPost2010Prop41ColorRGB
 90
        0
102
RTVSPost2010PropOp41
 70
     1
102
RTVSPost2010Prop42
 90
       50
102
RTVSPost2010PropOp42
 70
     1
102
RTVSPost2010Prop43
 90
        3
102
RTVSPost2010PropOp43
 70
     1
102
RTVSPost2010Prop44ColorIndex
 90
        5
102
RTVSPost2010Prop44ColorRGB
 90
      255
102
RTVSPost2010PropOp44
 70
     1
102
RTVSPost2010Prop45
280
     0
102
RTVSPost2010PropOp45
 70
     1
102
RTVSPost2010Prop46
 90
       50
102
RTVSPost2010PropOp46
 70
     1
102
RTVSPost2010Prop47
 90
       50
102
RTVSPost2010PropOp47
 70
     1
102
RTVSPost2010Prop48
 90
       50
102
RTVSPost2010PropOp48
 70
     1
102
RTVSPost2010Prop49
280
     0
102
RTVSPost2010PropOp49
 70
     1
102
RTVSPost2010Prop50
 90
       50
102
RTVSPost2010PropOp50
 70
     1
102
RTVSPost2010Prop51ColorIndex
 90
      256
102
RTVSPost2010Prop51ColorRGB
 90
-16777216
102
RTVSPost2010PropOp51
 70
     0
102
RTVSPost2010Prop52
140
1.0
102
RTVSPost2010PropOp52
 70
     0
102
RTVSPost2010Prop53
 90
        2
102
RTVSPost2010PropOp53
 70
     1
102
RTVSPost2010Prop54
  1
strokes_ogs.tif
102
RTVSPost2010PropOp54
 70
     1
102
RTVSPost2010Prop55
280
     0
102
RTVSPost2010PropOp55
 70
     1
102
RTVSPost2010Prop56
140
1.0
102
RTVSPost2010PropOp56
 70
     1
102
RTVSPost2010Prop57
140
1.0
102
RTVSPost2010PropOp57
 70
     1
  0
XRECORD
  5
2A4
102
{ACAD_REACTORS
330
2A3
102
}
330
2A3
100
AcDbXrecord
280
     1
102
RTVSPropertyOp0
 70
     0
102
RTVSPropertyOp1
 70
     0
102
RTVSPropertyOp2
 70
     0
102
RTVSPropertyOp3
 70
     0
102
RTVSPropertyOp4
 70
     0
102
RTVSPropertyOp5
 70
     0
102
RTVSPropertyOp6
 70
     0
102
RTVSPropertyOp7
 70
     0
102
RTVSPropertyOp8
 70
     0
102
RTVSPropertyOp9
 70
     0
102
RTVSPropertyOp10
 70
     0
102
RTVSPropertyOp11
 70
     0
102
RTVSPropertyOp12
 70
     0
102
RTVSPropertyOp13
 70
     0
102
RTVSPropertyOp14
 70
     0
102
RTVSPropertyOp15
 70
     0
102
RTVSPropertyOp16
 70
     0
102
RTVSPropertyOp17
 70
     0
102
RTVSPropertyOp18
 70
     0
102
RTVSPropertyOp19
 70
     0
102
RTVSPropertyOp20
 70
     0
102
RTVSPropertyOp21
 70
     0
102
RTVSPropertyOp22
 70
     0
102
RTVSPropertyOp23
 70
     0
102
RTVSPropertyOp24
 70
     0
102
RTVSPropertyOp25
 70
     0
102
RTVSPropertyOp26
 70
     0
102
RTVSPropertyOp27
 70
     0
102
RTVSPropertyOp28
 70
     1
102
RTVSPropertyOp29
 70
     1
102
RTVSPropertyOp30
 70
     1
102
RTVSPropertyOp31
 70
     1
102
RTVSPropertyOp32
 70
     1
102
RTVSPropertyOp33
 70
     1
102
RTVSPropertyOp34
 70
     1
102
RTVSPropertyOp35
 70
     1
102
RTVSPropertyOp36
 70
     1
102
RTVSPropertyOp37
 70
     1
102
RTVSPropertyOp38
 70
     1
102
RTVSPropertyOp39
 70
     1
102
RTVSPropertyOp40
 70
     1
102
RTVSPropertyOp41
 70
     1
102
RTVSPropertyOp42
 70
     1
102
RTVSPropertyOp43
 70
     1
102
RTVSPropertyOp44
 70
     1
102
RTVSPropertyOp45
 70
     1
102
RTVSPropertyOp46
 70
     1
102
RTVSPropertyOp47
 70
     1
102
RTVSPropertyOp48
 70
     1
102
RTVSPropertyOp49
 70
     1
102
RTVSPropertyOp50
 70
     1
102
RTVSPropertyOp51
 70
     0
102
RTVSPropertyOp52
 70
     0
102
RTVSPropertyOp53
 70
     1
102
RTVSPropertyOp54
 70
     1
102
RTVSPropertyOp55
 70
     1
102
RTVSPropertyOp56
 70
     1
102
RTVSPropertyOp57
 70
     1
102
RTVSPost2010Prop28
280
     0
102
RTVSPost2010PropOp28
 70
     1
102
RTVSPost2010Prop29
280
     1
102
RTVSPost2010PropOp29
 70
     1
102
RTVSPost2010Prop30
280
     1
102
RTVSPost2010PropOp30
 70
     1
102
RTVSPost2010Prop31
280
     0
102
RTVSPost2010PropOp31
 70
     1
102
RTVSPost2010Prop32
280
     0
102
RTVSPost2010PropOp32
 70
     1
102
RTVSPost2010Prop33
280
     0
102
RTVSPost2010PropOp33
 70
     1
102
RTVSPost2010Prop34
280
     0
102
RTVSPost2010PropOp34
 70
     1
102
RTVSPost2010Prop35
280
     0
102
RTVSPost2010PropOp35
 70
     1
102
RTVSPost2010Prop36
280
     0
102
RTVSPost2010PropOp36
 70
     1
102
RTVSPost2010Prop37
 90
       50
102
RTVSPost2010PropOp37
 70
     1
102
RTVSPost2010Prop38
140
0.0
102
RTVSPost2010PropOp38
 70
     1
102
RTVSPost2010Prop39
140
1.0
102
RTVSPost2010PropOp39
 70
     1
102
RTVSPost2010Prop40
 90
        0
102
RTVSPost2010PropOp40
 70
     1
102
RTVSPost2010Prop41ColorIndex
 90
       18
102
RTVSPost2010Prop41ColorRGB
 90
        0
102
RTVSPost2010PropOp41
 70
     1
102
RTVSPost2010Prop42
 90
       50
102
RTVSPost2010PropOp42
 70
     1
102
RTVSPost2010Prop43
 90
        3
102
RTVSPost2010PropOp43
 70
     1
102
RTVSPost2010Prop44ColorIndex
 90
        5
102
RTVSPost2010Prop44ColorRGB
 90
      255
102
RTVSPost2010PropOp44
 70
     1
102
RTVSPost2010Prop45
280
     0
102
RTVSPost2010PropOp45
 70
     1
102
RTVSPost2010Prop46
 90
       50
102
RTVSPost2010PropOp46
 70
     1
102
RTVSPost2010Prop47
 90
       50
102
RTVSPost2010PropOp47
 70
     1
102
RTVSPost2010Prop48
 90
       50
102
RTVSPost2010PropOp48
 70
     1
102
RTVSPost2010Prop49
280
     0
102
RTVSPost2010PropOp49
 70
     1
102
RTVSPost2010Prop50
 90
       50
102
RTVSPost2010PropOp50
 70
     1
102
RTVSPost2010Prop51ColorIndex
 90
      256
102
RTVSPost2010Prop51ColorRGB
 90
-16777216
102
RTVSPost2010PropOp51
 70
     0
102
RTVSPost2010Prop52
140
1.0
102
RTVSPost2010PropOp52
 70
     0
102
RTVSPost2010Prop53
 90
        2
102
RTVSPost2010PropOp53
 70
     1
102
RTVSPost2010Prop54
  1
strokes_ogs.tif
102
RTVSPost2010PropOp54
 70
     1
102
RTVSPost2010Prop55
280
     0
102
RTVSPost2010PropOp55
 70
     1
102
RTVSPost2010Prop56
140
1.0
102
RTVSPost2010PropOp56
 70
     1
102
RTVSPost2010Prop57
140
1.0
102
RTVSPost2010PropOp57
 70
     1
  0
XRECORD
  5
29E
102
{ACAD_REACTORS
330
29D
102
}
330
29D
100
AcDbXrecord
280
     1
102
RTVSPropertyOp0
 70
     1
102
RTVSPropertyOp1
 70
     1
102
RTVSPropertyOp2
 70
     1
102
RTVSPropertyOp3
 70
     1
102
RTVSPropertyOp4
 70
     1
102
RTVSPropertyOp5
 70
     1
102
RTVSPropertyOp6
 70
     1
102
RTVSPropertyOp7
 70
     1
102
RTVSPropertyOp8
 70
     1
102
RTVSPropertyOp9
 70
     1
102
RTVSPropertyOp10
 70
     1
102
RTVSPropertyOp11
 70
     1
102
RTVSPropertyOp12
 70
     1
102
RTVSPropertyOp13
 70
     1
102
RTVSPropertyOp14
 70
     1
102
RTVSPropertyOp15
 70
     1
102
RTVSPropertyOp16
 70
     1
102
RTVSPropertyOp17
 70
     1
102
RTVSPropertyOp18
 70
     1
102
RTVSPropertyOp19
 70
     1
102
RTVSPropertyOp20
 70
     1
102
RTVSPropertyOp21
 70
     1
102
RTVSPropertyOp22
 70
     1
102
RTVSPropertyOp23
 70
     1
102
RTVSPropertyOp24
 70
     1
102
RTVSPropertyOp25
 70
     1
102
RTVSPropertyOp26
 70
     1
102
RTVSPropertyOp27
 70
     1
102
RTVSPropertyOp28
 70
     1
102
RTVSPropertyOp29
 70
     1
102
RTVSPropertyOp30
 70
     1
102
RTVSPropertyOp31
 70
     1
102
RTVSPropertyOp32
 70
     1
102
RTVSPropertyOp33
 70
     1
102
RTVSPropertyOp34
 70
     1
102
RTVSPropertyOp35
 70
     1
102
RTVSPropertyOp36
 70
     1
102
RTVSPropertyOp37
 70
     1
102
RTVSPropertyOp38
 70
     1
102
RTVSPropertyOp39
 70
     1
102
RTVSPropertyOp40
 70
     1
102
RTVSPropertyOp41
 70
     1
102
RTVSPropertyOp42
 70
     1
102
RTVSPropertyOp43
 70
     1
102
RTVSPropertyOp44
 70
     1
102
RTVSPropertyOp45
 70
     1
102
RTVSPropertyOp46
 70
     1
102
RTVSPropertyOp47
 70
     1
102
RTVSPropertyOp48
 70
     1
102
RTVSPropertyOp49
 70
     1
102
RTVSPropertyOp50
 70
     1
102
RTVSPropertyOp51
 70
     0
102
RTVSPropertyOp52
 70
     0
102
RTVSPropertyOp53
 70
     1
102
RTVSPropertyOp54
 70
     1
102
RTVSPropertyOp55
 70
     1
102
RTVSPropertyOp56
 70
     1
102
RTVSPropertyOp57
 70
     1
102
RTVSPost2010Prop28
280
     0
102
RTVSPost2010PropOp28
 70
     1
102
RTVSPost2010Prop29
280
     1
102
RTVSPost2010PropOp29
 70
     1
102
RTVSPost2010Prop30
280
     1
102
RTVSPost2010PropOp30
 70
     1
102
RTVSPost2010Prop31
280
     0
102
RTVSPost2010PropOp31
 70
     1
102
RTVSPost2010Prop32
280
     0
102
RTVSPost2010PropOp32
 70
     1
102
RTVSPost2010Prop33
280
     0
102
RTVSPost2010PropOp33
 70
     1
102
RTVSPost2010Prop34
280
     0
102
RTVSPost2010PropOp34
 70
     1
102
RTVSPost2010Prop35
280
     0
102
RTVSPost2010PropOp35
 70
     1
102
RTVSPost2010Prop36
280
     0
102
RTVSPost2010PropOp36
 70
     1
102
RTVSPost2010Prop37
 90
       50
102
RTVSPost2010PropOp37
 70
     1
102
RTVSPost2010Prop38
140
0.0
102
RTVSPost2010PropOp38
 70
     1
102
RTVSPost2010Prop39
140
1.0
102
RTVSPost2010PropOp39
 70
     1
102
RTVSPost2010Prop40
 90
        0
102
RTVSPost2010PropOp40
 70
     1
102
RTVSPost2010Prop41ColorIndex
 90
       18
102
RTVSPost2010Prop41ColorRGB
 90
        0
102
RTVSPost2010PropOp41
 70
     1
102
RTVSPost2010Prop42
 90
       50
102
RTVSPost2010PropOp42
 70
     1
102
RTVSPost2010Prop43
 90
        3
102
RTVSPost2010PropOp43
 70
     1
102
RTVSPost2010Prop44ColorIndex
 90
        5
102
RTVSPost2010Prop44ColorRGB
 90
      255
102
RTVSPost2010PropOp44
 70
     1
102
RTVSPost2010Prop45
280
     0
102
RTVSPost2010PropOp45
 70
     1
102
RTVSPost2010Prop46
 90
       50
102
RTVSPost2010PropOp46
 70
     1
102
RTVSPost2010Prop47
 90
       50
102
RTVSPost2010PropOp47
 70
     1
102
RTVSPost2010Prop48
 90
       50
102
RTVSPost2010PropOp48
 70
     1
102
RTVSPost2010Prop49
280
     0
102
RTVSPost2010PropOp49
 70
     1
102
RTVSPost2010Prop50
 90
       50
102
RTVSPost2010PropOp50
 70
     1
102
RTVSPost2010Prop51ColorIndex
 90
      256
102
RTVSPost2010Prop51ColorRGB
 90
-16777216
102
RTVSPost2010PropOp51
 70
     0
102
RTVSPost2010Prop52
140
1.0
102
RTVSPost2010PropOp52
 70
     0
102
RTVSPost2010Prop53
 90
        2
102
RTVSPost2010PropOp53
 70
     1
102
RTVSPost2010Prop54
  1
strokes_ogs.tif
102
RTVSPost2010PropOp54
 70
     1
102
RTVSPost2010Prop55
280
     0
102
RTVSPost2010PropOp55
 70
     1
102
RTVSPost2010Prop56
140
1.0
102
RTVSPost2010PropOp56
 70
     1
102
RTVSPost2010Prop57
140
1.0
102
RTVSPost2010PropOp57
 70
     1
  0
XRECORD
  5
2A6
102
{ACAD_REACTORS
330
2A5
102
}
330
2A5
100
AcDbXrecord
280
     1
102
RTVSPropertyOp0
 70
     0
102
RTVSPropertyOp1
 70
     0
102
RTVSPropertyOp2
 70
     0
102
RTVSPropertyOp3
 70
     0
102
RTVSPropertyOp4
 70
     0
102
RTVSPropertyOp5
 70
     0
102
RTVSPropertyOp6
 70
     0
102
RTVSPropertyOp7
 70
     0
102
RTVSPropertyOp8
 70
     0
102
RTVSPropertyOp9
 70
     0
102
RTVSPropertyOp10
 70
     0
102
RTVSPropertyOp11
 70
     0
102
RTVSPropertyOp12
 70
     0
102
RTVSPropertyOp13
 70
     0
102
RTVSPropertyOp14
 70
     0
102
RTVSPropertyOp15
 70
     0
102
RTVSPropertyOp16
 70
     0
102
RTVSPropertyOp17
 70
     0
102
RTVSPropertyOp18
 70
     0
102
RTVSPropertyOp19
 70
     0
102
RTVSPropertyOp20
 70
     0
102
RTVSPropertyOp21
 70
     0
102
RTVSPropertyOp22
 70
     0
102
RTVSPropertyOp23
 70
     0
102
RTVSPropertyOp24
 70
     0
102
RTVSPropertyOp25
 70
     0
102
RTVSPropertyOp26
 70
     0
102
RTVSPropertyOp27
 70
     0
102
RTVSPropertyOp28
 70
     1
102
RTVSPropertyOp29
 70
     1
102
RTVSPropertyOp30
 70
     1
102
RTVSPropertyOp31
 70
     1
102
RTVSPropertyOp32
 70
     1
102
RTVSPropertyOp33
 70
     1
102
RTVSPropertyOp34
 70
     1
102
RTVSPropertyOp35
 70
     1
102
RTVSPropertyOp36
 70
     1
102
RTVSPropertyOp37
 70
     1
102
RTVSPropertyOp38
 70
     1
102
RTVSPropertyOp39
 70
     1
102
RTVSPropertyOp40
 70
     1
102
RTVSPropertyOp41
 70
     1
102
RTVSPropertyOp42
 70
     1
102
RTVSPropertyOp43
 70
     1
102
RTVSPropertyOp44
 70
     1
102
RTVSPropertyOp45
 70
     1
102
RTVSPropertyOp46
 70
     1
102
RTVSPropertyOp47
 70
     1
102
RTVSPropertyOp48
 70
     1
102
RTVSPropertyOp49
 70
     1
102
RTVSPropertyOp50
 70
     1
102
RTVSPropertyOp51
 70
     0
102
RTVSPropertyOp52
 70
     0
102
RTVSPropertyOp53
 70
     1
102
RTVSPropertyOp54
 70
     1
102
RTVSPropertyOp55
 70
     1
102
RTVSPropertyOp56
 70
     1
102
RTVSPropertyOp57
 70
     1
102
RTVSPost2010Prop28
280
     0
102
RTVSPost2010PropOp28
 70
     1
102
RTVSPost2010Prop29
280
     1
102
RTVSPost2010PropOp29
 70
     1
102
RTVSPost2010Prop30
280
     1
102
RTVSPost2010PropOp30
 70
     1
102
RTVSPost2010Prop31
280
     0
102
RTVSPost2010PropOp31
 70
     1
102
RTVSPost2010Prop32
280
     0
102
RTVSPost2010PropOp32
 70
     1
102
RTVSPost2010Prop33
280
     0
102
RTVSPost2010PropOp33
 70
     1
102
RTVSPost2010Prop34
280
     0
102
RTVSPost2010PropOp34
 70
     1
102
RTVSPost2010Prop35
280
     0
102
RTVSPost2010PropOp35
 70
     1
102
RTVSPost2010Prop36
280
     0
102
RTVSPost2010PropOp36
 70
     1
102
RTVSPost2010Prop37
 90
       50
102
RTVSPost2010PropOp37
 70
     1
102
RTVSPost2010Prop38
140
0.0
102
RTVSPost2010PropOp38
 70
     1
102
RTVSPost2010Prop39
140
1.0
102
RTVSPost2010PropOp39
 70
     1
102
RTVSPost2010Prop40
 90
        0
102
RTVSPost2010PropOp40
 70
     1
102
RTVSPost2010Prop41ColorIndex
 90
       18
102
RTVSPost2010Prop41ColorRGB
 90
        0
102
RTVSPost2010PropOp41
 70
     1
102
RTVSPost2010Prop42
 90
       50
102
RTVSPost2010PropOp42
 70
     1
102
RTVSPost2010Prop43
 90
        3
102
RTVSPost2010PropOp43
 70
     1
102
RTVSPost2010Prop44ColorIndex
 90
        5
102
RTVSPost2010Prop44ColorRGB
 90
      255
102
RTVSPost2010PropOp44
 70
     1
102
RTVSPost2010Prop45
280
     0
102
RTVSPost2010PropOp45
 70
     1
102
RTVSPost2010Prop46
 90
       50
102
RTVSPost2010PropOp46
 70
     1
102
RTVSPost2010Prop47
 90
       50
102
RTVSPost2010PropOp47
 70
     1
102
RTVSPost2010Prop48
 90
       50
102
RTVSPost2010PropOp48
 70
     1
102
RTVSPost2010Prop49
280
     0
102
RTVSPost2010PropOp49
 70
     1
102
RTVSPost2010Prop50
 90
       50
102
RTVSPost2010PropOp50
 70
     1
102
RTVSPost2010Prop51ColorIndex
 90
      256
102
RTVSPost2010Prop51ColorRGB
 90
-16777216
102
RTVSPost2010PropOp51
 70
     0
102
RTVSPost2010Prop52
140
1.0
102
RTVSPost2010PropOp52
 70
     0
102
RTVSPost2010Prop53
 90
        2
102
RTVSPost2010PropOp53
 70
     1
102
RTVSPost2010Prop54
  1
strokes_ogs.tif
102
RTVSPost2010PropOp54
 70
     1
102
RTVSPost2010Prop55
280
     0
102
RTVSPost2010PropOp55
 70
     1
102
RTVSPost2010Prop56
140
1.0
102
RTVSPost2010PropOp56
 70
     1
102
RTVSPost2010Prop57
140
1.0
102
RTVSPost2010PropOp57
 70
     1
  0
XRECORD
  5
294
102
{ACAD_REACTORS
330
293
102
}
330
293
100
AcDbXrecord
280
     1
102
RTVSPropertyOp0
 70
     1
102
RTVSPropertyOp1
 70
     1
102
RTVSPropertyOp2
 70
     1
102
RTVSPropertyOp3
 70
     1
102
RTVSPropertyOp4
 70
     1
102
RTVSPropertyOp5
 70
     1
102
RTVSPropertyOp6
 70
     1
102
RTVSPropertyOp7
 70
     1
102
RTVSPropertyOp8
 70
     1
102
RTVSPropertyOp9
 70
     1
102
RTVSPropertyOp10
 70
     1
102
RTVSPropertyOp11
 70
     1
102
RTVSPropertyOp12
 70
     1
102
RTVSPropertyOp13
 70
     1
102
RTVSPropertyOp14
 70
     1
102
RTVSPropertyOp15
 70
     1
102
RTVSPropertyOp16
 70
     1
102
RTVSPropertyOp17
 70
     1
102
RTVSPropertyOp18
 70
     1
102
RTVSPropertyOp19
 70
     1
102
RTVSPropertyOp20
 70
     1
102
RTVSPropertyOp21
 70
     1
102
RTVSPropertyOp22
 70
     1
102
RTVSPropertyOp23
 70
     1
102
RTVSPropertyOp24
 70
     1
102
RTVSPropertyOp25
 70
     1
102
RTVSPropertyOp26
 70
     1
102
RTVSPropertyOp27
 70
     1
102
RTVSPropertyOp28
 70
     1
102
RTVSPropertyOp29
 70
     1
102
RTVSPropertyOp30
 70
     1
102
RTVSPropertyOp31
 70
     1
102
RTVSPropertyOp32
 70
     1
102
RTVSPropertyOp33
 70
     1
102
RTVSPropertyOp34
 70
     1
102
RTVSPropertyOp35
 70
     1
102
RTVSPropertyOp36
 70
     1
102
RTVSPropertyOp37
 70
     1
102
RTVSPropertyOp38
 70
     1
102
RTVSPropertyOp39
 70
     1
102
RTVSPropertyOp40
 70
     1
102
RTVSPropertyOp41
 70
     1
102
RTVSPropertyOp42
 70
     1
102
RTVSPropertyOp43
 70
     1
102
RTVSPropertyOp44
 70
     1
102
RTVSPropertyOp45
 70
     1
102
RTVSPropertyOp46
 70
     1
102
RTVSPropertyOp47
 70
     1
102
RTVSPropertyOp48
 70
     1
102
RTVSPropertyOp49
 70
     1
102
RTVSPropertyOp50
 70
     1
102
RTVSPropertyOp51
 70
     0
102
RTVSPropertyOp52
 70
     0
102
RTVSPropertyOp53
 70
     1
102
RTVSPropertyOp54
 70
     1
102
RTVSPropertyOp55
 70
     1
102
RTVSPropertyOp56
 70
     1
102
RTVSPropertyOp57
 70
     1
102
RTVSPost2010Prop28
280
     0
102
RTVSPost2010PropOp28
 70
     1
102
RTVSPost2010Prop29
280
     1
102
RTVSPost2010PropOp29
 70
     1
102
RTVSPost2010Prop30
280
     1
102
RTVSPost2010PropOp30
 70
     1
102
RTVSPost2010Prop31
280
     0
102
RTVSPost2010PropOp31
 70
     1
102
RTVSPost2010Prop32
280
     0
102
RTVSPost2010PropOp32
 70
     1
102
RTVSPost2010Prop33
280
     0
102
RTVSPost2010PropOp33
 70
     1
102
RTVSPost2010Prop34
280
     0
102
RTVSPost2010PropOp34
 70
     1
102
RTVSPost2010Prop35
280
     0
102
RTVSPost2010PropOp35
 70
     1
102
RTVSPost2010Prop36
280
     0
102
RTVSPost2010PropOp36
 70
     1
102
RTVSPost2010Prop37
 90
       50
102
RTVSPost2010PropOp37
 70
     1
102
RTVSPost2010Prop38
140
0.0
102
RTVSPost2010PropOp38
 70
     1
102
RTVSPost2010Prop39
140
1.0
102
RTVSPost2010PropOp39
 70
     1
102
RTVSPost2010Prop40
 90
        0
102
RTVSPost2010PropOp40
 70
     1
102
RTVSPost2010Prop41ColorIndex
 90
       18
102
RTVSPost2010Prop41ColorRGB
 90
        0
102
RTVSPost2010PropOp41
 70
     1
102
RTVSPost2010Prop42
 90
       50
102
RTVSPost2010PropOp42
 70
     1
102
RTVSPost2010Prop43
 90
        3
102
RTVSPost2010PropOp43
 70
     1
102
RTVSPost2010Prop44ColorIndex
 90
        5
102
RTVSPost2010Prop44ColorRGB
 90
      255
102
RTVSPost2010PropOp44
 70
     1
102
RTVSPost2010Prop45
280
     0
102
RTVSPost2010PropOp45
 70
     1
102
RTVSPost2010Prop46
 90
       50
102
RTVSPost2010PropOp46
 70
     1
102
RTVSPost2010Prop47
 90
       50
102
RTVSPost2010PropOp47
 70
     1
102
RTVSPost2010Prop48
 90
       50
102
RTVSPost2010PropOp48
 70
     1
102
RTVSPost2010Prop49
280
     0
102
RTVSPost2010PropOp49
 70
     1
102
RTVSPost2010Prop50
 90
       50
102
RTVSPost2010PropOp50
 70
     1
102
RTVSPost2010Prop51ColorIndex
 90
      256
102
RTVSPost2010Prop51ColorRGB
 90
-16777216
102
RTVSPost2010PropOp51
 70
     0
102
RTVSPost2010Prop52
140
1.0
102
RTVSPost2010PropOp52
 70
     0
102
RTVSPost2010Prop53
 90
        2
102
RTVSPost2010PropOp53
 70
     1
102
RTVSPost2010Prop54
  1
strokes_ogs.tif
102
RTVSPost2010PropOp54
 70
     1
102
RTVSPost2010Prop55
280
     0
102
RTVSPost2010PropOp55
 70
     1
102
RTVSPost2010Prop56
140
1.0
102
RTVSPost2010PropOp56
 70
     1
102
RTVSPost2010Prop57
140
1.0
102
RTVSPost2010PropOp57
 70
     1
  0
XRECORD
  5
2B2
102
{ACAD_REACTORS
330
2B1
102
}
330
2B1
100
AcDbXrecord
280
     1
102
RTVSPropertyOp0
 70
     1
102
RTVSPropertyOp1
 70
     1
102
RTVSPropertyOp2
 70
     1
102
RTVSPropertyOp3
 70
     1
102
RTVSPropertyOp4
 70
     1
102
RTVSPropertyOp5
 70
     1
102
RTVSPropertyOp6
 70
     1
102
RTVSPropertyOp7
 70
     1
102
RTVSPropertyOp8
 70
     1
102
RTVSPropertyOp9
 70
     1
102
RTVSPropertyOp10
 70
     1
102
RTVSPropertyOp11
 70
     1
102
RTVSPropertyOp12
 70
     1
102
RTVSPropertyOp13
 70
     1
102
RTVSPropertyOp14
 70
     1
102
RTVSPropertyOp15
 70
     1
102
RTVSPropertyOp16
 70
     1
102
RTVSPropertyOp17
 70
     1
102
RTVSPropertyOp18
 70
     1
102
RTVSPropertyOp19
 70
     1
102
RTVSPropertyOp20
 70
     1
102
RTVSPropertyOp21
 70
     1
102
RTVSPropertyOp22
 70
     1
102
RTVSPropertyOp23
 70
     1
102
RTVSPropertyOp24
 70
     1
102
RTVSPropertyOp25
 70
     1
102
RTVSPropertyOp26
 70
     1
102
RTVSPropertyOp27
 70
     1
102
RTVSPropertyOp28
 70
     1
102
RTVSPropertyOp29
 70
     1
102
RTVSPropertyOp30
 70
     1
102
RTVSPropertyOp31
 70
     1
102
RTVSPropertyOp32
 70
     1
102
RTVSPropertyOp33
 70
     1
102
RTVSPropertyOp34
 70
     1
102
RTVSPropertyOp35
 70
     1
102
RTVSPropertyOp36
 70
     1
102
RTVSPropertyOp37
 70
     1
102
RTVSPropertyOp38
 70
     1
102
RTVSPropertyOp39
 70
     1
102
RTVSPropertyOp40
 70
     1
102
RTVSPropertyOp41
 70
     1
102
RTVSPropertyOp42
 70
     1
102
RTVSPropertyOp43
 70
     1
102
RTVSPropertyOp44
 70
     1
102
RTVSPropertyOp45
 70
     1
102
RTVSPropertyOp46
 70
     1
102
RTVSPropertyOp47
 70
     1
102
RTVSPropertyOp48
 70
     1
102
RTVSPropertyOp49
 70
     1
102
RTVSPropertyOp50
 70
     1
102
RTVSPropertyOp51
 70
     0
102
RTVSPropertyOp52
 70
     0
102
RTVSPropertyOp53
 70
     1
102
RTVSPropertyOp54
 70
     1
102
RTVSPropertyOp55
 70
     1
102
RTVSPropertyOp56
 70
     1
102
RTVSPropertyOp57
 70
     1
102
RTVSPost2010Prop28
280
     0
102
RTVSPost2010PropOp28
 70
     1
102
RTVSPost2010Prop29
280
     1
102
RTVSPost2010PropOp29
 70
     1
102
RTVSPost2010Prop30
280
     1
102
RTVSPost2010PropOp30
 70
     1
102
RTVSPost2010Prop31
280
     0
102
RTVSPost2010PropOp31
 70
     1
102
RTVSPost2010Prop32
280
     0
102
RTVSPost2010PropOp32
 70
     1
102
RTVSPost2010Prop33
280
     0
102
RTVSPost2010PropOp33
 70
     1
102
RTVSPost2010Prop34
280
     0
102
RTVSPost2010PropOp34
 70
     1
102
RTVSPost2010Prop35
280
     0
102
RTVSPost2010PropOp35
 70
     1
102
RTVSPost2010Prop36
280
     0
102
RTVSPost2010PropOp36
 70
     1
102
RTVSPost2010Prop37
 90
       50
102
RTVSPost2010PropOp37
 70
     1
102
RTVSPost2010Prop38
140
0.0
102
RTVSPost2010PropOp38
 70
     1
102
RTVSPost2010Prop39
140
1.0
102
RTVSPost2010PropOp39
 70
     1
102
RTVSPost2010Prop40
 90
        0
102
RTVSPost2010PropOp40
 70
     1
102
RTVSPost2010Prop41ColorIndex
 90
       18
102
RTVSPost2010Prop41ColorRGB
 90
        0
102
RTVSPost2010PropOp41
 70
     1
102
RTVSPost2010Prop42
 90
       50
102
RTVSPost2010PropOp42
 70
     1
102
RTVSPost2010Prop43
 90
        3
102
RTVSPost2010PropOp43
 70
     1
102
RTVSPost2010Prop44ColorIndex
 90
        5
102
RTVSPost2010Prop44ColorRGB
 90
      255
102
RTVSPost2010PropOp44
 70
     1
102
RTVSPost2010Prop45
280
     0
102
RTVSPost2010PropOp45
 70
     1
102
RTVSPost2010Prop46
 90
       50
102
RTVSPost2010PropOp46
 70
     1
102
RTVSPost2010Prop47
 90
       50
102
RTVSPost2010PropOp47
 70
     1
102
RTVSPost2010Prop48
 90
       50
102
RTVSPost2010PropOp48
 70
     1
102
RTVSPost2010Prop49
280
     0
102
RTVSPost2010PropOp49
 70
     1
102
RTVSPost2010Prop50
 90
       50
102
RTVSPost2010PropOp50
 70
     1
102
RTVSPost2010Prop51ColorIndex
 90
      256
102
RTVSPost2010Prop51ColorRGB
 90
-16777216
102
RTVSPost2010PropOp51
 70
     0
102
RTVSPost2010Prop52
140
1.0
102
RTVSPost2010PropOp52
 70
     0
102
RTVSPost2010Prop53
 90
        2
102
RTVSPost2010PropOp53
 70
     1
102
RTVSPost2010Prop54
  1
strokes_ogs.tif
102
RTVSPost2010PropOp54
 70
     1
102
RTVSPost2010Prop55
280
     0
102
RTVSPost2010PropOp55
 70
     1
102
RTVSPost2010Prop56
140
1.0
102
RTVSPost2010PropOp56
 70
     1
102
RTVSPost2010Prop57
140
1.0
102
RTVSPost2010PropOp57
 70
     1
  0
XRECORD
  5
2B0
102
{ACAD_REACTORS
330
2AF
102
}
330
2AF
100
AcDbXrecord
280
     1
102
RTVSPropertyOp0
 70
     1
102
RTVSPropertyOp1
 70
     1
102
RTVSPropertyOp2
 70
     1
102
RTVSPropertyOp3
 70
     1
102
RTVSPropertyOp4
 70
     1
102
RTVSPropertyOp5
 70
     1
102
RTVSPropertyOp6
 70
     1
102
RTVSPropertyOp7
 70
     1
102
RTVSPropertyOp8
 70
     1
102
RTVSPropertyOp9
 70
     1
102
RTVSPropertyOp10
 70
     1
102
RTVSPropertyOp11
 70
     1
102
RTVSPropertyOp12
 70
     1
102
RTVSPropertyOp13
 70
     1
102
RTVSPropertyOp14
 70
     1
102
RTVSPropertyOp15
 70
     1
102
RTVSPropertyOp16
 70
     1
102
RTVSPropertyOp17
 70
     1
102
RTVSPropertyOp18
 70
     1
102
RTVSPropertyOp19
 70
     1
102
RTVSPropertyOp20
 70
     1
102
RTVSPropertyOp21
 70
     1
102
RTVSPropertyOp22
 70
     1
102
RTVSPropertyOp23
 70
     1
102
RTVSPropertyOp24
 70
     1
102
RTVSPropertyOp25
 70
     1
102
RTVSPropertyOp26
 70
     1
102
RTVSPropertyOp27
 70
     1
102
RTVSPropertyOp28
 70
     1
102
RTVSPropertyOp29
 70
     1
102
RTVSPropertyOp30
 70
     1
102
RTVSPropertyOp31
 70
     1
102
RTVSPropertyOp32
 70
     1
102
RTVSPropertyOp33
 70
     1
102
RTVSPropertyOp34
 70
     1
102
RTVSPropertyOp35
 70
     1
102
RTVSPropertyOp36
 70
     1
102
RTVSPropertyOp37
 70
     1
102
RTVSPropertyOp38
 70
     1
102
RTVSPropertyOp39
 70
     1
102
RTVSPropertyOp40
 70
     1
102
RTVSPropertyOp41
 70
     1
102
RTVSPropertyOp42
 70
     1
102
RTVSPropertyOp43
 70
     1
102
RTVSPropertyOp44
 70
     1
102
RTVSPropertyOp45
 70
     1
102
RTVSPropertyOp46
 70
     1
102
RTVSPropertyOp47
 70
     1
102
RTVSPropertyOp48
 70
     1
102
RTVSPropertyOp49
 70
     1
102
RTVSPropertyOp50
 70
     1
102
RTVSPropertyOp51
 70
     0
102
RTVSPropertyOp52
 70
     0
102
RTVSPropertyOp53
 70
     1
102
RTVSPropertyOp54
 70
     1
102
RTVSPropertyOp55
 70
     1
102
RTVSPropertyOp56
 70
     1
102
RTVSPropertyOp57
 70
     1
102
RTVSPost2010Prop28
280
     0
102
RTVSPost2010PropOp28
 70
     1
102
RTVSPost2010Prop29
280
     1
102
RTVSPost2010PropOp29
 70
     1
102
RTVSPost2010Prop30
280
     1
102
RTVSPost2010PropOp30
 70
     1
102
RTVSPost2010Prop31
280
     0
102
RTVSPost2010PropOp31
 70
     1
102
RTVSPost2010Prop32
280
     0
102
RTVSPost2010PropOp32
 70
     1
102
RTVSPost2010Prop33
280
     0
102
RTVSPost2010PropOp33
 70
     1
102
RTVSPost2010Prop34
280
     0
102
RTVSPost2010PropOp34
 70
     1
102
RTVSPost2010Prop35
280
     0
102
RTVSPost2010PropOp35
 70
     1
102
RTVSPost2010Prop36
280
     0
102
RTVSPost2010PropOp36
 70
     1
102
RTVSPost2010Prop37
 90
       50
102
RTVSPost2010PropOp37
 70
     1
102
RTVSPost2010Prop38
140
0.0
102
RTVSPost2010PropOp38
 70
     1
102
RTVSPost2010Prop39
140
1.0
102
RTVSPost2010PropOp39
 70
     1
102
RTVSPost2010Prop40
 90
        0
102
RTVSPost2010PropOp40
 70
     1
102
RTVSPost2010Prop41ColorIndex
 90
       18
102
RTVSPost2010Prop41ColorRGB
 90
        0
102
RTVSPost2010PropOp41
 70
     1
102
RTVSPost2010Prop42
 90
       50
102
RTVSPost2010PropOp42
 70
     1
102
RTVSPost2010Prop43
 90
        3
102
RTVSPost2010PropOp43
 70
     1
102
RTVSPost2010Prop44ColorIndex
 90
        5
102
RTVSPost2010Prop44ColorRGB
 90
      255
102
RTVSPost2010PropOp44
 70
     1
102
RTVSPost2010Prop45
280
     0
102
RTVSPost2010PropOp45
 70
     1
102
RTVSPost2010Prop46
 90
       50
102
RTVSPost2010PropOp46
 70
     1
102
RTVSPost2010Prop47
 90
       50
102
RTVSPost2010PropOp47
 70
     1
102
RTVSPost2010Prop48
 90
       50
102
RTVSPost2010PropOp48
 70
     1
102
RTVSPost2010Prop49
280
     0
102
RTVSPost2010PropOp49
 70
     1
102
RTVSPost2010Prop50
 90
       50
102
RTVSPost2010PropOp50
 70
     1
102
RTVSPost2010Prop51ColorIndex
 90
      256
102
RTVSPost2010Prop51ColorRGB
 90
-16777216
102
RTVSPost2010PropOp51
 70
     0
102
RTVSPost2010Prop52
140
1.0
102
RTVSPost2010PropOp52
 70
     0
102
RTVSPost2010Prop53
 90
        2
102
RTVSPost2010PropOp53
 70
     1
102
RTVSPost2010Prop54
  1
strokes_ogs.tif
102
RTVSPost2010PropOp54
 70
     1
102
RTVSPost2010Prop55
280
     0
102
RTVSPost2010PropOp55
 70
     1
102
RTVSPost2010Prop56
140
1.0
102
RTVSPost2010PropOp56
 70
     1
102
RTVSPost2010Prop57
140
1.0
102
RTVSPost2010PropOp57
 70
     1
  0
XRECORD
  5
2AA
102
{ACAD_REACTORS
330
2A9
102
}
330
2A9
100
AcDbXrecord
280
     1
102
RTVSPropertyOp0
 70
     1
102
RTVSPropertyOp1
 70
     1
102
RTVSPropertyOp2
 70
     1
102
RTVSPropertyOp3
 70
     1
102
RTVSPropertyOp4
 70
     1
102
RTVSPropertyOp5
 70
     1
102
RTVSPropertyOp6
 70
     1
102
RTVSPropertyOp7
 70
     1
102
RTVSPropertyOp8
 70
     1
102
RTVSPropertyOp9
 70
     1
102
RTVSPropertyOp10
 70
     1
102
RTVSPropertyOp11
 70
     1
102
RTVSPropertyOp12
 70
     1
102
RTVSPropertyOp13
 70
     1
102
RTVSPropertyOp14
 70
     1
102
RTVSPropertyOp15
 70
     1
102
RTVSPropertyOp16
 70
     1
102
RTVSPropertyOp17
 70
     1
102
RTVSPropertyOp18
 70
     1
102
RTVSPropertyOp19
 70
     1
102
RTVSPropertyOp20
 70
     1
102
RTVSPropertyOp21
 70
     1
102
RTVSPropertyOp22
 70
     1
102
RTVSPropertyOp23
 70
     1
102
RTVSPropertyOp24
 70
     1
102
RTVSPropertyOp25
 70
     1
102
RTVSPropertyOp26
 70
     1
102
RTVSPropertyOp27
 70
     1
102
RTVSPropertyOp28
 70
     1
102
RTVSPropertyOp29
 70
     1
102
RTVSPropertyOp30
 70
     1
102
RTVSPropertyOp31
 70
     1
102
RTVSPropertyOp32
 70
     1
102
RTVSPropertyOp33
 70
     1
102
RTVSPropertyOp34
 70
     1
102
RTVSPropertyOp35
 70
     1
102
RTVSPropertyOp36
 70
     1
102
RTVSPropertyOp37
 70
     1
102
RTVSPropertyOp38
 70
     1
102
RTVSPropertyOp39
 70
     1
102
RTVSPropertyOp40
 70
     1
102
RTVSPropertyOp41
 70
     1
102
RTVSPropertyOp42
 70
     1
102
RTVSPropertyOp43
 70
     1
102
RTVSPropertyOp44
 70
     1
102
RTVSPropertyOp45
 70
     1
102
RTVSPropertyOp46
 70
     1
102
RTVSPropertyOp47
 70
     1
102
RTVSPropertyOp48
 70
     1
102
RTVSPropertyOp49
 70
     1
102
RTVSPropertyOp50
 70
     1
102
RTVSPropertyOp51
 70
     0
102
RTVSPropertyOp52
 70
     0
102
RTVSPropertyOp53
 70
     1
102
RTVSPropertyOp54
 70
     1
102
RTVSPropertyOp55
 70
     1
102
RTVSPropertyOp56
 70
     1
102
RTVSPropertyOp57
 70
     1
102
RTVSPost2010Prop28
280
     0
102
RTVSPost2010PropOp28
 70
     1
102
RTVSPost2010Prop29
280
     1
102
RTVSPost2010PropOp29
 70
     1
102
RTVSPost2010Prop30
280
     1
102
RTVSPost2010PropOp30
 70
     1
102
RTVSPost2010Prop31
280
     0
102
RTVSPost2010PropOp31
 70
     1
102
RTVSPost2010Prop32
280
     0
102
RTVSPost2010PropOp32
 70
     1
102
RTVSPost2010Prop33
280
     0
102
RTVSPost2010PropOp33
 70
     1
102
RTVSPost2010Prop34
280
     0
102
RTVSPost2010PropOp34
 70
     1
102
RTVSPost2010Prop35
280
     0
102
RTVSPost2010PropOp35
 70
     1
102
RTVSPost2010Prop36
280
     0
102
RTVSPost2010PropOp36
 70
     1
102
RTVSPost2010Prop37
 90
       50
102
RTVSPost2010PropOp37
 70
     1
102
RTVSPost2010Prop38
140
0.0
102
RTVSPost2010PropOp38
 70
     1
102
RTVSPost2010Prop39
140
1.0
102
RTVSPost2010PropOp39
 70
     1
102
RTVSPost2010Prop40
 90
        0
102
RTVSPost2010PropOp40
 70
     1
102
RTVSPost2010Prop41ColorIndex
 90
       18
102
RTVSPost2010Prop41ColorRGB
 90
        0
102
RTVSPost2010PropOp41
 70
     1
102
RTVSPost2010Prop42
 90
       50
102
RTVSPost2010PropOp42
 70
     1
102
RTVSPost2010Prop43
 90
        3
102
RTVSPost2010PropOp43
 70
     1
102
RTVSPost2010Prop44ColorIndex
 90
        5
102
RTVSPost2010Prop44ColorRGB
 90
      255
102
RTVSPost2010PropOp44
 70
     1
102
RTVSPost2010Prop45
280
     0
102
RTVSPost2010PropOp45
 70
     1
102
RTVSPost2010Prop46
 90
       50
102
RTVSPost2010PropOp46
 70
     1
102
RTVSPost2010Prop47
 90
       50
102
RTVSPost2010PropOp47
 70
     1
102
RTVSPost2010Prop48
 90
       50
102
RTVSPost2010PropOp48
 70
     1
102
RTVSPost2010Prop49
280
     0
102
RTVSPost2010PropOp49
 70
     1
102
RTVSPost2010Prop50
 90
       50
102
RTVSPost2010PropOp50
 70
     1
102
RTVSPost2010Prop51ColorIndex
 90
      256
102
RTVSPost2010Prop51ColorRGB
 90
-16777216
102
RTVSPost2010PropOp51
 70
     0
102
RTVSPost2010Prop52
140
1.0
102
RTVSPost2010PropOp52
 70
     0
102
RTVSPost2010Prop53
 90
        2
102
RTVSPost2010PropOp53
 70
     1
102
RTVSPost2010Prop54
  1
strokes_ogs.tif
102
RTVSPost2010PropOp54
 70
     1
102
RTVSPost2010Prop55
280
     0
102
RTVSPost2010PropOp55
 70
     1
102
RTVSPost2010Prop56
140
1.0
102
RTVSPost2010PropOp56
 70
     1
102
RTVSPost2010Prop57
140
1.0
102
RTVSPost2010PropOp57
 70
     1
  0
XRECORD
  5
2AC
102
{ACAD_REACTORS
330
2AB
102
}
330
2AB
100
AcDbXrecord
280
     1
102
RTVSPropertyOp0
 70
     1
102
RTVSPropertyOp1
 70
     1
102
RTVSPropertyOp2
 70
     1
102
RTVSPropertyOp3
 70
     1
102
RTVSPropertyOp4
 70
     1
102
RTVSPropertyOp5
 70
     1
102
RTVSPropertyOp6
 70
     1
102
RTVSPropertyOp7
 70
     1
102
RTVSPropertyOp8
 70
     1
102
RTVSPropertyOp9
 70
     1
102
RTVSPropertyOp10
 70
     1
102
RTVSPropertyOp11
 70
     1
102
RTVSPropertyOp12
 70
     1
102
RTVSPropertyOp13
 70
     1
102
RTVSPropertyOp14
 70
     1
102
RTVSPropertyOp15
 70
     1
102
RTVSPropertyOp16
 70
     1
102
RTVSPropertyOp17
 70
     1
102
RTVSPropertyOp18
 70
     1
102
RTVSPropertyOp19
 70
     1
102
RTVSPropertyOp20
 70
     1
102
RTVSPropertyOp21
 70
     1
102
RTVSPropertyOp22
 70
     1
102
RTVSPropertyOp23
 70
     1
102
RTVSPropertyOp24
 70
     1
102
RTVSPropertyOp25
 70
     1
102
RTVSPropertyOp26
 70
     1
102
RTVSPropertyOp27
 70
     1
102
RTVSPropertyOp28
 70
     1
102
RTVSPropertyOp29
 70
     1
102
RTVSPropertyOp30
 70
     1
102
RTVSPropertyOp31
 70
     1
102
RTVSPropertyOp32
 70
     1
102
RTVSPropertyOp33
 70
     1
102
RTVSPropertyOp34
 70
     1
102
RTVSPropertyOp35
 70
     1
102
RTVSPropertyOp36
 70
     1
102
RTVSPropertyOp37
 70
     1
102
RTVSPropertyOp38
 70
     1
102
RTVSPropertyOp39
 70
     1
102
RTVSPropertyOp40
 70
     1
102
RTVSPropertyOp41
 70
     1
102
RTVSPropertyOp42
 70
     1
102
RTVSPropertyOp43
 70
     1
102
RTVSPropertyOp44
 70
     1
102
RTVSPropertyOp45
 70
     1
102
RTVSPropertyOp46
 70
     1
102
RTVSPropertyOp47
 70
     1
102
RTVSPropertyOp48
 70
     1
102
RTVSPropertyOp49
 70
     1
102
RTVSPropertyOp50
 70
     1
102
RTVSPropertyOp51
 70
     0
102
RTVSPropertyOp52
 70
     0
102
RTVSPropertyOp53
 70
     1
102
RTVSPropertyOp54
 70
     1
102
RTVSPropertyOp55
 70
     1
102
RTVSPropertyOp56
 70
     1
102
RTVSPropertyOp57
 70
     1
102
RTVSPost2010Prop28
280
     0
102
RTVSPost2010PropOp28
 70
     1
102
RTVSPost2010Prop29
280
     1
102
RTVSPost2010PropOp29
 70
     1
102
RTVSPost2010Prop30
280
     1
102
RTVSPost2010PropOp30
 70
     1
102
RTVSPost2010Prop31
280
     0
102
RTVSPost2010PropOp31
 70
     1
102
RTVSPost2010Prop32
280
     0
102
RTVSPost2010PropOp32
 70
     1
102
RTVSPost2010Prop33
280
     0
102
RTVSPost2010PropOp33
 70
     1
102
RTVSPost2010Prop34
280
     0
102
RTVSPost2010PropOp34
 70
     1
102
RTVSPost2010Prop35
280
     0
102
RTVSPost2010PropOp35
 70
     1
102
RTVSPost2010Prop36
280
     0
102
RTVSPost2010PropOp36
 70
     1
102
RTVSPost2010Prop37
 90
       50
102
RTVSPost2010PropOp37
 70
     1
102
RTVSPost2010Prop38
140
0.0
102
RTVSPost2010PropOp38
 70
     1
102
RTVSPost2010Prop39
140
1.0
102
RTVSPost2010PropOp39
 70
     1
102
RTVSPost2010Prop40
 90
        0
102
RTVSPost2010PropOp40
 70
     1
102
RTVSPost2010Prop41ColorIndex
 90
       18
102
RTVSPost2010Prop41ColorRGB
 90
        0
102
RTVSPost2010PropOp41
 70
     1
102
RTVSPost2010Prop42
 90
       50
102
RTVSPost2010PropOp42
 70
     1
102
RTVSPost2010Prop43
 90
        3
102
RTVSPost2010PropOp43
 70
     1
102
RTVSPost2010Prop44ColorIndex
 90
        5
102
RTVSPost2010Prop44ColorRGB
 90
      255
102
RTVSPost2010PropOp44
 70
     1
102
RTVSPost2010Prop45
280
     0
102
RTVSPost2010PropOp45
 70
     1
102
RTVSPost2010Prop46
 90
       50
102
RTVSPost2010PropOp46
 70
     1
102
RTVSPost2010Prop47
 90
       50
102
RTVSPost2010PropOp47
 70
     1
102
RTVSPost2010Prop48
 90
       50
102
RTVSPost2010PropOp48
 70
     1
102
RTVSPost2010Prop49
280
     0
102
RTVSPost2010PropOp49
 70
     1
102
RTVSPost2010Prop50
 90
       50
102
RTVSPost2010PropOp50
 70
     1
102
RTVSPost2010Prop51ColorIndex
 90
      256
102
RTVSPost2010Prop51ColorRGB
 90
-16777216
102
RTVSPost2010PropOp51
 70
     0
102
RTVSPost2010Prop52
140
1.0
102
RTVSPost2010PropOp52
 70
     0
102
RTVSPost2010Prop53
 90
        2
102
RTVSPost2010PropOp53
 70
     1
102
RTVSPost2010Prop54
  1
strokes_ogs.tif
102
RTVSPost2010PropOp54
 70
     1
102
RTVSPost2010Prop55
280
     0
102
RTVSPost2010PropOp55
 70
     1
102
RTVSPost2010Prop56
140
1.0
102
RTVSPost2010PropOp56
 70
     1
102
RTVSPost2010Prop57
140
1.0
102
RTVSPost2010PropOp57
 70
     1
  0
XRECORD
  5
29C
102
{ACAD_REACTORS
330
29B
102
}
330
29B
100
AcDbXrecord
280
     1
102
RTVSPropertyOp0
 70
     1
102
RTVSPropertyOp1
 70
     1
102
RTVSPropertyOp2
 70
     1
102
RTVSPropertyOp3
 70
     1
102
RTVSPropertyOp4
 70
     1
102
RTVSPropertyOp5
 70
     1
102
RTVSPropertyOp6
 70
     1
102
RTVSPropertyOp7
 70
     1
102
RTVSPropertyOp8
 70
     1
102
RTVSPropertyOp9
 70
     1
102
RTVSPropertyOp10
 70
     1
102
RTVSPropertyOp11
 70
     1
102
RTVSPropertyOp12
 70
     1
102
RTVSPropertyOp13
 70
     1
102
RTVSPropertyOp14
 70
     1
102
RTVSPropertyOp15
 70
     1
102
RTVSPropertyOp16
 70
     1
102
RTVSPropertyOp17
 70
     1
102
RTVSPropertyOp18
 70
     1
102
RTVSPropertyOp19
 70
     1
102
RTVSPropertyOp20
 70
     1
102
RTVSPropertyOp21
 70
     1
102
RTVSPropertyOp22
 70
     1
102
RTVSPropertyOp23
 70
     1
102
RTVSPropertyOp24
 70
     1
102
RTVSPropertyOp25
 70
     1
102
RTVSPropertyOp26
 70
     1
102
RTVSPropertyOp27
 70
     1
102
RTVSPropertyOp28
 70
     1
102
RTVSPropertyOp29
 70
     1
102
RTVSPropertyOp30
 70
     1
102
RTVSPropertyOp31
 70
     1
102
RTVSPropertyOp32
 70
     1
102
RTVSPropertyOp33
 70
     1
102
RTVSPropertyOp34
 70
     1
102
RTVSPropertyOp35
 70
     1
102
RTVSPropertyOp36
 70
     1
102
RTVSPropertyOp37
 70
     1
102
RTVSPropertyOp38
 70
     1
102
RTVSPropertyOp39
 70
     1
102
RTVSPropertyOp40
 70
     1
102
RTVSPropertyOp41
 70
     1
102
RTVSPropertyOp42
 70
     1
102
RTVSPropertyOp43
 70
     1
102
RTVSPropertyOp44
 70
     1
102
RTVSPropertyOp45
 70
     1
102
RTVSPropertyOp46
 70
     1
102
RTVSPropertyOp47
 70
     1
102
RTVSPropertyOp48
 70
     1
102
RTVSPropertyOp49
 70
     1
102
RTVSPropertyOp50
 70
     1
102
RTVSPropertyOp51
 70
     0
102
RTVSPropertyOp52
 70
     0
102
RTVSPropertyOp53
 70
     1
102
RTVSPropertyOp54
 70
     1
102
RTVSPropertyOp55
 70
     1
102
RTVSPropertyOp56
 70
     1
102
RTVSPropertyOp57
 70
     1
102
RTVSPost2010Prop28
280
     0
102
RTVSPost2010PropOp28
 70
     1
102
RTVSPost2010Prop29
280
     1
102
RTVSPost2010PropOp29
 70
     1
102
RTVSPost2010Prop30
280
     1
102
RTVSPost2010PropOp30
 70
     1
102
RTVSPost2010Prop31
280
     0
102
RTVSPost2010PropOp31
 70
     1
102
RTVSPost2010Prop32
280
     0
102
RTVSPost2010PropOp32
 70
     1
102
RTVSPost2010Prop33
280
     0
102
RTVSPost2010PropOp33
 70
     1
102
RTVSPost2010Prop34
280
     0
102
RTVSPost2010PropOp34
 70
     1
102
RTVSPost2010Prop35
280
     0
102
RTVSPost2010PropOp35
 70
     1
102
RTVSPost2010Prop36
280
     0
102
RTVSPost2010PropOp36
 70
     1
102
RTVSPost2010Prop37
 90
       50
102
RTVSPost2010PropOp37
 70
     1
102
RTVSPost2010Prop38
140
0.0
102
RTVSPost2010PropOp38
 70
     1
102
RTVSPost2010Prop39
140
1.0
102
RTVSPost2010PropOp39
 70
     1
102
RTVSPost2010Prop40
 90
        0
102
RTVSPost2010PropOp40
 70
     1
102
RTVSPost2010Prop41ColorIndex
 90
       18
102
RTVSPost2010Prop41ColorRGB
 90
        0
102
RTVSPost2010PropOp41
 70
     1
102
RTVSPost2010Prop42
 90
       50
102
RTVSPost2010PropOp42
 70
     1
102
RTVSPost2010Prop43
 90
        3
102
RTVSPost2010PropOp43
 70
     1
102
RTVSPost2010Prop44ColorIndex
 90
        5
102
RTVSPost2010Prop44ColorRGB
 90
      255
102
RTVSPost2010PropOp44
 70
     1
102
RTVSPost2010Prop45
280
     0
102
RTVSPost2010PropOp45
 70
     1
102
RTVSPost2010Prop46
 90
       50
102
RTVSPost2010PropOp46
 70
     1
102
RTVSPost2010Prop47
 90
       50
102
RTVSPost2010PropOp47
 70
     1
102
RTVSPost2010Prop48
 90
       50
102
RTVSPost2010PropOp48
 70
     1
102
RTVSPost2010Prop49
280
     0
102
RTVSPost2010PropOp49
 70
     1
102
RTVSPost2010Prop50
 90
       50
102
RTVSPost2010PropOp50
 70
     1
102
RTVSPost2010Prop51ColorIndex
 90
      256
102
RTVSPost2010Prop51ColorRGB
 90
-16777216
102
RTVSPost2010PropOp51
 70
     0
102
RTVSPost2010Prop52
140
1.0
102
RTVSPost2010PropOp52
 70
     0
102
RTVSPost2010Prop53
 90
        2
102
RTVSPost2010PropOp53
 70
     1
102
RTVSPost2010Prop54
  1
strokes_ogs.tif
102
RTVSPost2010PropOp54
 70
     1
102
RTVSPost2010Prop55
280
     0
102
RTVSPost2010PropOp55
 70
     1
102
RTVSPost2010Prop56
140
1.0
102
RTVSPost2010PropOp56
 70
     1
102
RTVSPost2010Prop57
140
1.0
102
RTVSPost2010PropOp57
 70
     1
  0
XRECORD
  5
28E
102
{ACAD_REACTORS
330
28D
102
}
330
28D
100
AcDbXrecord
280
     1
102
RTVSPropertyOp0
 70
     1
102
RTVSPropertyOp1
 70
     1
102
RTVSPropertyOp2
 70
     1
102
RTVSPropertyOp3
 70
     1
102
RTVSPropertyOp4
 70
     1
102
RTVSPropertyOp5
 70
     1
102
RTVSPropertyOp6
 70
     1
102
RTVSPropertyOp7
 70
     1
102
RTVSPropertyOp8
 70
     1
102
RTVSPropertyOp9
 70
     1
102
RTVSPropertyOp10
 70
     1
102
RTVSPropertyOp11
 70
     1
102
RTVSPropertyOp12
 70
     1
102
RTVSPropertyOp13
 70
     1
102
RTVSPropertyOp14
 70
     1
102
RTVSPropertyOp15
 70
     1
102
RTVSPropertyOp16
 70
     1
102
RTVSPropertyOp17
 70
     1
102
RTVSPropertyOp18
 70
     1
102
RTVSPropertyOp19
 70
     1
102
RTVSPropertyOp20
 70
     1
102
RTVSPropertyOp21
 70
     1
102
RTVSPropertyOp22
 70
     1
102
RTVSPropertyOp23
 70
     1
102
RTVSPropertyOp24
 70
     1
102
RTVSPropertyOp25
 70
     1
102
RTVSPropertyOp26
 70
     1
102
RTVSPropertyOp27
 70
     1
102
RTVSPropertyOp28
 70
     1
102
RTVSPropertyOp29
 70
     1
102
RTVSPropertyOp30
 70
     1
102
RTVSPropertyOp31
 70
     1
102
RTVSPropertyOp32
 70
     1
102
RTVSPropertyOp33
 70
     1
102
RTVSPropertyOp34
 70
     1
102
RTVSPropertyOp35
 70
     1
102
RTVSPropertyOp36
 70
     1
102
RTVSPropertyOp37
 70
     1
102
RTVSPropertyOp38
 70
     1
102
RTVSPropertyOp39
 70
     1
102
RTVSPropertyOp40
 70
     1
102
RTVSPropertyOp41
 70
     1
102
RTVSPropertyOp42
 70
     1
102
RTVSPropertyOp43
 70
     1
102
RTVSPropertyOp44
 70
     1
102
RTVSPropertyOp45
 70
     1
102
RTVSPropertyOp46
 70
     1
102
RTVSPropertyOp47
 70
     1
102
RTVSPropertyOp48
 70
     1
102
RTVSPropertyOp49
 70
     1
102
RTVSPropertyOp50
 70
     1
102
RTVSPropertyOp51
 70
     0
102
RTVSPropertyOp52
 70
     0
102
RTVSPropertyOp53
 70
     1
102
RTVSPropertyOp54
 70
     1
102
RTVSPropertyOp55
 70
     1
102
RTVSPropertyOp56
 70
     1
102
RTVSPropertyOp57
 70
     1
102
RTVSPost2010Prop28
280
     0
102
RTVSPost2010PropOp28
 70
     1
102
RTVSPost2010Prop29
280
     1
102
RTVSPost2010PropOp29
 70
     1
102
RTVSPost2010Prop30
280
     1
102
RTVSPost2010PropOp30
 70
     1
102
RTVSPost2010Prop31
280
     0
102
RTVSPost2010PropOp31
 70
     1
102
RTVSPost2010Prop32
280
     0
102
RTVSPost2010PropOp32
 70
     1
102
RTVSPost2010Prop33
280
     0
102
RTVSPost2010PropOp33
 70
     1
102
RTVSPost2010Prop34
280
     0
102
RTVSPost2010PropOp34
 70
     1
102
RTVSPost2010Prop35
280
     0
102
RTVSPost2010PropOp35
 70
     1
102
RTVSPost2010Prop36
280
     0
102
RTVSPost2010PropOp36
 70
     1
102
RTVSPost2010Prop37
 90
       50
102
RTVSPost2010PropOp37
 70
     1
102
RTVSPost2010Prop38
140
0.0
102
RTVSPost2010PropOp38
 70
     1
102
RTVSPost2010Prop39
140
1.0
102
RTVSPost2010PropOp39
 70
     1
102
RTVSPost2010Prop40
 90
        0
102
RTVSPost2010PropOp40
 70
     1
102
RTVSPost2010Prop41ColorIndex
 90
       18
102
RTVSPost2010Prop41ColorRGB
 90
        0
102
RTVSPost2010PropOp41
 70
     1
102
RTVSPost2010Prop42
 90
       50
102
RTVSPost2010PropOp42
 70
     1
102
RTVSPost2010Prop43
 90
        3
102
RTVSPost2010PropOp43
 70
     1
102
RTVSPost2010Prop44ColorIndex
 90
        5
102
RTVSPost2010Prop44ColorRGB
 90
      255
102
RTVSPost2010PropOp44
 70
     1
102
RTVSPost2010Prop45
280
     0
102
RTVSPost2010PropOp45
 70
     1
102
RTVSPost2010Prop46
 90
       50
102
RTVSPost2010PropOp46
 70
     1
102
RTVSPost2010Prop47
 90
       50
102
RTVSPost2010PropOp47
 70
     1
102
RTVSPost2010Prop48
 90
       50
102
RTVSPost2010PropOp48
 70
     1
102
RTVSPost2010Prop49
280
     0
102
RTVSPost2010PropOp49
 70
     1
102
RTVSPost2010Prop50
 90
       50
102
RTVSPost2010PropOp50
 70
     1
102
RTVSPost2010Prop51ColorIndex
 90
      256
102
RTVSPost2010Prop51ColorRGB
 90
-16777216
102
RTVSPost2010PropOp51
 70
     0
102
RTVSPost2010Prop52
140
1.0
102
RTVSPost2010PropOp52
 70
     0
102
RTVSPost2010Prop53
 90
        2
102
RTVSPost2010PropOp53
 70
     1
102
RTVSPost2010Prop54
  1
strokes_ogs.tif
102
RTVSPost2010PropOp54
 70
     1
102
RTVSPost2010Prop55
280
     0
102
RTVSPost2010PropOp55
 70
     1
102
RTVSPost2010Prop56
140
1.0
102
RTVSPost2010PropOp56
 70
     1
102
RTVSPost2010Prop57
140
1.0
102
RTVSPost2010PropOp57
 70
     1
  0
XRECORD
  5
2AE
102
{ACAD_REACTORS
330
2AD
102
}
330
2AD
100
AcDbXrecord
280
     1
102
RTVSPropertyOp0
 70
     1
102
RTVSPropertyOp1
 70
     1
102
RTVSPropertyOp2
 70
     1
102
RTVSPropertyOp3
 70
     1
102
RTVSPropertyOp4
 70
     1
102
RTVSPropertyOp5
 70
     1
102
RTVSPropertyOp6
 70
     1
102
RTVSPropertyOp7
 70
     1
102
RTVSPropertyOp8
 70
     1
102
RTVSPropertyOp9
 70
     1
102
RTVSPropertyOp10
 70
     1
102
RTVSPropertyOp11
 70
     1
102
RTVSPropertyOp12
 70
     1
102
RTVSPropertyOp13
 70
     1
102
RTVSPropertyOp14
 70
     1
102
RTVSPropertyOp15
 70
     1
102
RTVSPropertyOp16
 70
     1
102
RTVSPropertyOp17
 70
     1
102
RTVSPropertyOp18
 70
     1
102
RTVSPropertyOp19
 70
     1
102
RTVSPropertyOp20
 70
     1
102
RTVSPropertyOp21
 70
     1
102
RTVSPropertyOp22
 70
     1
102
RTVSPropertyOp23
 70
     1
102
RTVSPropertyOp24
 70
     1
102
RTVSPropertyOp25
 70
     1
102
RTVSPropertyOp26
 70
     1
102
RTVSPropertyOp27
 70
     1
102
RTVSPropertyOp28
 70
     1
102
RTVSPropertyOp29
 70
     1
102
RTVSPropertyOp30
 70
     1
102
RTVSPropertyOp31
 70
     1
102
RTVSPropertyOp32
 70
     1
102
RTVSPropertyOp33
 70
     1
102
RTVSPropertyOp34
 70
     1
102
RTVSPropertyOp35
 70
     1
102
RTVSPropertyOp36
 70
     1
102
RTVSPropertyOp37
 70
     1
102
RTVSPropertyOp38
 70
     1
102
RTVSPropertyOp39
 70
     1
102
RTVSPropertyOp40
 70
     1
102
RTVSPropertyOp41
 70
     1
102
RTVSPropertyOp42
 70
     1
102
RTVSPropertyOp43
 70
     1
102
RTVSPropertyOp44
 70
     1
102
RTVSPropertyOp45
 70
     1
102
RTVSPropertyOp46
 70
     1
102
RTVSPropertyOp47
 70
     1
102
RTVSPropertyOp48
 70
     1
102
RTVSPropertyOp49
 70
     1
102
RTVSPropertyOp50
 70
     1
102
RTVSPropertyOp51
 70
     0
102
RTVSPropertyOp52
 70
     0
102
RTVSPropertyOp53
 70
     1
102
RTVSPropertyOp54
 70
     1
102
RTVSPropertyOp55
 70
     1
102
RTVSPropertyOp56
 70
     1
102
RTVSPropertyOp57
 70
     1
102
RTVSPost2010Prop28
280
     0
102
RTVSPost2010PropOp28
 70
     1
102
RTVSPost2010Prop29
280
     1
102
RTVSPost2010PropOp29
 70
     1
102
RTVSPost2010Prop30
280
     1
102
RTVSPost2010PropOp30
 70
     1
102
RTVSPost2010Prop31
280
     0
102
RTVSPost2010PropOp31
 70
     1
102
RTVSPost2010Prop32
280
     0
102
RTVSPost2010PropOp32
 70
     1
102
RTVSPost2010Prop33
280
     0
102
RTVSPost2010PropOp33
 70
     1
102
RTVSPost2010Prop34
280
     0
102
RTVSPost2010PropOp34
 70
     1
102
RTVSPost2010Prop35
280
     0
102
RTVSPost2010PropOp35
 70
     1
102
RTVSPost2010Prop36
280
     0
102
RTVSPost2010PropOp36
 70
     1
102
RTVSPost2010Prop37
 90
       50
102
RTVSPost2010PropOp37
 70
     1
102
RTVSPost2010Prop38
140
0.0
102
RTVSPost2010PropOp38
 70
     1
102
RTVSPost2010Prop39
140
1.0
102
RTVSPost2010PropOp39
 70
     1
102
RTVSPost2010Prop40
 90
        0
102
RTVSPost2010PropOp40
 70
     1
102
RTVSPost2010Prop41ColorIndex
 90
       18
102
RTVSPost2010Prop41ColorRGB
 90
        0
102
RTVSPost2010PropOp41
 70
     1
102
RTVSPost2010Prop42
 90
       50
102
RTVSPost2010PropOp42
 70
     1
102
RTVSPost2010Prop43
 90
        3
102
RTVSPost2010PropOp43
 70
     1
102
RTVSPost2010Prop44ColorIndex
 90
        5
102
RTVSPost2010Prop44ColorRGB
 90
      255
102
RTVSPost2010PropOp44
 70
     1
102
RTVSPost2010Prop45
280
     0
102
RTVSPost2010PropOp45
 70
     1
102
RTVSPost2010Prop46
 90
       50
102
RTVSPost2010PropOp46
 70
     1
102
RTVSPost2010Prop47
 90
       50
102
RTVSPost2010PropOp47
 70
     1
102
RTVSPost2010Prop48
 90
       50
102
RTVSPost2010PropOp48
 70
     1
102
RTVSPost2010Prop49
280
     0
102
RTVSPost2010PropOp49
 70
     1
102
RTVSPost2010Prop50
 90
       50
102
RTVSPost2010PropOp50
 70
     1
102
RTVSPost2010Prop51ColorIndex
 90
      256
102
RTVSPost2010Prop51ColorRGB
 90
-16777216
102
RTVSPost2010PropOp51
 70
     0
102
RTVSPost2010Prop52
140
1.0
102
RTVSPost2010PropOp52
 70
     0
102
RTVSPost2010Prop53
 90
        2
102
RTVSPost2010PropOp53
 70
     1
102
RTVSPost2010Prop54
  1
strokes_ogs.tif
102
RTVSPost2010PropOp54
 70
     1
102
RTVSPost2010Prop55
280
     0
102
RTVSPost2010PropOp55
 70
     1
102
RTVSPost2010Prop56
140
1.0
102
RTVSPost2010PropOp56
 70
     1
102
RTVSPost2010Prop57
140
1.0
102
RTVSPost2010PropOp57
 70
     1
  0
ENDSEC
  0
EOF
