  0
SECTION
  2
HEADER
  9
$ACADVER
  1
AC1015
  9
$ACADMAINTVER
 70
     6
  9
$DWGCODEPAGE
  3
ANSI_932
  9
$INSBASE
 10
2097.256832162797
 20
1537.442413933432
 30
0.0
  9
$EXTMIN
 10
202.0294500481177
 20
26.66515390054519
 30
0.0
  9
$EXTMAX
 10
2084.756157609514
 20
1865.378072954614
 30
0.0
  9
$LIMMIN
 10
0.0
 20
0.0
  9
$LIMMAX
 10
816.5000000000001
 20
565.0
  9
$ORTHOMODE
 70
     0
  9
$REGENMODE
 70
     1
  9
$FILLMODE
 70
     1
  9
$QTEXTMODE
 70
     0
  9
$MIRRTEXT
 70
     1
  9
$LTSCALE
 40
20.0
  9
$ATTMODE
 70
     1
  9
$TEXTSIZE
 40
21.0
  9
$TRACEWID
 40
0.05
  9
$TEXTSTYLE
  7
KANJI
  9
$CLAYER
  8
2
  9
$CELTYPE
  6
BYLAYER
  9
$CECOLOR
 62
   256
  9
$CELTSCALE
 40
1.0
  9
$DISPSILH
 70
     0
  9
$DIMSCALE
 40
7.0
  9
$DIMASZ
 40
2.0
  9
$DIMEXO
 40
0.5
  9
$DIMDLI
 40
0.0
  9
$DIMRND
 40
0.0
  9
$DIMDLE
 40
0.0
  9
$DIMEXE
 40
1.0
  9
$DIMTP
 40
0.0
  9
$DIMTM
 40
0.0
  9
$DIMTXT
 40
3.0
  9
$DIMCEN
 40
0.09
  9
$DIMTSZ
 40
0.0
  9
$DIMTOL
 70
     0
  9
$DIMLIM
 70
     0
  9
$DIMTIH
 70
     0
  9
$DIMTOH
 70
     0
  9
$DIMSE1
 70
     0
  9
$DIMSE2
 70
     0
  9
$DIMTAD
 70
     0
  9
$DIMZIN
 70
     8
  9
$DIMBLK
  1

  9
$DIMASO
 70
     0
  9
$DIMSHO
 70
     0
  9
$DIMPOST
  1

  9
$DIMAPOST
  1

  9
$DIMALT
 70
     0
  9
$DIMALTD
 70
     2
  9
$DIMALTF
 40
25.4
  9
$DIMLFAC
 40
1.0
  9
$DIMTOFL
 70
     1
  9
$DIMTVP
 40
1.0
  9
$DIMTIX
 70
     1
  9
$DIMSOXD
 70
     1
  9
$DIMSAH
 70
     0
  9
$DIMBLK1
  1

  9
$DIMBLK2
  1

  9
$DIMSTYLE
  2
STANDARD
  9
$DIMCLRD
 70
   256
  9
$DIMCLRE
 70
   256
  9
$DIMCLRT
 70
   256
  9
$DIMTFAC
 40
1.0
  9
$DIMGAP
 40
0.09
  9
$DIMJUST
 70
     0
  9
$DIMSD1
 70
     0
  9
$DIMSD2
 70
     0
  9
$DIMTOLJ
 70
     1
  9
$DIMTZIN
 70
     0
  9
$DIMALTZ
 70
     0
  9
$DIMALTTZ
 70
     0
  9
$DIMUPT
 70
     0
  9
$DIMDEC
 70
     1
  9
$DIMTDEC
 70
     4
  9
$DIMALTU
 70
     2
  9
$DIMALTTD
 70
     2
  9
$DIMTXSTY
  7
STANDARD
  9
$DIMAUNIT
 70
     0
  9
$DIMADEC
 70
     0
  9
$DIMALTRND
 40
0.0
  9
$DIMAZIN
 70
     0
  9
$DIMDSEP
 70
    46
  9
$DIMATFIT
 70
     3
  9
$DIMFRAC
 70
     0
  9
$DIMLDRBLK
  1

  9
$DIMLUNIT
 70
     2
  9
$DIMLWD
 70
    -2
  9
$DIMLWE
 70
    -2
  9
$DIMTMOVE
 70
     0
  9
$LUNITS
 70
     2
  9
$LUPREC
 70
     3
  9
$SKETCHINC
 40
0.1
  9
$FILLETRAD
 40
1.0
  9
$AUNITS
 70
     0
  9
$AUPREC
 70
     3
  9
$MENU
  1
C:\R13\WIN\SUPPORT\ACADFULL
  9
$ELEVATION
 40
0.0
  9
$PELEVATION
 40
0.0
  9
$THICKNESS
 40
0.0
  9
$LIMCHECK
 70
     0
  9
$CHAMFERA
 40
0.0
  9
$CHAMFERB
 40
0.0
  9
$CHAMFERC
 40
0.0
  9
$CHAMFERD
 40
0.0
  9
$SKPOLY
 70
     0
  9
$TDCREATE
 40
2457464.390263252
  9
$TDUCREATE
 40
2457464.015263252
  9
$TDUPDATE
 40
2457871.823658333
  9
$TDUUPDATE
 40
2457871.448658333
  9
$TDINDWG
 40
0.0193161458
  9
$TDUSRTIMER
 40
0.0193150579
  9
$USRTIMER
 70
     1
  9
$ANGBASE
 50
0.0
  9
$ANGDIR
 70
     0
  9
$PDMODE
 70
     0
  9
$PDSIZE
 40
0.0
  9
$PLINEWID
 40
0.0
  9
$SPLFRAME
 70
     0
  9
$SPLINETYPE
 70
     6
  9
$SPLINESEGS
 70
     8
  9
$HANDSEED
  5
6AE
  9
$SURFTAB1
 70
     6
  9
$SURFTAB2
 70
     6
  9
$SURFTYPE
 70
     6
  9
$SURFU
 70
     6
  9
$SURFV
 70
     6
  9
$UCSBASE
  2

  9
$UCSNAME
  2

  9
$UCSORG
 10
0.0
 20
0.0
 30
0.0
  9
$UCSXDIR
 10
1.0
 20
0.0
 30
0.0
  9
$UCSYDIR
 10
0.0
 20
1.0
 30
0.0
  9
$UCSORTHOREF
  2

  9
$UCSORTHOVIEW
 70
     0
  9
$UCSORGTOP
 10
0.0
 20
0.0
 30
0.0
  9
$UCSORGBOTTOM
 10
0.0
 20
0.0
 30
0.0
  9
$UCSORGLEFT
 10
0.0
 20
0.0
 30
0.0
  9
$UCSORGRIGHT
 10
0.0
 20
0.0
 30
0.0
  9
$UCSORGFRONT
 10
0.0
 20
0.0
 30
0.0
  9
$UCSORGBACK
 10
0.0
 20
0.0
 30
0.0
  9
$PUCSBASE
  2

  9
$PUCSNAME
  2

  9
$PUCSORG
 10
0.0
 20
0.0
 30
0.0
  9
$PUCSXDIR
 10
1.0
 20
0.0
 30
0.0
  9
$PUCSYDIR
 10
0.0
 20
1.0
 30
0.0
  9
$PUCSORTHOREF
  2

  9
$PUCSORTHOVIEW
 70
     0
  9
$PUCSORGTOP
 10
0.0
 20
0.0
 30
0.0
  9
$PUCSORGBOTTOM
 10
0.0
 20
0.0
 30
0.0
  9
$PUCSORGLEFT
 10
0.0
 20
0.0
 30
0.0
  9
$PUCSORGRIGHT
 10
0.0
 20
0.0
 30
0.0
  9
$PUCSORGFRONT
 10
0.0
 20
0.0
 30
0.0
  9
$PUCSORGBACK
 10
0.0
 20
0.0
 30
0.0
  9
$USERI1
 70
     0
  9
$USERI2
 70
     0
  9
$USERI3
 70
     0
  9
$USERI4
 70
     0
  9
$USERI5
 70
     0
  9
$USERR1
 40
0.0
  9
$USERR2
 40
0.0
  9
$USERR3
 40
0.0
  9
$USERR4
 40
2448925.372986111
  9
$USERR5
 40
0.04166667
  9
$WORLDVIEW
 70
     1
  9
$SHADEDGE
 70
     3
  9
$SHADEDIF
 70
    70
  9
$TILEMODE
 70
     1
  9
$MAXACTVP
 70
    16
  9
$PINSBASE
 10
0.0
 20
0.0
 30
0.0
  9
$PLIMCHECK
 70
     0
  9
$PEXTMIN
 10
1.000000000000000E+20
 20
1.000000000000000E+20
 30
1.000000000000000E+20
  9
$PEXTMAX
 10
-1.000000000000000E+20
 20
-1.000000000000000E+20
 30
-1.000000000000000E+20
  9
$PLIMMIN
 10
0.0
 20
0.0
  9
$PLIMMAX
 10
12.0
 20
9.0
  9
$UNITMODE
 70
     0
  9
$VISRETAIN
 70
     0
  9
$PLINEGEN
 70
     0
  9
$PSLTSCALE
 70
     0
  9
$TREEDEPTH
 70
  3020
  9
$CMLSTYLE
  2
STANDARD
  9
$CMLJUST
 70
     0
  9
$CMLSCALE
 40
1.0
  9
$PROXYGRAPHICS
 70
     1
  9
$MEASUREMENT
 70
     0
  9
$CELWEIGHT
370
    -1
  9
$ENDCAPS
280
     0
  9
$JOINSTYLE
280
     0
  9
$LWDISPLAY
290
     0
  9
$INSUNITS
 70
     0
  9
$HYPERLINKBASE
  1

  9
$STYLESHEET
  1

  9
$XEDIT
290
     1
  9
$CEPSNTYPE
380
     0
  9
$PSTYLEMODE
290
     1
  9
$FINGERPRINTGUID
  2
{9B8406AC-E6DF-45F0-AE4A-E9AE62F92418}
  9
$VERSIONGUID
  2
{0D65D973-C7EA-4D4C-A03B-262C14081B33}
  9
$EXTNAMES
290
     1
  9
$PSVPSCALE
 40
0.0
  9
$OLESTARTUP
290
     0
  0
ENDSEC
  0
SECTION
  2
CLASSES
  0
CLASS
  1
ACDBDICTIONARYWDFLT
  2
AcDbDictionaryWithDefault
  3
ObjectDBX Classes
 90
        0
280
     0
281
     0
  0
CLASS
  1
MATERIAL
  2
AcDbMaterial
  3
ObjectDBX Classes
 90
     1153
280
     0
281
     0
  0
CLASS
  1
SORTENTSTABLE
  2
AcDbSortentsTable
  3
ObjectDBX Classes
 90
        0
280
     0
281
     0
  0
CLASS
  1
SCALE
  2
AcDbScale
  3
ObjectDBX Classes
 90
     1153
280
     0
281
     0
  0
CLASS
  1
DICTIONARYVAR
  2
AcDbDictionaryVar
  3
ObjectDBX Classes
 90
        0
280
     0
281
     0
  0
CLASS
  1
VISUALSTYLE
  2
AcDbVisualStyle
  3
ObjectDBX Classes
 90
     4095
280
     0
281
     0
  0
CLASS
  1
MLEADERSTYLE
  2
AcDbMLeaderStyle
  3
ACDB_MLEADERSTYLE_CLASS
 90
     4095
280
     0
281
     0
  0
CLASS
  1
TABLESTYLE
  2
AcDbTableStyle
  3
ObjectDBX Classes
 90
     4095
280
     0
281
     0
  0
CLASS
  1
ACDBPLACEHOLDER
  2
AcDbPlaceHolder
  3
ObjectDBX Classes
 90
        0
280
     0
281
     0
  0
CLASS
  1
LAYOUT
  2
AcDbLayout
  3
ObjectDBX Classes
 90
        0
280
     0
281
     0
  0
ENDSEC
  0
SECTION
  2
TABLES
  0
TABLE
  2
VPORT
  5
25
102
{ACAD_XDICTIONARY
360
673
102
}
330
0
100
AcDbSymbolTable
 70
     1
  0
VPORT
  5
2A
330
25
100
AcDbSymbolTableRecord
100
AcDbViewportTableRecord
  2
*Active
 70
     0
 10
0.0
 20
0.0
 11
1.0
 21
1.0
 12
1468.512768071718
 22
922.1000149150157
 13
0.0
 23
0.0
 14
1.0
 24
1.0
 15
50.0
 25
50.0
 16
0.0
 26
0.0
 36
1.0
 17
0.0
 27
0.0
 37
0.0
 40
2121.171990095922
 41
2.174107142857143
 42
50.0
 43
0.0
 44
0.0
 50
0.0
 51
0.0
 71
     0
 72
  5000
 73
     1
 74
     0
 75
     0
 76
     0
 77
     0
 78
     0
281
     0
 65
     1
110
0.0
120
0.0
130
0.0
111
1.0
121
0.0
131
0.0
112
0.0
122
1.0
132
0.0
 79
     0
146
0.0
  0
ENDTAB
  0
TABLE
  2
LTYPE
  5
B
330
0
100
AcDbSymbolTable
 70
     2
  0
LTYPE
  5
C
330
B
100
AcDbSymbolTableRecord
100
AcDbLinetypeTableRecord
  2
BYBLOCK
 70
     0
  3

 72
    65
 73
     0
 40
0.0
  0
LTYPE
  5
D
330
B
100
AcDbSymbolTableRecord
100
AcDbLinetypeTableRecord
  2
BYLAYER
 70
     0
  3

 72
    65
 73
     0
 40
0.0
  0
LTYPE
  5
A
330
B
100
AcDbSymbolTableRecord
100
AcDbLinetypeTableRecord
  2
CONTINUOUS
 70
     0
  3
Solid line
 72
    65
 73
     0
 40
0.0
  0
LTYPE
  5
52
330
B
100
AcDbSymbolTableRecord
100
AcDbLinetypeTableRecord
  2
CENTER
 70
     0
  3
____ _ ____ _ ____ _ ____ _ ____ _ ____ _ ____
 72
    65
 73
     4
 40
2.0
 49
1.25
 74
     0
 49
-0.25
 74
     0
 49
0.25
 74
     0
 49
-0.25
 74
     0
  0
ENDTAB
  0
TABLE
  2
LAYER
  5
2
330
0
100
AcDbSymbolTable
 70
     8
  0
LAYER
  5
1B
330
2
100
AcDbSymbolTableRecord
100
AcDbLayerTableRecord
  2
0
 70
     0
 62
     7
  6
CONTINUOUS
370
    -3
390
3
  0
LAYER
  5
B5
330
2
100
AcDbSymbolTableRecord
100
AcDbLayerTableRecord
  2
1
 70
     0
 62
     9
  6
CONTINUOUS
370
    -3
390
3
  0
LAYER
  5
1
330
2
100
AcDbSymbolTableRecord
100
AcDbLayerTableRecord
  2
2
 70
     0
 62
     4
  6
CONTINUOUS
370
    -3
390
3
  0
LAYER
  5
B2
330
2
100
AcDbSymbolTableRecord
100
AcDbLayerTableRecord
  2
4
 70
     0
 62
     3
  6
CONTINUOUS
370
    -3
390
3
  0
LAYER
  5
51
330
2
100
AcDbSymbolTableRecord
100
AcDbLayerTableRecord
  2
L-CENTER
 70
     0
 62
     1
  6
CENTER
370
    -3
390
3
  0
LAYER
  5
57
330
2
100
AcDbSymbolTableRecord
100
AcDbLayerTableRecord
  2
3
 70
     0
 62
     2
  6
CONTINUOUS
370
    -3
390
3
  0
LAYER
  5
AD
330
2
100
AcDbSymbolTableRecord
100
AcDbLayerTableRecord
  2
5
 70
     0
 62
     6
  6
CONTINUOUS
370
    -3
390
3
  0
LAYER
  5
573
330
2
100
AcDbSymbolTableRecord
100
AcDbLayerTableRecord
  2
Defpoints
 70
     0
 62
     7
  6
CONTINUOUS
290
     0
370
    -3
390
3
  0
ENDTAB
  0
TABLE
  2
STYLE
  5
F
330
0
100
AcDbSymbolTable
 70
     2
  0
STYLE
  5
13
330
F
100
AcDbSymbolTableRecord
100
AcDbTextStyleTableRecord
  2
STANDARD
 70
     0
 40
0.0
 41
1.0
 50
0.0
 71
     0
 42
12.6
  3
TXT
  4

  0
STYLE
  5
E
330
F
100
AcDbSymbolTableRecord
100
AcDbTextStyleTableRecord
  2
KANJI
 70
     0
 40
0.0
 41
1.0
 50
0.0
 71
     0
 42
21.0
  3
TXT
  4
BIGFONT
  0
ENDTAB
  0
TABLE
  2
VIEW
  5
23
330
0
100
AcDbSymbolTable
 70
     0
  0
ENDTAB
  0
TABLE
  2
UCS
  5
24
330
0
100
AcDbSymbolTable
 70
     0
  0
ENDTAB
  0
TABLE
  2
APPID
  5
9
330
0
100
AcDbSymbolTable
 70
     3
  0
APPID
  5
8
330
9
100
AcDbSymbolTableRecord
100
AcDbRegAppTableRecord
  2
ACAD
 70
     0
  0
APPID
  5
55D
330
9
100
AcDbSymbolTableRecord
100
AcDbRegAppTableRecord
  2
ACAD_PSEXT
 70
     0
  0
APPID
  5
5E9
330
9
100
AcDbSymbolTableRecord
100
AcDbRegAppTableRecord
  2
ACAD_MLEADERVER
 70
     0
  0
ENDTAB
  0
TABLE
  2
DIMSTYLE
  5
12
330
0
100
AcDbSymbolTable
 70
     1
100
AcDbDimStyleTable
  0
DIMSTYLE
105
11
330
12
100
AcDbSymbolTableRecord
100
AcDbDimStyleTableRecord
  2
STANDARD
 70
     0
178
     0
340
13
  0
ENDTAB
  0
TABLE
  2
BLOCK_RECORD
  5
16
330
0
100
AcDbSymbolTable
 70
     0
  0
BLOCK_RECORD
  5
17
102
{ACAD_XDICTIONARY
360
18
102
}
330
16
100
AcDbSymbolTableRecord
100
AcDbBlockTableRecord
  2
*MODEL_SPACE
340
1D
  0
BLOCK_RECORD
  5
1F
330
16
100
AcDbSymbolTableRecord
100
AcDbBlockTableRecord
  2
*PAPER_SPACE
340
22
  0
ENDTAB
  0
ENDSEC
  0
SECTION
  2
BLOCKS
  0
BLOCK
  5
1A
330
17
100
AcDbEntity
  8
0
100
AcDbBlockBegin
  2
*MODEL_SPACE
 70
     0
 10
0.0
 20
0.0
 30
0.0
  3
*MODEL_SPACE
  1

  0
ENDBLK
  5
1C
330
17
100
AcDbEntity
  8
0
100
AcDbBlockEnd
  0
BLOCK
  5
20
330
1F
100
AcDbEntity
 67
     1
  8
0
100
AcDbBlockBegin
  2
*PAPER_SPACE
 70
     0
 10
0.0
 20
0.0
 30
0.0
  3
*PAPER_SPACE
  1

  0
ENDBLK
  5
21
330
1F
100
AcDbEntity
 67
     1
  8
0
100
AcDbBlockEnd
  0
ENDSEC
  0
SECTION
  2
ENTITIES
  0
ARC
  5
180
330
17
100
AcDbEntity
  8
4
100
AcDbCircle
 10
2074.211071036672
 20
620.9170939005446
 30
0.0
 40
0.999984
100
AcDbArc
 50
0.0
 51
74.92889900002666
  0
LINE
  5
188
330
17
100
AcDbEntity
  8
4
100
AcDbLine
 10
1907.082751036672
 20
836.6834479005447
 30
0.0
 11
1907.711167036672
 21
818.6834479005447
 31
0.0
  0
LINE
  5
189
330
17
100
AcDbEntity
  8
4
100
AcDbLine
 10
1910.211169036672
 20
818.6834479005447
 30
0.0
 11
1910.211169036672
 21
813.1834459005445
 31
0.0
  0
LINE
  5
18A
330
17
100
AcDbEntity
  8
4
100
AcDbLine
 10
1895.211169036672
 20
836.6834479005447
 30
0.0
 11
1907.082751036672
 21
836.6834479005447
 31
0.0
  0
LINE
  5
18B
330
17
100
AcDbEntity
  8
4
100
AcDbLine
 10
1895.211169036672
 20
837.7688959005445
 30
0.0
 11
1907.082751036672
 21
836.6834479005447
 31
0.0
  0
LINE
  5
18C
330
17
100
AcDbEntity
  8
4
100
AcDbLine
 10
1895.211169036672
 20
825.0257359005448
 30
0.0
 11
1895.211169036672
 21
898.6834459005445
 31
0.0
  0
LINE
  5
18D
330
17
100
AcDbEntity
  8
4
100
AcDbLine
 10
1863.339829036672
 20
836.6834479005447
 30
0.0
 11
1862.711167036672
 21
818.6834479005447
 31
0.0
  0
LINE
  5
18E
330
17
100
AcDbEntity
  8
4
100
AcDbLine
 10
1860.211171036672
 20
818.6834479005447
 30
0.0
 11
1860.211171036672
 21
813.1834459005445
 31
0.0
  0
LINE
  5
18F
330
17
100
AcDbEntity
  8
4
100
AcDbLine
 10
1875.211411036672
 20
836.6834479005447
 30
0.0
 11
1863.339829036672
 21
836.6834479005447
 31
0.0
  0
LINE
  5
190
330
17
100
AcDbEntity
  8
4
100
AcDbLine
 10
1875.211171036672
 20
837.7688959005445
 30
0.0
 11
1863.339829036672
 21
836.6834479005447
 31
0.0
  0
LINE
  5
191
330
17
100
AcDbEntity
  8
4
100
AcDbLine
 10
1875.211171036672
 20
824.8367659005448
 30
0.0
 11
1875.211171036672
 21
898.6834459005445
 31
0.0
  0
LINE
  5
192
330
17
100
AcDbEntity
  8
4
100
AcDbLine
 10
1910.211169036672
 20
818.6834479005447
 30
0.0
 11
1860.211171036672
 21
818.6834479005447
 31
0.0
  0
LINE
  5
193
330
17
100
AcDbEntity
  8
4
100
AcDbLine
 10
1862.711167036672
 20
818.6834479005447
 30
0.0
 11
1907.711167036672
 21
818.6834479005447
 31
0.0
  0
ARC
  5
194
330
17
100
AcDbEntity
  8
4
100
AcDbCircle
 10
1885.211167036672
 20
898.6834459005445
 30
0.0
 40
10.000002
100
AcDbArc
 50
0.0
 51
180.0
  0
LINE
  5
195
330
17
100
AcDbEntity
  8
L-CENTER
 48
2.0
100
AcDbLine
 10
1911.037339036673
 20
863.6834479005447
 30
0.0
 11
1859.384995036673
 21
863.6834479005447
 31
0.0
  0
ARC
  5
197
330
17
100
AcDbEntity
  8
4
100
AcDbCircle
 10
2038.335690161393
 20
763.0987661904628
 30
0.0
 40
3.875378875279244
100
AcDbArc
 50
314.9559267627452
 51
45.04407323725481
  0
ARC
  5
198
330
17
100
AcDbEntity
  8
4
100
AcDbCircle
 10
2030.211073036673
 20
806.1834499005449
 30
0.0
 40
1.000002
100
AcDbArc
 50
0.0
 51
90.0
  0
LINE
  5
199
330
17
100
AcDbEntity
  8
4
100
AcDbLine
 10
2041.073888126045
 20
760.3563524118122
 30
0.0
 11
2034.211069036671
 21
760.3563524118122
 31
0.0
  0
LINE
  5
19A
330
17
100
AcDbEntity
  8
4
100
AcDbLine
 10
2041.073888126045
 20
765.8411799691135
 30
0.0
 11
2031.211069036671
 21
765.8411799691135
 31
0.0
  0
ARC
  5
19B
330
17
100
AcDbEntity
  8
4
100
AcDbCircle
 10
2038.335690161393
 20
746.6442835185585
 30
0.0
 40
3.875378875279264
100
AcDbArc
 50
314.9559267627452
 51
45.04407323725481
  0
LINE
  5
19C
330
17
100
AcDbEntity
  8
4
100
AcDbLine
 10
2041.073888126045
 20
749.3866972972091
 30
0.0
 11
2034.211069036671
 21
749.3866972972091
 31
0.0
  0
LINE
  5
19D
330
17
100
AcDbEntity
  8
4
100
AcDbLine
 10
2031.211069036671
 20
743.9018697399079
 30
0.0
 11
2041.073888126045
 21
743.9018697399079
 31
0.0
  0
LINE
  5
19E
330
17
100
AcDbEntity
  8
4
100
AcDbLine
 10
2031.211069036671
 20
765.8411799691135
 30
0.0
 11
2031.211069036671
 21
743.9018697399079
 31
0.0
  0
LINE
  5
19F
330
17
100
AcDbEntity
  8
4
100
AcDbLine
 10
2034.211069036671
 20
765.8411799691135
 30
0.0
 11
2034.211069036671
 21
743.9018697399079
 31
0.0
  0
LINE
  5
1A0
330
17
100
AcDbEntity
  8
4
100
AcDbLine
 10
2042.211069036671
 20
746.6442835185585
 30
0.0
 11
2042.211069036671
 21
763.0987661904628
 31
0.0
  0
ARC
  5
1A1
330
17
100
AcDbEntity
  8
4
100
AcDbCircle
 10
2028.415324901494
 20
754.8715248545104
 30
0.0
 40
13.7957441351769
100
AcDbArc
 50
336.5734024913725
 51
23.42659750862749
  0
LINE
  5
1A2
330
17
100
AcDbEntity
  8
4
100
AcDbLine
 10
2004.211171036671
 20
807.1834459005445
 30
0.0
 11
2001.211171036671
 21
807.1834459005445
 31
0.0
  0
LINE
  5
1A3
330
17
100
AcDbEntity
  8
4
100
AcDbLine
 10
2004.211171036671
 20
807.1834459005445
 30
0.0
 11
2030.211073036673
 21
807.1834459005445
 31
0.0
  0
LINE
  5
1A4
330
17
100
AcDbEntity
  8
L-CENTER
 48
2.0
100
AcDbLine
 10
2045.811908916775
 20
754.8715248545104
 30
0.0
 11
1991.53445527873
 21
754.8715248545104
 31
0.0
  0
LINE
  5
1A5
330
17
100
AcDbEntity
  8
4
100
AcDbLine
 10
2035.461999410603
 20
743.9018697399079
 30
0.0
 11
2049.211069036671
 21
628.6834459005445
 31
0.0
  0
LINE
  5
1A6
330
17
100
AcDbEntity
  8
4
100
AcDbLine
 10
2033.444643162904
 20
743.9018697399079
 30
0.0
 11
2047.229137036672
 21
628.4166019005447
 31
0.0
  0
ARC
  5
1A7
330
17
100
AcDbEntity
  8
4
100
AcDbCircle
 10
1857.211171036672
 20
813.1834459005445
 30
0.0
 40
3.0
100
AcDbArc
 50
270.0
 51
0.0
  0
ARC
  5
1A8
330
17
100
AcDbEntity
  8
4
100
AcDbCircle
 10
1913.211169036672
 20
813.1834459005445
 30
0.0
 40
3.0
100
AcDbArc
 50
180.0
 51
270.0
  0
LINE
  5
1A9
330
17
100
AcDbEntity
  8
4
100
AcDbLine
 10
2074.471081036672
 20
621.8826679005447
 30
0.0
 11
2047.117321036672
 21
629.2471699005448
 31
0.0
  0
ARC
  5
1B0
330
17
100
AcDbEntity
  8
4
100
AcDbCircle
 10
1742.211169036672
 20
806.1834499005449
 30
0.0
 40
1.000002
100
AcDbArc
 50
90.0
 51
180.0
  0
LINE
  5
1B1
330
17
100
AcDbEntity
  8
4
100
AcDbLine
 10
1769.211169036672
 20
807.1834459005445
 30
0.0
 11
1742.211169036672
 21
807.1834459005445
 31
0.0
  0
LINE
  5
1B2
330
17
100
AcDbEntity
  8
4
100
AcDbLine
 10
1721.211169036672
 20
628.6834459005445
 30
0.0
 11
1741.211167036672
 21
777.1834459005445
 31
0.0
  0
LINE
  5
1B3
330
17
100
AcDbEntity
  8
4
100
AcDbLine
 10
1741.211167036672
 20
762.2007799005446
 30
0.0
 11
1723.193101036672
 21
628.4166019005447
 31
0.0
  0
ARC
  5
1B4
330
17
100
AcDbEntity
  8
4
100
AcDbCircle
 10
1696.211167036672
 20
620.9170939005446
 30
0.0
 40
0.999984
100
AcDbArc
 50
105.0711009999734
 51
180.0
  0
LINE
  5
1B5
330
17
100
AcDbEntity
  8
4
100
AcDbLine
 10
1695.951157036672
 20
621.8826679005447
 30
0.0
 11
1723.304917036672
 21
629.2471699005448
 31
0.0
  0
LINE
  5
1BC
330
17
100
AcDbEntity
  8
4
100
AcDbLine
 10
2001.211171036671
 20
810.1834459005445
 30
0.0
 11
1769.211169036672
 21
810.1834459005445
 31
0.0
  0
LINE
  5
1C6
330
17
100
AcDbEntity
  8
4
100
AcDbLine
 10
2075.211073036673
 20
573.6834499005447
 30
0.0
 11
2076.211069036671
 21
573.6834499005447
 31
0.0
  0
LINE
  5
1C9
330
17
100
AcDbEntity
  8
4
100
AcDbLine
 10
2075.211073036673
 20
453.6834499005447
 30
0.0
 11
2076.211069036671
 21
453.6834499005447
 31
0.0
  0
ARC
  5
1CB
330
17
100
AcDbEntity
  8
4
100
AcDbCircle
 10
2074.211071036672
 20
406.4498059005448
 30
0.0
 40
0.999984
100
AcDbArc
 50
285.0711009999733
 51
0.0
  0
LINE
  5
1CC
330
17
100
AcDbEntity
  8
4
100
AcDbLine
 10
2076.211069036671
 20
453.6834499005447
 30
0.0
 11
2076.211069036671
 21
573.6834499005447
 31
0.0
  0
ARC
  5
1D1
330
17
100
AcDbEntity
  8
4
100
AcDbCircle
 10
2038.335690161393
 20
521.9106912364971
 30
0.0
 40
3.875378875279244
100
AcDbArc
 50
314.9559267627452
 51
45.04407323725481
  0
LINE
  5
1D2
330
17
100
AcDbEntity
  8
4
100
AcDbLine
 10
2042.211069036671
 20
505.4562085645928
 30
0.0
 11
2042.211069036671
 21
521.9106912364971
 31
0.0
  0
ARC
  5
1D3
330
17
100
AcDbEntity
  8
4
100
AcDbCircle
 10
2038.335690161393
 20
505.4562085645928
 30
0.0
 40
3.875378875279264
100
AcDbArc
 50
314.9559267627452
 51
45.04407323725481
  0
ARC
  5
1D4
330
17
100
AcDbEntity
  8
4
100
AcDbCircle
 10
2028.415324901494
 20
513.6834499005447
 30
0.0
 40
13.7957441351769
100
AcDbArc
 50
336.5734024913725
 51
23.42659750862588
  0
LINE
  5
1D5
330
17
100
AcDbEntity
  8
4
100
AcDbLine
 10
2031.211069036671
 20
524.6531050151477
 30
0.0
 11
2031.211069036671
 21
502.7137947859421
 31
0.0
  0
LINE
  5
1D6
330
17
100
AcDbEntity
  8
4
100
AcDbLine
 10
2034.211069036671
 20
524.6531050151477
 30
0.0
 11
2034.211069036671
 21
502.7137947859421
 31
0.0
  0
LINE
  5
1D7
330
17
100
AcDbEntity
  8
4
100
AcDbLine
 10
2041.073888126045
 20
508.1986223432434
 30
0.0
 11
2034.211069036671
 21
508.1986223432434
 31
0.0
  0
LINE
  5
1D8
330
17
100
AcDbEntity
  8
4
100
AcDbLine
 10
2031.211069036671
 20
502.7137947859421
 30
0.0
 11
2041.073888126045
 21
502.7137947859421
 31
0.0
  0
LINE
  5
1D9
330
17
100
AcDbEntity
  8
4
100
AcDbLine
 10
2041.073888126045
 20
519.1682774578464
 30
0.0
 11
2034.211069036671
 21
519.1682774578464
 31
0.0
  0
LINE
  5
1DA
330
17
100
AcDbEntity
  8
4
100
AcDbLine
 10
2041.073888126045
 20
524.6531050151477
 30
0.0
 11
2031.211069036671
 21
524.6531050151477
 31
0.0
  0
ARC
  5
1DB
330
17
100
AcDbEntity
  8
4
100
AcDbCircle
 10
2028.415324901503
 20
272.495374946581
 30
0.0
 40
13.7957441351769
100
AcDbArc
 50
336.573402491375
 51
23.42659750863215
  0
LINE
  5
1DC
330
17
100
AcDbEntity
  8
4
100
AcDbLine
 10
2042.21106903668
 20
280.7226162825334
 30
0.0
 11
2042.21106903668
 21
264.2681336106291
 31
0.0
  0
ARC
  5
1DD
330
17
100
AcDbEntity
  8
4
100
AcDbCircle
 10
2038.3356901614
 20
280.7226162825334
 30
0.0
 40
3.875378875279264
100
AcDbArc
 50
314.955926762744
 51
45.04407323725719
  0
ARC
  5
1DE
330
17
100
AcDbEntity
  8
4
100
AcDbCircle
 10
2038.335690161402
 20
264.2681336106291
 30
0.0
 40
3.875378875279244
100
AcDbArc
 50
314.955926762744
 51
45.04407323725719
  0
LINE
  5
1DF
330
17
100
AcDbEntity
  8
4
100
AcDbLine
 10
2034.21106903668
 20
261.5257198319782
 30
0.0
 11
2034.21106903668
 21
283.4650300611838
 31
0.0
  0
LINE
  5
1E0
330
17
100
AcDbEntity
  8
4
100
AcDbLine
 10
2031.21106903668
 20
261.5257198319782
 30
0.0
 11
2031.21106903668
 21
283.4650300611838
 31
0.0
  0
LINE
  5
1E1
330
17
100
AcDbEntity
  8
4
100
AcDbLine
 10
2031.21106903668
 20
283.4650300611838
 30
0.0
 11
2041.073888126053
 21
283.4650300611841
 31
0.0
  0
LINE
  5
1E2
330
17
100
AcDbEntity
  8
4
100
AcDbLine
 10
2041.073888126053
 20
277.9802025038828
 30
0.0
 11
2034.21106903668
 21
277.9802025038825
 31
0.0
  0
LINE
  5
1E3
330
17
100
AcDbEntity
  8
4
100
AcDbLine
 10
2041.073888126054
 20
261.5257198319784
 30
0.0
 11
2031.21106903668
 21
261.5257198319782
 31
0.0
  0
LINE
  5
1E4
330
17
100
AcDbEntity
  8
4
100
AcDbLine
 10
2041.073888126054
 20
267.0105473892797
 30
0.0
 11
2034.21106903668
 21
267.0105473892795
 31
0.0
  0
LINE
  5
1E5
330
17
100
AcDbEntity
  8
L-CENTER
 48
2.0
100
AcDbLine
 10
2045.811908916784
 20
272.4953749465817
 30
0.0
 11
1991.534455278739
 21
272.4953749465797
 31
0.0
  0
ARC
  5
1E6
330
17
100
AcDbEntity
  8
4
100
AcDbCircle
 10
2030.211073036673
 20
221.1834499005447
 30
0.0
 40
1.000002
100
AcDbArc
 50
270.0
 51
0.0
  0
LINE
  5
1E7
330
17
100
AcDbEntity
  8
4
100
AcDbLine
 10
2001.211171036671
 20
220.1834479005447
 30
0.0
 11
2004.211171036671
 21
220.1834479005447
 31
0.0
  0
LINE
  5
1E8
330
17
100
AcDbEntity
  8
4
100
AcDbLine
 10
1992.211167036672
 20
213.198620343243
 30
0.0
 11
1992.211167036672
 21
224.168275457846
 31
0.0
  0
LINE
  5
1E9
330
17
100
AcDbEntity
  8
4
100
AcDbLine
 10
1982.711167036672
 20
207.7137927859417
 30
0.0
 11
1992.211167036672
 21
213.198620343243
 31
0.0
  0
LINE
  5
1EA
330
17
100
AcDbEntity
  8
4
100
AcDbLine
 10
1992.211167036672
 20
224.168275457846
 30
0.0
 11
1982.711167036672
 21
229.6531030151473
 31
0.0
  0
LINE
  5
1EB
330
17
100
AcDbEntity
  8
4
100
AcDbLine
 10
1973.211167036672
 20
224.168275457846
 30
0.0
 11
1973.211167036672
 21
213.198620343243
 31
0.0
  0
LINE
  5
1EC
330
17
100
AcDbEntity
  8
4
100
AcDbLine
 10
1973.211167036672
 20
213.198620343243
 30
0.0
 11
1982.711167036672
 21
207.7137927859417
 31
0.0
  0
LINE
  5
1ED
330
17
100
AcDbEntity
  8
4
100
AcDbLine
 10
1982.711167036672
 20
229.6531030151473
 30
0.0
 11
1973.211167036672
 21
224.168275457846
 31
0.0
  0
CIRCLE
  5
1EE
330
17
100
AcDbEntity
  8
4
100
AcDbCircle
 10
1982.711167036672
 20
218.6834479005447
 30
0.0
 40
9.5
  0
LINE
  5
1EF
330
17
100
AcDbEntity
  8
4
100
AcDbLine
 10
2004.211171036671
 20
220.1834479005447
 30
0.0
 11
2030.211073036673
 21
220.1834479005447
 31
0.0
  0
LINE
  5
1F0
330
17
100
AcDbEntity
  8
4
100
AcDbLine
 10
1933.960892402812
 20
314.0907384434677
 30
0.0
 11
1924.460892402812
 21
308.6059108861664
 31
0.0
  0
LINE
  5
1F1
330
17
100
AcDbEntity
  8
4
100
AcDbLine
 10
1943.460892402812
 20
308.6059108861664
 30
0.0
 11
1933.960892402812
 21
314.0907384434677
 31
0.0
  0
LINE
  5
1F2
330
17
100
AcDbEntity
  8
4
100
AcDbLine
 10
1924.460892402812
 20
297.6362557715634
 30
0.0
 11
1933.960892402812
 21
292.1514282142622
 31
0.0
  0
LINE
  5
1F3
330
17
100
AcDbEntity
  8
4
100
AcDbLine
 10
1933.960892402812
 20
292.1514282142622
 30
0.0
 11
1943.460892402812
 21
297.6362557715634
 31
0.0
  0
LINE
  5
1F4
330
17
100
AcDbEntity
  8
4
100
AcDbLine
 10
1943.460892402812
 20
297.6362557715634
 30
0.0
 11
1943.460892402812
 21
308.6059108861664
 31
0.0
  0
LINE
  5
1F5
330
17
100
AcDbEntity
  8
4
100
AcDbLine
 10
1924.460892402812
 20
308.6059108861664
 30
0.0
 11
1924.460892402812
 21
297.6362557715634
 31
0.0
  0
CIRCLE
  5
1F6
330
17
100
AcDbEntity
  8
4
100
AcDbCircle
 10
1933.960892402812
 20
303.1210833288651
 30
0.0
 40
9.5
  0
LINE
  5
1F7
330
17
100
AcDbEntity
  8
4
100
AcDbLine
 10
1836.460903780525
 20
314.0904278925755
 30
0.0
 11
1826.960903780525
 21
308.6056003352742
 31
0.0
  0
LINE
  5
1F8
330
17
100
AcDbEntity
  8
4
100
AcDbLine
 10
1845.960903780525
 20
308.6056003352742
 30
0.0
 11
1836.460903780525
 21
314.0904278925755
 31
0.0
  0
LINE
  5
1F9
330
17
100
AcDbEntity
  8
4
100
AcDbLine
 10
1826.960903780525
 20
297.6359452206711
 30
0.0
 11
1836.460903780525
 21
292.1511176633699
 31
0.0
  0
LINE
  5
1FA
330
17
100
AcDbEntity
  8
4
100
AcDbLine
 10
1836.460903780525
 20
292.1511176633699
 30
0.0
 11
1845.960903780525
 21
297.6359452206711
 31
0.0
  0
LINE
  5
1FB
330
17
100
AcDbEntity
  8
4
100
AcDbLine
 10
1845.960903780525
 20
297.6359452206711
 30
0.0
 11
1845.960903780525
 21
308.6056003352742
 31
0.0
  0
LINE
  5
1FC
330
17
100
AcDbEntity
  8
4
100
AcDbLine
 10
1826.960903780525
 20
308.6056003352742
 30
0.0
 11
1826.960903780525
 21
297.6359452206711
 31
0.0
  0
CIRCLE
  5
1FD
330
17
100
AcDbEntity
  8
4
100
AcDbCircle
 10
1836.460903780525
 20
303.1207727779729
 30
0.0
 40
9.5
  0
LINE
  5
1FF
330
17
100
AcDbEntity
  8
4
100
AcDbLine
 10
1933.960958040306
 20
145.215505482401
 30
0.0
 11
1924.460958040306
 21
139.7306779250997
 31
0.0
  0
LINE
  5
200
330
17
100
AcDbEntity
  8
4
100
AcDbLine
 10
1943.460958040306
 20
139.7306779250997
 30
0.0
 11
1933.960958040306
 21
145.215505482401
 31
0.0
  0
LINE
  5
201
330
17
100
AcDbEntity
  8
4
100
AcDbLine
 10
1836.46095183052
 20
145.21575039586
 30
0.0
 11
1826.96095183052
 21
139.7309228385587
 31
0.0
  0
LINE
  5
202
330
17
100
AcDbEntity
  8
4
100
AcDbLine
 10
1845.96095183052
 20
139.7309228385587
 30
0.0
 11
1836.46095183052
 21
145.21575039586
 31
0.0
  0
LINE
  5
208
330
17
100
AcDbEntity
  8
L-CENTER
 48
2.0
100
AcDbLine
 10
1924.733563656403
 20
287.1388462400193
 30
0.0
 11
1943.188221149221
 21
319.1033204177113
 31
0.0
  0
LINE
  5
209
330
17
100
AcDbEntity
  8
4
100
AcDbLine
 10
2035.461999493478
 20
283.4650300611839
 30
0.0
 11
2049.211069036671
 21
398.6834479005447
 31
0.0
  0
LINE
  5
20A
330
17
100
AcDbEntity
  8
4
100
AcDbLine
 10
2033.44464324563
 20
283.4650300611838
 30
0.0
 11
2047.229137036672
 21
398.9502919005447
 31
0.0
  0
LINE
  5
20B
330
17
100
AcDbEntity
  8
4
100
AcDbLine
 10
2074.471081036672
 20
405.4842319005447
 30
0.0
 11
2047.117321036672
 21
398.1197299005448
 31
0.0
  0
ARC
  5
20C
330
17
100
AcDbEntity
  8
4
100
AcDbCircle
 10
2072.211169036672
 20
100.6834459005447
 30
0.0
 40
3.0
100
AcDbArc
 50
0.0
 51
90.0
  0
LINE
  5
20D
330
17
100
AcDbEntity
  8
4
100
AcDbLine
 10
2075.211169036672
 20
100.6834459005447
 30
0.0
 11
2075.211169036672
 21
48.6834499005447
 31
0.0
  0
ARC
  5
20F
330
17
100
AcDbEntity
  8
4
100
AcDbCircle
 10
2014.711171036671
 20
118.6834459005447
 30
0.0
 40
15.0
100
AcDbArc
 50
180.0
 51
270.0
  0
LINE
  5
212
330
17
100
AcDbEntity
  8
4
100
AcDbLine
 10
1924.460958040306
 20
128.7610228104967
 30
0.0
 11
1933.960958040306
 21
123.2761952531954
 31
0.0
  0
LINE
  5
213
330
17
100
AcDbEntity
  8
4
100
AcDbLine
 10
1933.960958040306
 20
123.2761952531954
 30
0.0
 11
1943.460958040306
 21
128.7610228104967
 31
0.0
  0
LINE
  5
214
330
17
100
AcDbEntity
  8
4
100
AcDbLine
 10
1826.96095183052
 20
128.7612677239557
 30
0.0
 11
1836.46095183052
 21
123.2764401666544
 31
0.0
  0
LINE
  5
215
330
17
100
AcDbEntity
  8
4
100
AcDbLine
 10
1836.46095183052
 20
123.2764401666544
 30
0.0
 11
1845.96095183052
 21
128.7612677239557
 31
0.0
  0
LINE
  5
219
330
17
100
AcDbEntity
  8
4
100
AcDbLine
 10
1999.711171036671
 20
218.6834479005447
 30
0.0
 11
2055.211171036671
 21
103.6834459005447
 31
0.0
  0
LINE
  5
21A
330
17
100
AcDbEntity
  8
4
100
AcDbLine
 10
1999.711171036671
 20
118.6834459005447
 30
0.0
 11
1999.711171036671
 21
218.6834479005447
 31
0.0
  0
LINE
  5
21B
330
17
100
AcDbEntity
  8
L-CENTER
 48
2.0
100
AcDbLine
 10
1943.188275914436
 20
118.263607001858
 30
0.0
 11
1924.733640166176
 21
150.2280937337389
 31
0.0
  0
LINE
  5
21C
330
17
100
AcDbEntity
  8
L-CENTER
 48
2.0
100
AcDbLine
 10
2035.211167036672
 20
123.6834459005447
 30
0.0
 11
2035.211167036672
 21
28.6834499005447
 31
0.0
  0
LINE
  5
21D
330
17
100
AcDbEntity
  8
4
100
AcDbLine
 10
1943.460958040306
 20
128.7610228104967
 30
0.0
 11
1943.460958040306
 21
139.7306779250997
 31
0.0
  0
LINE
  5
21E
330
17
100
AcDbEntity
  8
4
100
AcDbLine
 10
1924.460958040306
 20
139.7306779250997
 30
0.0
 11
1924.460958040306
 21
128.7610228104967
 31
0.0
  0
CIRCLE
  5
21F
330
17
100
AcDbEntity
  8
4
100
AcDbCircle
 10
1933.960958040306
 20
134.2458503677984
 30
0.0
 40
9.5
  0
LINE
  5
220
330
17
100
AcDbEntity
  8
4
100
AcDbLine
 10
1845.96095183052
 20
128.7612677239557
 30
0.0
 11
1845.96095183052
 21
139.7309228385587
 31
0.0
  0
LINE
  5
221
330
17
100
AcDbEntity
  8
4
100
AcDbLine
 10
1826.96095183052
 20
139.7309228385587
 30
0.0
 11
1826.96095183052
 21
128.7612677239557
 31
0.0
  0
CIRCLE
  5
222
330
17
100
AcDbEntity
  8
4
100
AcDbCircle
 10
1836.46095183052
 20
134.2460952812575
 30
0.0
 40
9.5
  0
LINE
  5
223
330
17
100
AcDbEntity
  8
4
100
AcDbLine
 10
1721.211169036673
 20
440.6834499005447
 30
0.0
 11
1741.211167036673
 21
454.1617105943069
 31
0.0
  0
ARC
  5
224
330
17
100
AcDbEntity
  8
4
100
AcDbCircle
 10
1696.211167036672
 20
406.4498059005448
 30
0.0
 40
0.999984
100
AcDbArc
 50
180.0
 51
254.9288990000266
  0
LINE
  5
225
330
17
100
AcDbEntity
  8
4
100
AcDbLine
 10
1695.951157036672
 20
405.4842319005447
 30
0.0
 11
1723.304917036672
 21
398.1197299005448
 31
0.0
  0
LINE
  5
226
330
17
100
AcDbEntity
  8
4
100
AcDbLine
 10
1797.211167036672
 20
213.198620343243
 30
0.0
 11
1797.211167036672
 21
224.168275457846
 31
0.0
  0
LINE
  5
227
330
17
100
AcDbEntity
  8
4
100
AcDbLine
 10
1770.720937036672
 20
217.1834479005447
 30
0.0
 11
1769.211169036672
 21
217.1834479005447
 31
0.0
  0
LINE
  5
228
330
17
100
AcDbEntity
  8
4
100
AcDbLine
 10
1778.211167036672
 20
213.198620343243
 30
0.0
 11
1787.711167036672
 21
207.7137927859417
 31
0.0
  0
LINE
  5
229
330
17
100
AcDbEntity
  8
4
100
AcDbLine
 10
1778.211167036672
 20
224.168275457846
 30
0.0
 11
1778.211167036672
 21
213.198620343243
 31
0.0
  0
LINE
  5
22A
330
17
100
AcDbEntity
  8
4
100
AcDbLine
 10
1787.711167036672
 20
229.6531030151473
 30
0.0
 11
1778.211167036672
 21
224.168275457846
 31
0.0
  0
LINE
  5
22B
330
17
100
AcDbEntity
  8
4
100
AcDbLine
 10
1787.711167036672
 20
207.7137927859417
 30
0.0
 11
1797.211167036672
 21
213.198620343243
 31
0.0
  0
CIRCLE
  5
22C
330
17
100
AcDbEntity
  8
4
100
AcDbCircle
 10
1787.711167036672
 20
218.6834479005447
 30
0.0
 40
9.5
  0
LINE
  5
22D
330
17
100
AcDbEntity
  8
4
100
AcDbLine
 10
1797.211167036672
 20
224.168275457846
 30
0.0
 11
1787.711167036672
 21
229.6531030151473
 31
0.0
  0
ARC
  5
22E
330
17
100
AcDbEntity
  8
4
100
AcDbCircle
 10
1742.211169036672
 20
221.1834499005447
 30
0.0
 40
1.000002
100
AcDbArc
 50
180.0
 51
270.0
  0
LINE
  5
22F
330
17
100
AcDbEntity
  8
4
100
AcDbLine
 10
1769.211169036672
 20
220.1834479005447
 30
0.0
 11
1742.211169036672
 21
220.1834479005447
 31
0.0
  0
LINE
  5
230
330
17
100
AcDbEntity
  8
4
100
AcDbLine
 10
1721.211169036672
 20
398.6834479005447
 30
0.0
 11
1741.211167036672
 21
250.1834479005447
 31
0.0
  0
LINE
  5
231
330
17
100
AcDbEntity
  8
4
100
AcDbLine
 10
1741.211167036672
 20
265.1661139005446
 30
0.0
 11
1723.193101036672
 21
398.9502919005447
 31
0.0
  0
LINE
  5
240
330
17
100
AcDbEntity
  8
L-CENTER
 48
2.0
100
AcDbLine
 10
1735.211167036672
 20
123.6834459005447
 30
0.0
 11
1735.211167036672
 21
28.6834499005447
 31
0.0
  0
ARC
  5
241
330
17
100
AcDbEntity
  8
4
100
AcDbCircle
 10
1755.711169036672
 20
118.6834459005447
 30
0.0
 40
15.0
100
AcDbArc
 50
270.0
 51
0.0
  0
ARC
  5
244
330
17
100
AcDbEntity
  8
4
100
AcDbCircle
 10
1698.211171036672
 20
100.6834459005447
 30
0.0
 40
3.0
100
AcDbArc
 50
90.0
 51
180.0
  0
LINE
  5
245
330
17
100
AcDbEntity
  8
4
100
AcDbLine
 10
1695.211171036672
 20
100.6834459005447
 30
0.0
 11
1695.211171036672
 21
48.6834499005447
 31
0.0
  0
LINE
  5
24E
330
17
100
AcDbEntity
  8
4
100
AcDbLine
 10
1715.211169036672
 20
103.6834459005447
 30
0.0
 11
1770.711169036672
 21
218.6834479005447
 31
0.0
  0
LINE
  5
24F
330
17
100
AcDbEntity
  8
4
100
AcDbLine
 10
1770.711169036672
 20
118.6834459005447
 30
0.0
 11
1770.711169036672
 21
218.6834479005447
 31
0.0
  0
CIRCLE
  5
253
330
17
100
AcDbEntity
  8
4
100
AcDbCircle
 10
1885.211167036672
 20
218.6834479005447
 30
0.0
 40
114.499998
  0
CIRCLE
  5
254
330
17
100
AcDbEntity
  8
L-CENTER
 48
2.0
100
AcDbCircle
 10
1885.211167036672
 20
218.6834479005447
 30
0.0
 40
97.5
  0
LINE
  5
255
330
17
100
AcDbEntity
  8
4
100
AcDbLine
 10
2075.211169036672
 20
48.6834499005447
 30
0.0
 11
1695.211171036672
 21
48.6834499005447
 31
0.0
  0
LINE
  5
256
330
17
100
AcDbEntity
  8
4
100
AcDbLine
 10
2072.211169036672
 20
103.6834459005447
 30
0.0
 11
1698.211171036672
 21
103.6834459005447
 31
0.0
  0
LINE
  5
257
330
17
100
AcDbEntity
  8
L-CENTER
 48
2.0
100
AcDbLine
 10
1845.688293706136
 20
150.2283247899622
 30
0.0
 11
1827.233609954904
 21
118.2638657725529
 31
0.0
  0
LINE
  5
25A
330
17
100
AcDbEntity
  8
L-CENTER
 48
2.0
100
AcDbLine
 10
2084.756157609514
 20
513.6834499005447
 30
0.0
 11
1514.838181036671
 21
513.6834499005447
 31
0.0
  0
LINE
  5
25B
330
17
100
AcDbEntity
  8
L-CENTER
 48
2.0
100
AcDbLine
 10
1827.233588524378
 20
319.1030176554009
 30
0.0
 11
1845.688219036672
 21
287.1385279005449
 31
0.0
  0
LINE
  5
25C
330
17
100
AcDbEntity
  8
L-CENTER
 48
2.0
100
AcDbLine
 10
2013.343749641826
 20
218.6834479005447
 30
0.0
 11
1757.078584431517
 21
218.6834479005447
 31
0.0
  0
CIRCLE
  5
25D
330
17
100
AcDbEntity
  8
4
100
AcDbCircle
 10
1885.211167036672
 20
218.6834479005447
 30
0.0
 40
72.0
  0
LINE
  5
25F
330
17
100
AcDbEntity
  8
L-CENTER
 48
2.0
100
AcDbLine
 10
1885.211167036672
 20
924.2902720765053
 30
0.0
 11
1885.211167036672
 21
26.66515390054474
 31
0.0
  0
LINE
  5
262
330
17
100
AcDbEntity
  8
4
100
AcDbLine
 10
1695.211171036672
 20
406.4498059005448
 30
0.0
 11
1695.211171036672
 21
620.9170939005446
 31
0.0
  0
LINE
  5
263
330
17
100
AcDbEntity
  8
4
100
AcDbLine
 10
1721.211169036672
 20
628.6834459005445
 30
0.0
 11
1721.211169036672
 21
398.6834479005447
 31
0.0
  0
LINE
  5
264
330
17
100
AcDbEntity
  8
4
100
AcDbLine
 10
1741.211167036672
 20
806.1834499005449
 30
0.0
 11
1741.211167036672
 21
221.1834499005447
 31
0.0
  0
LINE
  5
265
330
17
100
AcDbEntity
  8
4
100
AcDbLine
 10
1769.211169036672
 20
217.1834479005447
 30
0.0
 11
1769.211169036672
 21
810.1834459005445
 31
0.0
  0
LINE
  5
266
330
17
100
AcDbEntity
  8
4
100
AcDbLine
 10
2075.211073036673
 20
620.9170939005446
 30
0.0
 11
2075.211073036673
 21
406.4498059005448
 31
0.0
  0
LINE
  5
267
330
17
100
AcDbEntity
  8
4
100
AcDbLine
 10
2049.211069036671
 20
398.6834479005447
 30
0.0
 11
2049.211069036671
 21
628.6834459005445
 31
0.0
  0
LINE
  5
268
330
17
100
AcDbEntity
  8
4
100
AcDbLine
 10
2004.211171036671
 20
220.1834479005447
 30
0.0
 11
2004.211171036671
 21
807.1834459005445
 31
0.0
  0
LINE
  5
269
330
17
100
AcDbEntity
  8
4
100
AcDbLine
 10
2001.211171036671
 20
215.1700219005447
 30
0.0
 11
2001.211171036671
 21
810.1834459005445
 31
0.0
  0
LINE
  5
26A
330
17
100
AcDbEntity
  8
4
100
AcDbLine
 10
2031.211069036671
 20
806.1834499005449
 30
0.0
 11
2031.211069036671
 21
221.1834499005447
 31
0.0
  0
LINE
  5
26D
330
17
100
AcDbEntity
  8
4
100
AcDbLine
 10
1721.211169036672
 20
586.6834499005447
 30
0.0
 11
1741.211167036672
 21
573.2051892067827
 31
0.0
  0
LINE
  5
26E
330
17
100
AcDbEntity
  8
4
100
AcDbLine
 10
957.9848827114852
 20
1780.945580605442
 30
0.0
 11
957.9848827114861
 21
1783.945580605442
 31
0.0
  0
LINE
  5
26F
330
17
100
AcDbEntity
  8
4
100
AcDbLine
 10
975.7848827114854
 20
1779.445580605442
 30
0.0
 11
960.9848827114861
 21
1779.445580605442
 31
0.0
  0
ARC
  5
270
330
17
100
AcDbEntity
  8
4
100
AcDbCircle
 10
975.7848827114854
 20
1778.445580605442
 30
0.0
 40
1.0
100
AcDbArc
 50
0.0
 51
90.0
  0
LINE
  5
271
330
17
100
AcDbEntity
  8
4
100
AcDbLine
 10
959.9848827114861
 20
1784.245580605442
 30
0.0
 11
959.9848827114861
 21
1810.245580605442
 31
0.0
  0
ARC
  5
272
330
17
100
AcDbEntity
  8
4
100
AcDbCircle
 10
958.9848827114852
 20
1810.245580605442
 30
0.0
 40
1.0
100
AcDbArc
 50
0.0
 51
90.0
  0
ARC
  5
273
330
17
100
AcDbEntity
  8
4
100
AcDbCircle
 10
983.909503836207
 20
1770.672821941394
 30
0.0
 40
3.875378875279244
100
AcDbArc
 50
314.9559267627452
 51
45.04407323725481
  0
ARC
  5
274
330
17
100
AcDbEntity
  8
4
100
AcDbCircle
 10
973.989138576308
 20
1762.445580605442
 30
0.0
 40
13.7957441351769
100
AcDbArc
 50
336.5734024913729
 51
23.42659750862713
  0
LINE
  5
275
330
17
100
AcDbEntity
  8
4
100
AcDbLine
 10
987.7848827114854
 20
1754.21833926949
 30
0.0
 11
987.7848827114854
 21
1770.672821941394
 31
0.0
  0
ARC
  5
276
330
17
100
AcDbEntity
  8
4
100
AcDbCircle
 10
983.909503836207
 20
1754.21833926949
 30
0.0
 40
3.875378875279264
100
AcDbArc
 50
314.9559267627452
 51
45.04407323725481
  0
LINE
  5
277
330
17
100
AcDbEntity
  8
4
100
AcDbLine
 10
979.7848827114854
 20
1773.415235720045
 30
0.0
 11
979.7848827114854
 21
1751.475925490839
 31
0.0
  0
LINE
  5
278
330
17
100
AcDbEntity
  8
4
100
AcDbLine
 10
976.7848827114854
 20
1773.415235720045
 30
0.0
 11
976.7848827114854
 21
1751.475925490839
 31
0.0
  0
LINE
  5
279
330
17
100
AcDbEntity
  8
4
100
AcDbLine
 10
986.6477018008595
 20
1724.665498976192
 30
0.0
 11
976.7848827114854
 21
1724.665498976192
 31
0.0
  0
LINE
  5
27A
330
17
100
AcDbEntity
  8
4
100
AcDbLine
 10
976.7848827114854
 20
1751.475925490839
 30
0.0
 11
986.6477018008595
 21
1751.475925490839
 31
0.0
  0
LINE
  5
27B
330
17
100
AcDbEntity
  8
4
100
AcDbLine
 10
986.6477018008595
 20
1756.96075304814
 30
0.0
 11
979.7848827114854
 21
1756.96075304814
 31
0.0
  0
LINE
  5
27C
330
17
100
AcDbEntity
  8
4
100
AcDbLine
 10
986.6477018008595
 20
1767.930408162743
 30
0.0
 11
979.7848827114854
 21
1767.930408162743
 31
0.0
  0
LINE
  5
27D
330
17
100
AcDbEntity
  8
4
100
AcDbLine
 10
986.6477018008595
 20
1773.415235720045
 30
0.0
 11
976.7848827114854
 21
1773.415235720045
 31
0.0
  0
ARC
  5
283
330
17
100
AcDbEntity
  8
4
100
AcDbCircle
 10
983.909503836207
 20
1705.468602525637
 30
0.0
 40
3.875378875279264
100
AcDbArc
 50
314.9559267627452
 51
45.04407323725481
  0
ARC
  5
284
330
17
100
AcDbEntity
  8
4
100
AcDbCircle
 10
973.989138576308
 20
1713.695843861589
 30
0.0
 40
13.7957441351769
100
AcDbArc
 50
336.5734024913729
 51
23.42659750862713
  0
LINE
  5
286
330
17
100
AcDbEntity
  8
4
100
AcDbLine
 10
986.6477018008595
 20
1719.180671418891
 30
0.0
 11
979.7848827114854
 21
1719.180671418891
 31
0.0
  0
LINE
  5
287
330
17
100
AcDbEntity
  8
4
100
AcDbLine
 10
986.6477018008595
 20
1708.211016304288
 30
0.0
 11
979.7848827114854
 21
1708.211016304288
 31
0.0
  0
LINE
  5
288
330
17
100
AcDbEntity
  8
4
100
AcDbLine
 10
976.7848827114854
 20
1702.726188746986
 30
0.0
 11
986.6477018008595
 21
1702.726188746986
 31
0.0
  0
LINE
  5
28A
330
17
100
AcDbEntity
  8
4
100
AcDbLine
 10
987.7848827114854
 20
1624.422558685246
 30
0.0
 11
987.7848827114854
 21
1607.968076013342
 31
0.0
  0
ARC
  5
28B
330
17
100
AcDbEntity
  8
4
100
AcDbCircle
 10
973.989138576308
 20
1616.195317349294
 30
0.0
 40
13.7957441351769
100
AcDbArc
 50
336.5734024913729
 51
23.42659750862713
  0
ARC
  5
28C
330
17
100
AcDbEntity
  8
4
100
AcDbCircle
 10
983.909503836207
 20
1624.422558685246
 30
0.0
 40
3.875378875279264
100
AcDbArc
 50
314.9559267627452
 51
45.04407323725481
  0
LINE
  5
28E
330
17
100
AcDbEntity
  8
4
100
AcDbLine
 10
976.7848827114854
 20
1627.164972463897
 30
0.0
 11
986.6477018008595
 21
1627.164972463897
 31
0.0
  0
LINE
  5
28F
330
17
100
AcDbEntity
  8
4
100
AcDbLine
 10
986.6477018008595
 20
1621.680144906596
 30
0.0
 11
979.7848827114854
 21
1621.680144906596
 31
0.0
  0
LINE
  5
290
330
17
100
AcDbEntity
  8
4
100
AcDbLine
 10
986.6477018008595
 20
1610.710489791993
 30
0.0
 11
979.7848827114854
 21
1610.710489791993
 31
0.0
  0
LINE
  5
295
330
17
100
AcDbEntity
  8
4
100
AcDbLine
 10
987.7848827114854
 20
1575.672821941394
 30
0.0
 11
987.7848827114854
 21
1559.218339269489
 31
0.0
  0
ARC
  5
296
330
17
100
AcDbEntity
  8
4
100
AcDbCircle
 10
973.989138576308
 20
1567.445580605442
 30
0.0
 40
13.7957441351769
100
AcDbArc
 50
336.5734024913729
 51
23.42659750862713
  0
ARC
  5
297
330
17
100
AcDbEntity
  8
4
100
AcDbCircle
 10
983.909503836207
 20
1575.672821941394
 30
0.0
 40
3.875378875279264
100
AcDbArc
 50
314.9559267627452
 51
45.04407323725481
  0
ARC
  5
298
330
17
100
AcDbEntity
  8
4
100
AcDbCircle
 10
983.909503836207
 20
1559.218339269489
 30
0.0
 40
3.875378875279244
100
AcDbArc
 50
314.9559267627452
 51
45.04407323725481
  0
LINE
  5
299
330
17
100
AcDbEntity
  8
4
100
AcDbLine
 10
975.7848827114854
 20
1550.445580605442
 30
0.0
 11
960.9848827114861
 21
1550.445580605442
 31
0.0
  0
ARC
  5
29A
330
17
100
AcDbEntity
  8
4
100
AcDbCircle
 10
975.7848827114854
 20
1551.445580605442
 30
0.0
 40
1.0
100
AcDbArc
 50
270.0
 51
0.0
  0
LINE
  5
29B
330
17
100
AcDbEntity
  8
4
100
AcDbLine
 10
976.7848827114854
 20
1556.475925490839
 30
0.0
 11
976.7848827114854
 21
1578.415235720044
 31
0.0
  0
LINE
  5
29C
330
17
100
AcDbEntity
  8
4
100
AcDbLine
 10
979.7848827114854
 20
1556.475925490839
 30
0.0
 11
979.7848827114854
 21
1578.415235720044
 31
0.0
  0
LINE
  5
29D
330
17
100
AcDbEntity
  8
4
100
AcDbLine
 10
986.6477018008595
 20
1561.96075304814
 30
0.0
 11
979.7848827114854
 21
1561.96075304814
 31
0.0
  0
LINE
  5
29E
330
17
100
AcDbEntity
  8
4
100
AcDbLine
 10
986.6477018008595
 20
1572.930408162743
 30
0.0
 11
979.7848827114854
 21
1572.930408162743
 31
0.0
  0
LINE
  5
29F
330
17
100
AcDbEntity
  8
4
100
AcDbLine
 10
976.7848827114854
 20
1578.415235720044
 30
0.0
 11
986.6477018008595
 21
1578.415235720044
 31
0.0
  0
LINE
  5
2A0
330
17
100
AcDbEntity
  8
4
100
AcDbLine
 10
986.6477018008595
 20
1605.225662234691
 30
0.0
 11
976.7848827114854
 21
1605.225662234691
 31
0.0
  0
LINE
  5
2A1
330
17
100
AcDbEntity
  8
4
100
AcDbLine
 10
986.6477018008595
 20
1556.475925490839
 30
0.0
 11
976.7848827114854
 21
1556.475925490839
 31
0.0
  0
LINE
  5
2A2
330
17
100
AcDbEntity
  8
4
100
AcDbLine
 10
957.9848827114861
 20
1520.945580605442
 30
0.0
 11
957.9848827114861
 21
1548.945580605442
 31
0.0
  0
LINE
  5
2A3
330
17
100
AcDbEntity
  8
4
100
AcDbLine
 10
979.7848827114854
 20
1605.225662234691
 30
0.0
 11
979.7848827114854
 21
1627.164972463897
 31
0.0
  0
LINE
  5
2A4
330
17
100
AcDbEntity
  8
4
100
AcDbLine
 10
976.7848827114854
 20
1605.225662234691
 30
0.0
 11
976.7848827114854
 21
1627.164972463897
 31
0.0
  0
ARC
  5
2A5
330
17
100
AcDbEntity
  8
4
100
AcDbCircle
 10
983.909503836207
 20
1607.968076013342
 30
0.0
 40
3.875378875279244
100
AcDbArc
 50
314.9559267627452
 51
45.04407323725481
  0
LINE
  5
2AA
330
17
100
AcDbEntity
  8
4
100
AcDbLine
 10
960.9848827114852
 20
1548.945580605442
 30
0.0
 11
960.9848827114861
 21
1780.945580605442
 31
0.0
  0
LINE
  5
2AB
330
17
100
AcDbEntity
  8
4
100
AcDbLine
 10
976.7848827114854
 20
1551.445580605442
 30
0.0
 11
976.7848827114854
 21
1778.445580605442
 31
0.0
  0
ARC
  5
2AC
330
17
100
AcDbEntity
  8
4
100
AcDbCircle
 10
983.909503836207
 20
1721.923085197541
 30
0.0
 40
3.875378875279244
100
AcDbArc
 50
314.9559267627452
 51
45.04407323725481
  0
LINE
  5
2AD
330
17
100
AcDbEntity
  8
4
100
AcDbLine
 10
976.7848827114854
 20
1724.665498976192
 30
0.0
 11
976.7848827114854
 21
1702.726188746986
 31
0.0
  0
LINE
  5
2AE
330
17
100
AcDbEntity
  8
4
100
AcDbLine
 10
987.7848827114854
 20
1705.468602525637
 30
0.0
 11
987.7848827114854
 21
1721.923085197541
 31
0.0
  0
LINE
  5
2AF
330
17
100
AcDbEntity
  8
4
100
AcDbLine
 10
979.7848827114854
 20
1724.665498976192
 30
0.0
 11
979.7848827114854
 21
1702.726188746986
 31
0.0
  0
ARC
  5
2B5
330
17
100
AcDbEntity
  8
4
100
AcDbCircle
 10
928.4848827114861
 20
1844.945580605442
 30
0.0
 40
10.0
100
AcDbArc
 50
0.0
 51
90.0
  0
LINE
  5
2B6
330
17
100
AcDbEntity
  8
4
100
AcDbLine
 10
951.2121240474376
 20
1822.245580605442
 30
0.0
 11
934.7576413755346
 21
1822.245580605442
 31
0.0
  0
LINE
  5
2B7
330
17
100
AcDbEntity
  8
4
100
AcDbLine
 10
932.0152275968835
 20
1811.245580605442
 30
0.0
 11
953.9545378260887
 21
1811.245580605442
 31
0.0
  0
ARC
  5
2B8
330
17
100
AcDbEntity
  8
4
100
AcDbCircle
 10
934.7576413755346
 20
1818.370201730163
 30
0.0
 40
3.875378875279244
100
AcDbArc
 50
44.9559267627547
 51
135.0440732372572
  0
LINE
  5
2B9
330
17
100
AcDbEntity
  8
4
100
AcDbLine
 10
932.0152275968835
 20
1814.245580605442
 30
0.0
 11
953.9545378260887
 21
1814.245580605442
 31
0.0
  0
LINE
  5
2BA
330
17
100
AcDbEntity
  8
4
100
AcDbLine
 10
932.0152275968835
 20
1821.108399694815
 30
0.0
 11
932.0152275968835
 21
1811.245580605442
 31
0.0
  0
ARC
  5
2BB
330
17
100
AcDbEntity
  8
4
100
AcDbCircle
 10
951.2121240474385
 20
1818.370201730163
 30
0.0
 40
3.875378875279264
100
AcDbArc
 50
44.9559267627547
 51
135.0440732372572
  0
LINE
  5
2BC
330
17
100
AcDbEntity
  8
4
100
AcDbLine
 10
948.4697102687883
 20
1821.108399694815
 30
0.0
 11
948.4697102687883
 21
1814.245580605442
 31
0.0
  0
LINE
  5
2BD
330
17
100
AcDbEntity
  8
4
100
AcDbLine
 10
953.9545378260887
 20
1811.245580605442
 30
0.0
 11
953.9545378260887
 21
1821.108399694815
 31
0.0
  0
LINE
  5
2BE
330
17
100
AcDbEntity
  8
4
100
AcDbLine
 10
937.5000551541839
 20
1821.108399694815
 30
0.0
 11
937.5000551541839
 21
1814.245580605442
 31
0.0
  0
ARC
  5
2BF
330
17
100
AcDbEntity
  8
4
100
AcDbCircle
 10
942.984882711487
 20
1808.449836470265
 30
0.0
 40
13.7957441351769
100
AcDbArc
 50
66.5734024913725
 51
113.4265975086275
  0
LINE
  5
2C0
330
17
100
AcDbEntity
  8
L-CENTER
 48
2.0
100
AcDbLine
 10
942.9848827114861
 20
1825.846420485546
 30
0.0
 11
942.9848827114861
 21
1771.5689668475
 31
0.0
  0
ARC
  5
2C1
330
17
100
AcDbEntity
  8
4
100
AcDbCircle
 10
844.4848827114861
 20
1814.945580605442
 30
0.0
 40
13.0
100
AcDbArc
 50
24.83251994856637
 51
139.0693566480893
  0
LINE
  5
2C2
330
17
100
AcDbEntity
  8
4
100
AcDbLine
 10
938.4848827114861
 20
1844.945580605442
 30
0.0
 11
938.4848827114852
 21
1822.245580605442
 31
0.0
  0
LINE
  5
2C3
330
17
100
AcDbEntity
  8
L-CENTER
 48
2.0
100
AcDbLine
 10
844.4848827114861
 20
1842.245580605442
 30
0.0
 11
844.4848827114861
 21
1787.645580605441
 31
0.0
  0
ARC
  5
2C4
330
17
100
AcDbEntity
  8
4
100
AcDbCircle
 10
771.718504863959
 20
1854.245580605442
 30
0.0
 40
1.0
100
AcDbArc
 50
15.06848815950598
 51
90.0
  0
LINE
  5
2C5
330
17
100
AcDbEntity
  8
4
100
AcDbLine
 10
729.4848827114861
 20
1855.245580605442
 30
0.0
 11
729.4848827114861
 21
1856.245580605442
 31
0.0
  0
LINE
  5
2C9
330
17
100
AcDbEntity
  8
4
100
AcDbLine
 10
809.2197102687883
 20
1821.108399694815
 30
0.0
 11
809.2197102687883
 21
1814.245580605442
 31
0.0
  0
LINE
  5
2CA
330
17
100
AcDbEntity
  8
4
100
AcDbLine
 10
814.7045378260896
 20
1811.245580605442
 30
0.0
 11
814.7045378260896
 21
1821.108399694815
 31
0.0
  0
ARC
  5
2CB
330
17
100
AcDbEntity
  8
4
100
AcDbCircle
 10
811.9621240474385
 20
1818.370201730163
 30
0.0
 40
3.875378875279264
100
AcDbArc
 50
44.95592676275351
 51
135.0440732372584
  0
ARC
  5
2CC
330
17
100
AcDbEntity
  8
4
100
AcDbCircle
 10
781.0727353669031
 20
1831.040934752652
 30
0.0
 40
2.0
100
AcDbArc
 50
195.0684881594925
 51
261.9509382983153
  0
LINE
  5
2CD
330
17
100
AcDbEntity
  8
4
100
AcDbLine
 10
798.2500551541848
 20
1821.108399694815
 30
0.0
 11
798.2500551541848
 21
1814.245580605442
 31
0.0
  0
LINE
  5
2CE
330
17
100
AcDbEntity
  8
4
100
AcDbLine
 10
792.7652275968835
 20
1821.108399694815
 30
0.0
 11
792.7652275968835
 21
1811.245580605442
 31
0.0
  0
ARC
  5
2CF
330
17
100
AcDbEntity
  8
4
100
AcDbCircle
 10
795.5076413755346
 20
1818.370201730163
 30
0.0
 40
3.875378875279244
100
AcDbArc
 50
44.95592676274281
 51
135.0440732372572
  0
LINE
  5
2D0
330
17
100
AcDbEntity
  8
4
100
AcDbLine
 10
792.7652275968835
 20
1811.245580605442
 30
0.0
 11
814.7045378260896
 21
1811.245580605442
 31
0.0
  0
LINE
  5
2D1
330
17
100
AcDbEntity
  8
4
100
AcDbLine
 10
792.7652275968835
 20
1814.245580605442
 30
0.0
 11
814.7045378260896
 21
1814.245580605442
 31
0.0
  0
LINE
  5
2D2
330
17
100
AcDbEntity
  8
4
100
AcDbLine
 10
811.9621240474385
 20
1822.245580605442
 30
0.0
 11
795.5076413755346
 21
1822.245580605442
 31
0.0
  0
ARC
  5
2D3
330
17
100
AcDbEntity
  8
4
100
AcDbCircle
 10
803.734882711487
 20
1808.449836470265
 30
0.0
 40
13.7957441351769
100
AcDbArc
 50
66.5734024913725
 51
113.4265975086275
  0
LINE
  5
2D4
330
17
100
AcDbEntity
  8
L-CENTER
 48
2.0
100
AcDbLine
 10
803.734882711487
 20
1825.846420485546
 30
0.0
 11
803.734882711487
 21
1771.5689668475
 31
0.0
  0
LINE
  5
2D5
330
17
100
AcDbEntity
  8
4
100
AcDbLine
 10
779.1415038498621
 20
1830.520987805757
 30
0.0
 11
772.6841206224803
 21
1854.50555407889
 31
0.0
  0
LINE
  5
2D6
330
17
100
AcDbEntity
  8
L-CENTER
 48
2.0
100
AcDbLine
 10
871.7848827114854
 20
1814.945580605442
 30
0.0
 11
817.1848827114868
 21
1814.945580605442
 31
0.0
  0
LINE
  5
2D7
330
17
100
AcDbEntity
  8
4
100
AcDbLine
 10
928.4848827114861
 20
1854.945580605442
 30
0.0
 11
772.432647706813
 21
1854.945580605442
 31
0.0
  0
LINE
  5
2D8
330
17
100
AcDbEntity
  8
4
100
AcDbLine
 10
906.7705969971962
 20
1811.245580605442
 30
0.0
 11
780.7926933574513
 21
1829.060637685811
 31
0.0
  0
LINE
  5
2D9
330
17
100
AcDbEntity
  8
4
100
AcDbLine
 10
921.0541682650432
 20
1811.245580605442
 30
0.0
 11
779.7649247209379
 21
1831.225877672283
 31
0.0
  0
ARC
  5
2DA
330
17
100
AcDbEntity
  8
4
100
AcDbCircle
 10
844.4848827114861
 20
1514.945580605442
 30
0.0
 40
13.0
100
AcDbArc
 50
215.7272285348466
 51
341.8810499694306
  0
ARC
  5
2DB
330
17
100
AcDbEntity
  8
4
100
AcDbCircle
 10
781.0776344652136
 20
1499.168423109098
 30
0.0
 40
2.0
100
AcDbArc
 50
98.80413925214474
 51
164.9315118405074
  0
LINE
  5
2DC
330
17
100
AcDbEntity
  8
4
100
AcDbLine
 10
764.4848827114861
 20
1500.945580605442
 30
0.0
 11
764.4848827114861
 21
1515.776580605442
 31
0.0
  0
LINE
  5
2DD
330
17
100
AcDbEntity
  8
4
100
AcDbLine
 10
756.4848827114861
 20
1501.694580605441
 30
0.0
 11
756.4848827114861
 21
1514.551580605442
 31
0.0
  0
LINE
  5
2DE
330
17
100
AcDbEntity
  8
4
100
AcDbLine
 10
740.4848827114861
 20
1510.113345286442
 30
0.0
 11
740.4848827114861
 21
1506.133815888442
 31
0.0
  0
LINE
  5
2DF
330
17
100
AcDbEntity
  8
4
100
AcDbLine
 10
748.4848827114861
 20
1510.113345286442
 30
0.0
 11
748.4848827114861
 21
1506.133815888442
 31
0.0
  0
LINE
  5
2E0
330
17
100
AcDbEntity
  8
4
100
AcDbLine
 10
727.4900761467202
 20
1515.776580605442
 30
0.0
 11
724.0066220177237
 21
1520.945576605442
 31
0.0
  0
LINE
  5
2E1
330
17
100
AcDbEntity
  8
4
100
AcDbLine
 10
714.4848827114861
 20
1510.113345286441
 30
0.0
 11
714.4848827114861
 21
1506.133815888441
 31
0.0
  0
LINE
  5
2E2
330
17
100
AcDbEntity
  8
4
100
AcDbLine
 10
706.4848827114861
 20
1510.113345286442
 30
0.0
 11
706.4848827114852
 21
1506.133815888442
 31
0.0
  0
LINE
  5
2E3
330
17
100
AcDbEntity
  8
4
100
AcDbLine
 10
764.4848827114861
 20
1515.776580605442
 30
0.0
 11
727.4900761467202
 21
1515.776580605442
 31
0.0
  0
ELLIPSE
  5
2E4
330
17
100
AcDbEntity
  8
4
100
AcDbEllipse
 10
727.4848827114861
 20
1510.113345286442
 30
0.0
 11
-13.0
 21
0.0
 31
0.0
210
0.0
220
0.0
230
1.0
 40
0.1530588230000026
 41
3.141592653589793
 42
6.283185307179586
  0
ELLIPSE
  5
2E5
330
17
100
AcDbEntity
  8
4
100
AcDbEllipse
 10
727.4848827114861
 20
1506.133815888442
 30
0.0
 11
-13.0
 21
0.0
 31
0.0
210
0.0
220
0.0
230
1.0
 40
0.1530588230000026
 41
0.0
 42
3.141592653589793
  0
ELLIPSE
  5
2E6
330
17
100
AcDbEntity
  8
4
100
AcDbEllipse
 10
727.4848827114861
 20
1510.113345286442
 30
0.0
 11
-21.0
 21
0.0
 31
0.0
210
0.0
220
0.0
230
1.0
 40
0.1530588230000051
 41
3.141592653589793
 42
6.283185307179586
  0
ELLIPSE
  5
2E7
330
17
100
AcDbEntity
  8
4
100
AcDbEllipse
 10
727.4848827114861
 20
1506.133815888442
 30
0.0
 11
-21.0
 21
0.0
 31
0.0
210
0.0
220
0.0
230
1.0
 40
0.1530588230000051
 41
0.0
 42
3.141592653589793
  0
LINE
  5
2E8
330
17
100
AcDbEntity
  8
L-CENTER
 48
2.0
100
AcDbLine
 10
871.7848827114854
 20
1514.945580605442
 30
0.0
 11
817.1848827114868
 21
1514.945580605442
 31
0.0
  0
LINE
  5
2E9
330
17
100
AcDbEntity
  8
4
100
AcDbLine
 10
921.6823252568342
 20
1520.945580605442
 30
0.0
 11
778.9162912926208
 21
1498.833669621086
 31
0.0
  0
LINE
  5
2EA
330
17
100
AcDbEntity
  8
4
100
AcDbLine
 10
908.6153174940941
 20
1520.945580605442
 30
0.0
 11
780.7715200071348
 21
1501.144857762344
 31
0.0
  0
LINE
  5
2EF
330
17
100
AcDbEntity
  8
4
100
AcDbLine
 10
599.4848827114852
 20
1855.245580605441
 30
0.0
 11
599.4848827114861
 21
1856.245580605441
 31
0.0
  0
LINE
  5
2F0
330
17
100
AcDbEntity
  8
4
100
AcDbLine
 10
689.4848827114861
 20
1821.245580605442
 30
0.0
 11
689.4848827114861
 21
1813.588711895842
 31
0.0
  0
LINE
  5
2F1
330
17
100
AcDbEntity
  8
4
100
AcDbLine
 10
664.4848827114861
 20
1784.245580605442
 30
0.0
 11
664.4848827114861
 21
1784.245580605442
 31
0.0
  0
LINE
  5
2F2
330
17
100
AcDbEntity
  8
4
100
AcDbLine
 10
664.4848827114861
 20
1784.245580605442
 30
0.0
 11
664.4848827114861
 21
1784.245580605442
 31
0.0
  0
LINE
  5
2F3
330
17
100
AcDbEntity
  8
4
100
AcDbLine
 10
639.4848827114861
 20
1813.588711895842
 30
0.0
 11
639.4848827114861
 21
1821.245580605442
 31
0.0
  0
LINE
  5
2F4
330
17
100
AcDbEntity
  8
4
100
AcDbLine
 10
639.4848827114861
 20
1820.65941896655
 30
0.0
 11
639.4848827114861
 21
1820.65941896655
 31
0.0
  0
LINE
  5
2F5
330
17
100
AcDbEntity
  8
4
100
AcDbLine
 10
689.4848827114861
 20
1813.588711895842
 30
0.0
 11
639.4848827114861
 21
1813.588711895842
 31
0.0
  0
LINE
  5
2F6
330
17
100
AcDbEntity
  8
4
100
AcDbLine
 10
689.4848827114861
 20
1821.245580605442
 30
0.0
 11
639.4848827114861
 21
1821.245580605442
 31
0.0
  0
ARC
  5
2F7
330
17
100
AcDbEntity
  8
4
100
AcDbCircle
 10
557.2512605590114
 20
1854.245580605442
 30
0.0
 40
1.0
100
AcDbArc
 50
90.0
 51
164.931511840494
  0
ARC
  5
2F8
330
17
100
AcDbEntity
  8
4
100
AcDbCircle
 10
547.8970300560673
 20
1831.040934752652
 30
0.0
 40
2.0
100
AcDbArc
 50
278.049061701657
 51
344.9315118405075
  0
LINE
  5
2F9
330
17
100
AcDbEntity
  8
4
100
AcDbLine
 10
536.2045378260877
 20
1821.108399694815
 30
0.0
 11
536.2045378260877
 21
1811.245580605442
 31
0.0
  0
ARC
  5
2FA
330
17
100
AcDbEntity
  8
4
100
AcDbCircle
 10
533.4621240474366
 20
1818.370201730163
 30
0.0
 40
3.875378875279244
100
AcDbArc
 50
44.95592676274281
 51
135.0440732372465
  0
LINE
  5
2FB
330
17
100
AcDbEntity
  8
4
100
AcDbLine
 10
530.7197102687865
 20
1821.108399694815
 30
0.0
 11
530.7197102687865
 21
1814.245580605442
 31
0.0
  0
LINE
  5
2FC
330
17
100
AcDbEntity
  8
L-CENTER
 48
2.0
100
AcDbLine
 10
525.2348827114843
 20
1825.846420485546
 30
0.0
 11
525.2348827114843
 21
1771.5689668475
 31
0.0
  0
LINE
  5
2FD
330
17
100
AcDbEntity
  8
4
100
AcDbLine
 10
514.2652275968817
 20
1811.245580605442
 30
0.0
 11
514.2652275968817
 21
1821.108399694815
 31
0.0
  0
ARC
  5
2FE
330
17
100
AcDbEntity
  8
4
100
AcDbCircle
 10
517.0076413755328
 20
1818.370201730163
 30
0.0
 40
3.875378875279264
100
AcDbArc
 50
44.95592676274163
 51
135.0440732372584
  0
LINE
  5
2FF
330
17
100
AcDbEntity
  8
4
100
AcDbLine
 10
519.750055154183
 20
1821.108399694815
 30
0.0
 11
519.750055154183
 21
1814.245580605442
 31
0.0
  0
LINE
  5
300
330
17
100
AcDbEntity
  8
4
100
AcDbLine
 10
484.4848827114861
 20
1822.073560380691
 30
0.0
 11
484.4848827114861
 21
1824.245580605442
 31
0.0
  0
ARC
  5
301
330
17
100
AcDbEntity
  8
4
100
AcDbCircle
 10
484.4848827114861
 20
1814.945580605442
 30
0.0
 40
13.0
100
AcDbArc
 50
40.9306433519139
 51
134.3252713414577
  0
LINE
  5
302
330
17
100
AcDbEntity
  8
4
100
AcDbLine
 10
536.2045378260877
 20
1811.245580605442
 30
0.0
 11
514.2652275968817
 21
1811.245580605442
 31
0.0
  0
ARC
  5
303
330
17
100
AcDbEntity
  8
4
100
AcDbCircle
 10
525.2348827114843
 20
1808.449836470265
 30
0.0
 40
13.7957441351769
100
AcDbArc
 50
66.5734024913725
 51
113.4265975086275
  0
LINE
  5
304
330
17
100
AcDbEntity
  8
4
100
AcDbLine
 10
517.0076413755328
 20
1822.245580605442
 30
0.0
 11
533.4621240474366
 21
1822.245580605442
 31
0.0
  0
LINE
  5
305
330
17
100
AcDbEntity
  8
4
100
AcDbLine
 10
536.2045378260877
 20
1814.245580605442
 30
0.0
 11
514.2652275968817
 21
1814.245580605442
 31
0.0
  0
LINE
  5
306
330
17
100
AcDbEntity
  8
L-CENTER
 48
2.0
100
AcDbLine
 10
484.4848827114861
 20
1842.245580605442
 30
0.0
 11
484.4848827114861
 21
1787.645580605441
 31
0.0
  0
LINE
  5
307
330
17
100
AcDbEntity
  8
4
100
AcDbLine
 10
549.8282615731082
 20
1830.520987805757
 30
0.0
 11
556.28564480049
 21
1854.50555407889
 31
0.0
  0
ARC
  5
308
330
17
100
AcDbEntity
  8
4
100
AcDbCircle
 10
664.4848827114861
 20
1664.945580605442
 30
0.0
 40
20.0
100
AcDbArc
 50
29.99999999999988
 51
150.0000000000001
  0
ARC
  5
309
330
17
100
AcDbEntity
  8
4
100
AcDbCircle
 10
664.4848827114861
 20
1664.945580605442
 30
0.0
 40
20.0
100
AcDbArc
 50
209.9999999999999
 51
330.0000000000002
  0
ARC
  5
30A
330
17
100
AcDbEntity
  8
4
100
AcDbCircle
 10
629.4848827114861
 20
1664.945580605442
 30
0.0
 40
10.0
100
AcDbArc
 50
90.0
 51
270.0
  0
ARC
  5
30B
330
17
100
AcDbEntity
  8
4
100
AcDbCircle
 10
664.4848827114861
 20
1664.945580605442
 30
0.0
 40
25.0
100
AcDbArc
 50
23.57817847820185
 51
156.4218215217992
  0
LINE
  5
30C
330
17
100
AcDbEntity
  8
4
100
AcDbLine
 10
629.4848827114861
 20
1654.945580605442
 30
0.0
 11
699.4848827114861
 21
1654.945580605442
 31
0.0
  0
ARC
  5
30D
330
17
100
AcDbEntity
  8
4
100
AcDbCircle
 10
664.4848827114861
 20
1664.945580605442
 30
0.0
 40
22.5
100
AcDbArc
 50
206.3877999612428
 51
333.6122000387569
  0
LINE
  5
30E
330
17
100
AcDbEntity
  8
4
100
AcDbLine
 10
629.4848827114861
 20
1674.945580605442
 30
0.0
 11
699.4848827114861
 21
1674.945580605442
 31
0.0
  0
ARC
  5
30F
330
17
100
AcDbEntity
  8
4
100
AcDbCircle
 10
664.4848827114861
 20
1664.945580605442
 30
0.0
 40
22.5
100
AcDbArc
 50
26.38779996124313
 51
153.6122000387571
  0
ARC
  5
310
330
17
100
AcDbEntity
  8
4
100
AcDbCircle
 10
664.4848827114861
 20
1664.945580605442
 30
0.0
 40
25.0
100
AcDbArc
 50
203.5781784782008
 51
336.4218215217981
  0
LINE
  5
311
330
17
100
AcDbEntity
  8
4
100
AcDbLine
 10
684.4848827114861
 20
1508.735815879442
 30
0.0
 11
684.4848827114861
 21
1507.511345295442
 31
0.0
  0
LINE
  5
312
330
17
100
AcDbEntity
  8
4
100
AcDbLine
 10
698.4848827114861
 20
1513.327580569442
 30
0.0
 11
690.4848827114861
 21
1513.327580569442
 31
0.0
  0
LINE
  5
313
330
17
100
AcDbEntity
  8
4
100
AcDbLine
 10
690.4848827114861
 20
1502.919580605442
 30
0.0
 11
698.4848827114861
 21
1502.919580605442
 31
0.0
  0
LINE
  5
314
330
17
100
AcDbEntity
  8
4
100
AcDbLine
 10
698.4848827114861
 20
1513.327580569442
 30
0.0
 11
698.4848827114861
 21
1502.919580605442
 31
0.0
  0
LINE
  5
315
330
17
100
AcDbEntity
  8
4
100
AcDbLine
 10
690.4848827114861
 20
1513.327580569442
 30
0.0
 11
690.4848827114861
 21
1502.919580605442
 31
0.0
  0
LINE
  5
316
330
17
100
AcDbEntity
  8
4
100
AcDbLine
 10
648.4848827114861
 20
1513.327580569442
 30
0.0
 11
669.4848827114861
 21
1502.919580605442
 31
0.0
  0
LINE
  5
317
330
17
100
AcDbEntity
  8
4
100
AcDbLine
 10
661.1120811356454
 20
1502.919580605442
 30
0.0
 11
669.4848827114861
 21
1502.919580605442
 31
0.0
  0
LINE
  5
318
330
17
100
AcDbEntity
  8
4
100
AcDbLine
 10
644.4848827114861
 20
1511.160336824494
 30
0.0
 11
652.4650223121175
 21
1507.205227649442
 31
0.0
  0
LINE
  5
319
330
17
100
AcDbEntity
  8
4
100
AcDbLine
 10
654.9356105474103
 20
1505.980757065442
 30
0.0
 11
661.1120811356454
 21
1502.919580605442
 31
0.0
  0
LINE
  5
31A
330
17
100
AcDbEntity
  8
4
100
AcDbLine
 10
670.4848827114861
 20
1508.735815879442
 30
0.0
 11
670.4848827114861
 21
1507.511345295442
 31
0.0
  0
LINE
  5
31B
330
17
100
AcDbEntity
  8
4
100
AcDbLine
 10
684.4848827114861
 20
1507.511345295442
 30
0.0
 11
670.4848827114861
 21
1507.511345295442
 31
0.0
  0
LINE
  5
31C
330
17
100
AcDbEntity
  8
4
100
AcDbLine
 10
684.4848827114861
 20
1508.735815879442
 30
0.0
 11
670.4848827114861
 21
1508.735815879442
 31
0.0
  0
LINE
  5
31D
330
17
100
AcDbEntity
  8
4
100
AcDbLine
 10
619.4848827114861
 20
1502.919580605442
 30
0.0
 11
640.4848827114861
 21
1513.327580569442
 31
0.0
  0
LINE
  5
31E
330
17
100
AcDbEntity
  8
4
100
AcDbLine
 10
627.8576842873249
 20
1502.919580605442
 30
0.0
 11
634.03415487556
 21
1505.980757065442
 31
0.0
  0
LINE
  5
31F
330
17
100
AcDbEntity
  8
4
100
AcDbLine
 10
619.4848827114861
 20
1502.919580605442
 30
0.0
 11
627.8576842873249
 21
1502.919580605442
 31
0.0
  0
LINE
  5
320
330
17
100
AcDbEntity
  8
4
100
AcDbLine
 10
616.4848827114852
 20
1504.144051189442
 30
0.0
 11
616.4848827114861
 21
1502.919580605442
 31
0.0
  0
LINE
  5
321
330
17
100
AcDbEntity
  8
4
100
AcDbLine
 10
601.479689276252
 20
1515.776580605442
 30
0.0
 11
604.9631434052476
 21
1520.945576605441
 31
0.0
  0
LINE
  5
322
330
17
100
AcDbEntity
  8
4
100
AcDbLine
 10
588.4848827114861
 20
1513.327580569442
 30
0.0
 11
588.4848827114861
 21
1504.144051189442
 31
0.0
  0
LINE
  5
323
330
17
100
AcDbEntity
  8
4
100
AcDbLine
 10
588.4848827114861
 20
1504.144051189442
 30
0.0
 11
616.4848827114852
 21
1504.144051189442
 31
0.0
  0
LINE
  5
324
330
17
100
AcDbEntity
  8
4
100
AcDbLine
 10
636.5047431108528
 20
1507.205227649442
 30
0.0
 11
644.4848827114861
 21
1511.160336824494
 31
0.0
  0
LINE
  5
325
330
17
100
AcDbEntity
  8
4
100
AcDbLine
 10
652.4650223121175
 20
1507.205227649442
 30
0.0
 11
636.5047431108528
 21
1507.205227649442
 31
0.0
  0
LINE
  5
326
330
17
100
AcDbEntity
  8
4
100
AcDbLine
 10
654.9356105474103
 20
1505.980757065442
 30
0.0
 11
634.03415487556
 21
1505.980757065442
 31
0.0
  0
LINE
  5
327
330
17
100
AcDbEntity
  8
4
100
AcDbLine
 10
648.4848827114861
 20
1513.327580569442
 30
0.0
 11
640.4848827114861
 21
1513.327580569442
 31
0.0
  0
LINE
  5
328
330
17
100
AcDbEntity
  8
L-CENTER
 48
2.0
100
AcDbLine
 10
524.4848827114861
 20
1628.911166317121
 30
0.0
 11
524.4848827114861
 21
1700.979994893762
 31
0.0
  0
CIRCLE
  5
329
330
17
100
AcDbEntity
  8
4
100
AcDbCircle
 10
524.4848827114861
 20
1664.945580605442
 30
0.0
 40
25.0
  0
CIRCLE
  5
32A
330
17
100
AcDbEntity
  8
4
100
AcDbCircle
 10
524.4848827114861
 20
1664.945580605442
 30
0.0
 40
23.0
  0
LWPOLYLINE
  5
32B
330
17
100
AcDbEntity
  8
4
100
AcDbPolyline
 90
        6
 70
     1
 43
0.0
 10
547.4848827114861
 20
1664.945580605442
 10
535.9848827114861
 20
1684.864164892484
 10
512.9848827114861
 20
1684.864164892484
 10
501.4848827114861
 20
1664.945580605442
 10
512.9848827114861
 20
1645.0269963184
 10
535.9848827114861
 20
1645.0269963184
  0
LINE
  5
32C
330
17
100
AcDbEntity
  8
4
100
AcDbLine
 10
564.4848827114852
 20
1500.945580605442
 30
0.0
 11
564.4848827114861
 21
1515.776580605442
 31
0.0
  0
LINE
  5
32D
330
17
100
AcDbEntity
  8
4
100
AcDbLine
 10
572.4848827114861
 20
1501.694580605441
 30
0.0
 11
572.4848827114861
 21
1514.551580605442
 31
0.0
  0
LINE
  5
32E
330
17
100
AcDbEntity
  8
4
100
AcDbLine
 10
580.4848827114861
 20
1513.327580569442
 30
0.0
 11
580.4848827114861
 21
1502.919580605442
 31
0.0
  0
ARC
  5
32F
330
17
100
AcDbEntity
  8
4
100
AcDbCircle
 10
547.8921309577577
 20
1499.168423109098
 30
0.0
 40
2.0
100
AcDbArc
 50
15.06848815949257
 51
81.19586074785528
  0
ARC
  5
330
330
17
100
AcDbEntity
  8
4
100
AcDbCircle
 10
484.4848827114861
 20
1514.945580605442
 30
0.0
 40
13.0
100
AcDbArc
 50
198.1189500305671
 51
324.2727714651534
  0
LINE
  5
331
330
17
100
AcDbEntity
  8
4
100
AcDbLine
 10
601.479689276252
 20
1515.776580605442
 30
0.0
 11
564.4848827114861
 21
1515.776580605442
 31
0.0
  0
LINE
  5
332
330
17
100
AcDbEntity
  8
4
100
AcDbLine
 10
580.4848827114861
 20
1502.919580605442
 30
0.0
 11
616.4848827114861
 21
1502.919580605442
 31
0.0
  0
LINE
  5
333
330
17
100
AcDbEntity
  8
4
100
AcDbLine
 10
580.4848827114861
 20
1513.327580569442
 30
0.0
 11
588.4848827114861
 21
1513.327580569442
 31
0.0
  0
LINE
  5
334
330
17
100
AcDbEntity
  8
4
100
AcDbLine
 10
599.4848827114861
 20
1856.245580605441
 30
0.0
 11
729.4848827114861
 21
1856.245580605442
 31
0.0
  0
LINE
  5
335
330
17
100
AcDbEntity
  8
4
100
AcDbLine
 10
557.2512605590114
 20
1829.245580605442
 30
0.0
 11
771.718504863959
 21
1829.245580605442
 31
0.0
  0
LINE
  5
336
330
17
100
AcDbEntity
  8
4
100
AcDbLine
 10
557.2512605590114
 20
1855.245580605442
 30
0.0
 11
771.718504863959
 21
1855.245580605442
 31
0.0
  0
ARC
  5
337
330
17
100
AcDbEntity
  8
4
100
AcDbCircle
 10
699.4848827114861
 20
1664.945580605442
 30
0.0
 40
10.0
100
AcDbArc
 50
270.0
 51
90.0
  0
LINE
  5
339
330
17
100
AcDbEntity
  8
4
100
AcDbLine
 10
548.8095791760175
 20
1500.945580605442
 30
0.0
 11
780.1601862469547
 21
1500.945580605442
 31
0.0
  0
LINE
  5
33A
330
17
100
AcDbEntity
  8
4
100
AcDbLine
 10
756.4848827114861
 20
1501.694580605441
 30
0.0
 11
572.4848827114861
 21
1501.694580605441
 31
0.0
  0
LINE
  5
33B
330
17
100
AcDbEntity
  8
4
100
AcDbLine
 10
756.4848827114861
 20
1514.551580605442
 30
0.0
 11
572.4848827114861
 21
1514.551580605442
 31
0.0
  0
LINE
  5
340
330
17
100
AcDbEntity
  8
L-CENTER
 48
2.0
100
AcDbLine
 10
994.8050247114857
 20
1616.195317349294
 30
0.0
 11
923.0685747114853
 21
1616.195317349294
 31
0.0
  0
LINE
  5
341
330
17
100
AcDbEntity
  8
L-CENTER
 48
2.0
100
AcDbLine
 10
994.8050247114857
 20
1567.445580605442
 30
0.0
 11
923.0685747114862
 21
1567.445580605442
 31
0.0
  0
LINE
  5
342
330
17
100
AcDbEntity
  8
L-CENTER
 48
2.0
100
AcDbLine
 10
994.8050247114857
 20
1762.445580605442
 30
0.0
 11
923.0685747114862
 21
1762.445580605442
 31
0.0
  0
LINE
  5
343
330
17
100
AcDbEntity
  8
L-CENTER
 48
2.0
100
AcDbLine
 10
994.8050247114857
 20
1713.695843861589
 30
0.0
 11
923.0685747114853
 21
1713.695843861589
 31
0.0
  0
ARC
  5
347
330
17
100
AcDbEntity
  8
4
100
AcDbCircle
 10
928.4848827114861
 20
1484.945580605442
 30
0.0
 40
10.0
100
AcDbArc
 50
270.0
 51
0.0
  0
ARC
  5
348
330
17
100
AcDbEntity
  8
4
100
AcDbCircle
 10
770.9521270164337
 20
1476.945580605442
 30
0.0
 40
2.0
100
AcDbArc
 50
270.0
 51
344.9315118405075
  0
LINE
  5
349
330
17
100
AcDbEntity
  8
4
100
AcDbLine
 10
764.4848827114861
 20
1474.945580605442
 30
0.0
 11
928.4848827114861
 21
1474.945580605442
 31
0.0
  0
ARC
  5
34A
330
17
100
AcDbEntity
  8
4
100
AcDbCircle
 10
558.0176384065376
 20
1476.945580605442
 30
0.0
 40
2.0
100
AcDbArc
 50
195.0684881594925
 51
270.0
  0
LINE
  5
34C
330
17
100
AcDbEntity
  8
4
100
AcDbLine
 10
771.718526711486
 20
1474.945580605442
 30
0.0
 11
557.2512387114862
 21
1474.945580605442
 31
0.0
  0
ARC
  5
34E
330
17
100
AcDbEntity
  8
4
100
AcDbCircle
 10
922.0659387114852
 20
771.2645059005447
 30
0.0
 40
5.000052
100
AcDbArc
 50
15.00385500000127
 51
74.99614499999373
  0
ARC
  5
34F
330
17
100
AcDbEntity
  8
4
100
AcDbCircle
 10
726.5513754400131
 20
765.6517028221772
 30
0.0
 40
4.0
100
AcDbArc
 50
76.1620147383712
 51
185.9985940830366
  0
ARC
  5
350
330
17
100
AcDbEntity
  8
4
100
AcDbCircle
 10
753.4848827114861
 20
727.6834499005449
 30
0.0
 40
3.0
100
AcDbArc
 50
0.0
 51
90.0
  0
ARC
  5
351
330
17
100
AcDbEntity
  8
4
100
AcDbCircle
 10
761.4848827114861
 20
735.6834499005449
 30
0.0
 40
3.0
100
AcDbArc
 50
0.0
 51
90.0
  0
ARC
  5
352
330
17
100
AcDbEntity
  8
4
100
AcDbCircle
 10
728.0644400217684
 20
741.6834499005449
 30
0.0
 40
3.0
100
AcDbArc
 50
185.9985940830388
 51
270.0
  0
ARC
  5
353
330
17
100
AcDbEntity
  8
4
100
AcDbCircle
 10
727.4848827114861
 20
701.6834499005449
 30
0.0
 40
13.0
100
AcDbArc
 50
0.0
 51
180.0
  0
ARC
  5
354
330
17
100
AcDbEntity
  8
4
100
AcDbCircle
 10
727.4848827114861
 20
701.6834499005449
 30
0.0
 40
21.0
100
AcDbArc
 50
0.0
 51
180.0
  0
LINE
  5
355
330
17
100
AcDbEntity
  8
4
100
AcDbLine
 10
761.4848827114861
 20
738.6834499005449
 30
0.0
 11
728.0644400217684
 21
738.6834499005449
 31
0.0
  0
LINE
  5
356
330
17
100
AcDbEntity
  8
4
100
AcDbLine
 10
725.080866641842
 20
741.3699377212131
 30
0.0
 11
722.57327760011
 21
765.233686583068
 31
0.0
  0
ARC
  5
357
330
17
100
AcDbEntity
  8
4
100
AcDbCircle
 10
775.0024587114854
 20
587.5970239005446
 30
0.0
 40
1.000044
100
AcDbArc
 50
188.4941080000015
 51
264.0027190000202
  0
ARC
  5
358
330
17
100
AcDbEntity
  8
4
100
AcDbCircle
 10
753.4848827114861
 20
649.6834499005449
 30
0.0
 40
3.0
100
AcDbArc
 50
270.0
 51
0.0
  0
ARC
  5
359
330
17
100
AcDbEntity
  8
4
100
AcDbCircle
 10
727.4848827114861
 20
675.6834499005449
 30
0.0
 40
13.0
100
AcDbArc
 50
180.0
 51
0.0
  0
ARC
  5
35A
330
17
100
AcDbEntity
  8
4
100
AcDbCircle
 10
727.4848827114861
 20
675.6834499005449
 30
0.0
 40
21.0
100
AcDbArc
 50
180.0
 51
0.0
  0
ARC
  5
35B
330
17
100
AcDbEntity
  8
4
100
AcDbCircle
 10
761.0356647114854
 20
610.2342319005447
 30
0.0
 40
1.999902
100
AcDbArc
 50
11.18512099999722
 51
78.81487900000216
  0
LINE
  5
35C
330
17
100
AcDbEntity
  8
4
100
AcDbLine
 10
761.4848827114861
 20
638.6834499005449
 30
0.0
 11
739.2028592182764
 21
638.6834499005449
 31
0.0
  0
ARC
  5
35D
330
17
100
AcDbEntity
  8
4
100
AcDbCircle
 10
761.4848827114861
 20
641.6834499005449
 30
0.0
 40
3.0
100
AcDbArc
 50
270.0
 51
0.0
  0
LINE
  5
35E
330
17
100
AcDbEntity
  8
4
100
AcDbLine
 10
736.6805663921118
 20
630.9801102388628
 30
0.0
 11
736.2192858383501
 21
635.3699377212131
 31
0.0
  0
ARC
  5
35F
330
17
100
AcDbEntity
  8
4
100
AcDbCircle
 10
746.6258109918695
 20
632.0251508366355
 30
0.0
 40
10.0
100
AcDbArc
 50
185.9985940830393
 51
260.7315348759754
  0
ARC
  5
360
330
17
100
AcDbEntity
  8
4
100
AcDbCircle
 10
739.2028592182764
 20
635.6834499005449
 30
0.0
 40
3.0
100
AcDbArc
 50
90.0
 51
185.9985940830388
  0
ARC
  5
361
330
17
100
AcDbEntity
  8
4
100
AcDbCircle
 10
766.8506067114854
 20
616.0491739005447
 30
0.0
 40
1.999986
100
AcDbArc
 50
11.86270200000191
 51
78.13726999999531
  0
LINE
  5
362
330
17
100
AcDbEntity
  8
4
100
AcDbLine
 10
756.4848827114861
 20
727.6834499005449
 30
0.0
 11
756.4848827114861
 21
649.6834499005449
 31
0.0
  0
LINE
  5
363
330
17
100
AcDbEntity
  8
4
100
AcDbLine
 10
764.4848827114861
 20
735.6834499005449
 30
0.0
 11
764.4848827114861
 21
641.6834499005449
 31
0.0
  0
LINE
  5
364
330
17
100
AcDbEntity
  8
4
100
AcDbLine
 10
714.4848827114861
 20
675.6834499005449
 30
0.0
 11
714.4848827114861
 21
701.6834499005449
 31
0.0
  0
LINE
  5
365
330
17
100
AcDbEntity
  8
4
100
AcDbLine
 10
706.4848827114861
 20
675.6834499005449
 30
0.0
 11
706.4848827114861
 21
701.6834499005449
 31
0.0
  0
LINE
  5
366
330
17
100
AcDbEntity
  8
4
100
AcDbLine
 10
748.4848827114861
 20
701.6834499005449
 30
0.0
 11
748.4848827114861
 21
675.6834499005449
 31
0.0
  0
LINE
  5
367
330
17
100
AcDbEntity
  8
4
100
AcDbLine
 10
740.4848827114861
 20
701.6834499005449
 30
0.0
 11
740.4848827114861
 21
675.6834499005449
 31
0.0
  0
LINE
  5
36D
330
17
100
AcDbEntity
  8
4
100
AcDbLine
 10
686.3564667114856
 20
836.6834479005447
 30
0.0
 11
686.9848827114861
 21
818.6834479005447
 31
0.0
  0
LINE
  5
36E
330
17
100
AcDbEntity
  8
4
100
AcDbLine
 10
689.4848847114858
 20
818.6834479005447
 30
0.0
 11
689.4848847114858
 21
812.7925819005447
 31
0.0
  0
LINE
  5
36F
330
17
100
AcDbEntity
  8
4
100
AcDbLine
 10
664.4848827114861
 20
838.6834459005445
 30
0.0
 11
686.3564667114856
 21
836.6834479005447
 31
0.0
  0
LINE
  5
370
330
17
100
AcDbEntity
  8
4
100
AcDbLine
 10
642.6135447114852
 20
836.6834479005447
 30
0.0
 11
641.9848827114861
 21
818.6834479005447
 31
0.0
  0
LINE
  5
371
330
17
100
AcDbEntity
  8
4
100
AcDbLine
 10
639.4848807114854
 20
818.6834479005447
 30
0.0
 11
639.4848807114854
 21
812.7925819005447
 31
0.0
  0
LINE
  5
372
330
17
100
AcDbEntity
  8
4
100
AcDbLine
 10
641.9848827114861
 20
818.6834479005447
 30
0.0
 11
686.9848827114861
 21
818.6834479005447
 31
0.0
  0
LINE
  5
373
330
17
100
AcDbEntity
  8
4
100
AcDbLine
 10
639.4848807114854
 20
818.6834479005447
 30
0.0
 11
689.4848847114858
 21
818.6834479005447
 31
0.0
  0
LINE
  5
374
330
17
100
AcDbEntity
  8
4
100
AcDbLine
 10
642.6135447114852
 20
836.6834479005447
 30
0.0
 11
686.3564667114856
 21
836.6834479005447
 31
0.0
  0
CIRCLE
  5
375
330
17
100
AcDbEntity
  8
4
100
AcDbCircle
 10
664.4848827114861
 20
863.6834479005447
 30
0.0
 40
25.00000199999999
  0
LINE
  5
376
330
17
100
AcDbEntity
  8
4
100
AcDbLine
 10
642.6135447114852
 20
836.6834479005447
 30
0.0
 11
664.4848827114861
 21
838.6834459005445
 31
0.0
  0
LINE
  5
378
330
17
100
AcDbEntity
  8
4
100
AcDbLine
 10
535.9848807114854
 20
812.6834479005447
 30
0.0
 11
535.9848807114854
 21
817.6834459005445
 31
0.0
  0
LINE
  5
379
330
17
100
AcDbEntity
  8
4
100
AcDbLine
 10
512.9848827114861
 20
812.6834479005447
 30
0.0
 11
512.9848827114861
 21
817.6834459005445
 31
0.0
  0
LINE
  5
37A
330
17
100
AcDbEntity
  8
4
100
AcDbLine
 10
501.4848807114854
 20
812.6834479005447
 30
0.0
 11
547.4848827114861
 21
812.6834479005447
 31
0.0
  0
LINE
  5
37B
330
17
100
AcDbEntity
  8
4
100
AcDbLine
 10
501.4848807114854
 20
817.6834459005445
 30
0.0
 11
547.4848827114861
 21
817.6834459005445
 31
0.0
  0
LINE
  5
37C
330
17
100
AcDbEntity
  8
4
100
AcDbLine
 10
690.4848827114861
 20
722.6834499005449
 30
0.0
 11
698.4848827114861
 21
722.6834499005449
 31
0.0
  0
ARC
  5
37D
330
17
100
AcDbEntity
  8
4
100
AcDbCircle
 10
602.4183899829591
 20
765.6517028221772
 30
0.0
 40
4.0
100
AcDbArc
 50
354.0014059169634
 51
103.8379852616557
  0
ARC
  5
37E
330
17
100
AcDbEntity
  8
4
100
AcDbCircle
 10
600.9053254012038
 20
741.6834499005449
 30
0.0
 40
3.0
100
AcDbArc
 50
270.0
 51
354.0014059169612
  0
LINE
  5
37F
330
17
100
AcDbEntity
  8
4
100
AcDbLine
 10
603.8888987811301
 20
741.3699377212131
 30
0.0
 11
606.3964878228621
 21
765.233686583068
 31
0.0
  0
LINE
  5
380
330
17
100
AcDbEntity
  8
4
100
AcDbLine
 10
640.4848827114861
 20
722.6834499005449
 30
0.0
 11
648.4848827114861
 21
722.6834499005449
 31
0.0
  0
LINE
  5
381
330
17
100
AcDbEntity
  8
4
100
AcDbLine
 10
690.4848827114861
 20
654.6834499005449
 30
0.0
 11
698.4848827114861
 21
654.6834499005449
 31
0.0
  0
LINE
  5
382
330
17
100
AcDbEntity
  8
4
100
AcDbLine
 10
684.4848827114861
 20
692.6834499005449
 30
0.0
 11
684.4848827114861
 21
684.6834499005449
 31
0.0
  0
LINE
  5
383
330
17
100
AcDbEntity
  8
4
100
AcDbLine
 10
670.4848827114861
 20
692.6834499005449
 30
0.0
 11
670.4848827114861
 21
684.6834499005449
 31
0.0
  0
LINE
  5
384
330
17
100
AcDbEntity
  8
4
100
AcDbLine
 10
661.1120811356454
 20
654.6834499005449
 30
0.0
 11
669.4848827114861
 21
654.6834499005449
 31
0.0
  0
LINE
  5
385
330
17
100
AcDbEntity
  8
4
100
AcDbLine
 10
654.9356105474112
 20
674.6834499005449
 30
0.0
 11
661.1120811356454
 21
654.6834499005449
 31
0.0
  0
LINE
  5
386
330
17
100
AcDbEntity
  8
4
100
AcDbLine
 10
670.4848827114861
 20
684.6834499005449
 30
0.0
 11
684.4848827114861
 21
684.6834499005449
 31
0.0
  0
LINE
  5
387
330
17
100
AcDbEntity
  8
4
100
AcDbLine
 10
670.4848827114861
 20
692.6834499005449
 30
0.0
 11
684.4848827114861
 21
692.6834499005449
 31
0.0
  0
LINE
  5
388
330
17
100
AcDbEntity
  8
4
100
AcDbLine
 10
619.4848827114861
 20
654.6834499005449
 30
0.0
 11
627.8576842873249
 21
654.6834499005449
 31
0.0
  0
LINE
  5
389
330
17
100
AcDbEntity
  8
4
100
AcDbLine
 10
616.4848827114861
 20
662.6834499005449
 30
0.0
 11
616.4848827114861
 21
654.6834499005449
 31
0.0
  0
LINE
  5
38A
330
17
100
AcDbEntity
  8
4
100
AcDbLine
 10
627.8576842873249
 20
654.6834499005449
 30
0.0
 11
634.0341548755591
 21
674.6834499005449
 31
0.0
  0
LINE
  5
38B
330
17
100
AcDbEntity
  8
4
100
AcDbLine
 10
588.4848827114861
 20
662.6834499005449
 30
0.0
 11
616.4848827114861
 21
662.6834499005449
 31
0.0
  0
ARC
  5
38C
330
17
100
AcDbEntity
  8
4
100
AcDbCircle
 10
582.3439544311027
 20
632.0251508366355
 30
0.0
 40
10.0
100
AcDbArc
 50
279.2684651240194
 51
354.0014059169607
  0
ARC
  5
38D
330
17
100
AcDbEntity
  8
4
100
AcDbCircle
 10
589.7669062046939
 20
635.6834499005449
 30
0.0
 40
3.0
100
AcDbArc
 50
354.0014059169612
 51
90.0
  0
LINE
  5
38E
330
17
100
AcDbEntity
  8
4
100
AcDbLine
 10
592.2891990308603
 20
630.9801102388628
 30
0.0
 11
592.7504795846221
 21
635.3699377212131
 31
0.0
  0
LINE
  5
38F
330
17
100
AcDbEntity
  8
4
100
AcDbLine
 10
634.0341548755591
 20
674.6834499005449
 30
0.0
 11
654.9356105474112
 21
674.6834499005449
 31
0.0
  0
LINE
  5
390
330
17
100
AcDbEntity
  8
4
100
AcDbLine
 10
636.5047431108528
 20
682.6834499005449
 30
0.0
 11
652.4650223121175
 21
682.6834499005449
 31
0.0
  0
LINE
  5
391
330
17
100
AcDbEntity
  8
4
100
AcDbLine
 10
698.4848827114861
 20
722.6834499005449
 30
0.0
 11
698.4848827114861
 21
654.6834499005449
 31
0.0
  0
LINE
  5
392
330
17
100
AcDbEntity
  8
4
100
AcDbLine
 10
690.4848827114861
 20
722.6834499005449
 30
0.0
 11
690.4848827114861
 21
654.6834499005449
 31
0.0
  0
LINE
  5
393
330
17
100
AcDbEntity
  8
4
100
AcDbLine
 10
588.4848827114861
 20
722.6834499005449
 30
0.0
 11
588.4848827114861
 21
662.6834499005449
 31
0.0
  0
LINE
  5
394
330
17
100
AcDbEntity
  8
4
100
AcDbLine
 10
619.4848827114861
 20
654.6834499005449
 30
0.0
 11
640.4848827114861
 21
722.6834499005449
 31
0.0
  0
LINE
  5
395
330
17
100
AcDbEntity
  8
4
100
AcDbLine
 10
644.4848827114861
 20
708.5239019406849
 30
0.0
 11
652.4650223121175
 21
682.6834499005449
 31
0.0
  0
LINE
  5
396
330
17
100
AcDbEntity
  8
4
100
AcDbLine
 10
636.5047431108528
 20
682.6834499005449
 30
0.0
 11
644.4848827114861
 21
708.5239019406849
 31
0.0
  0
LINE
  5
397
330
17
100
AcDbEntity
  8
4
100
AcDbLine
 10
648.4848827114861
 20
722.6834499005449
 30
0.0
 11
669.4848827114861
 21
654.6834499005449
 31
0.0
  0
LINE
  5
398
330
17
100
AcDbEntity
  8
4
100
AcDbLine
 10
546.4848807114854
 20
808.6834459005445
 30
0.0
 11
546.4848807114854
 21
806.6834479005447
 31
0.0
  0
ARC
  5
399
330
17
100
AcDbEntity
  8
4
100
AcDbCircle
 10
552.4848807114854
 20
806.9104999005449
 30
0.0
 40
2.999982
100
AcDbArc
 50
180.0
 51
276.4107370000103
  0
ARC
  5
39A
330
17
100
AcDbEntity
  8
4
100
AcDbCircle
 10
567.4848827114861
 20
735.6834499005449
 30
0.0
 40
3.0
100
AcDbArc
 50
90.0
 51
180.0
  0
ARC
  5
39B
330
17
100
AcDbEntity
  8
4
100
AcDbCircle
 10
575.4848827114861
 20
727.6834499005449
 30
0.0
 40
3.0
100
AcDbArc
 50
90.0
 51
180.0
  0
LINE
  5
39C
330
17
100
AcDbEntity
  8
4
100
AcDbLine
 10
502.4848827114861
 20
808.6834459005445
 30
0.0
 11
502.4848827114861
 21
806.6834479005447
 31
0.0
  0
LINE
  5
39D
330
17
100
AcDbEntity
  8
4
100
AcDbLine
 10
499.4848827114861
 20
806.6834479005447
 30
0.0
 11
499.4848827114861
 21
799.0135279005447
 31
0.0
  0
ARC
  5
39E
330
17
100
AcDbEntity
  8
4
100
AcDbCircle
 10
496.4848827114861
 20
799.0135279005447
 30
0.0
 40
2.999946
100
AcDbArc
 50
279.6417139999876
 51
0.0
  0
LINE
  5
39F
330
17
100
AcDbEntity
  8
4
100
AcDbLine
 10
502.4848827114861
 20
806.6834479005447
 30
0.0
 11
546.4848807114854
 21
806.6834479005447
 31
0.0
  0
LINE
  5
3A0
330
17
100
AcDbEntity
  8
4
100
AcDbLine
 10
501.4848807114854
 20
808.6834459005445
 30
0.0
 11
547.4848827114861
 21
808.6834459005445
 31
0.0
  0
LINE
  5
3A1
330
17
100
AcDbEntity
  8
4
100
AcDbLine
 10
499.4848827114861
 20
806.6834479005447
 30
0.0
 11
549.4848807114854
 21
806.6834479005447
 31
0.0
  0
ARC
  5
3A2
330
17
100
AcDbEntity
  8
4
100
AcDbCircle
 10
575.4848827114861
 20
649.6834499005449
 30
0.0
 40
3.0
100
AcDbArc
 50
180.0
 51
270.0
  0
ARC
  5
3A3
330
17
100
AcDbEntity
  8
4
100
AcDbCircle
 10
553.9673067114859
 20
587.5970239005446
 30
0.0
 40
1.000044
100
AcDbArc
 50
275.9972809999798
 51
351.5059010000007
  0
ARC
  5
3A4
330
17
100
AcDbEntity
  8
4
100
AcDbCircle
 10
567.9341007114858
 20
610.2342319005447
 30
0.0
 40
1.999902
100
AcDbArc
 50
101.1851209999978
 51
168.8148790000028
  0
ARC
  5
3A5
330
17
100
AcDbEntity
  8
4
100
AcDbCircle
 10
562.1191587114859
 20
616.0491739005447
 30
0.0
 40
1.999986
100
AcDbArc
 50
101.8627020000019
 51
168.1372979999981
  0
ARC
  5
3A6
330
17
100
AcDbEntity
  8
4
100
AcDbCircle
 10
567.4848827114861
 20
641.6834499005449
 30
0.0
 40
3.0
100
AcDbArc
 50
180.0
 51
270.0
  0
LINE
  5
3A7
330
17
100
AcDbEntity
  8
4
100
AcDbLine
 10
564.4848827114861
 20
735.6834499005449
 30
0.0
 11
564.4848827114861
 21
641.6834499005449
 31
0.0
  0
LINE
  5
3A8
330
17
100
AcDbEntity
  8
4
100
AcDbLine
 10
572.4848827114861
 20
727.6834499005449
 30
0.0
 11
572.4848827114861
 21
649.6834499005449
 31
0.0
  0
LINE
  5
3A9
330
17
100
AcDbEntity
  8
4
100
AcDbLine
 10
580.4848827114861
 20
722.6834499005449
 30
0.0
 11
580.4848827114861
 21
654.6834499005449
 31
0.0
  0
LINE
  5
3AA
330
17
100
AcDbEntity
  8
4
100
AcDbLine
 10
567.4848827114861
 20
738.6834499005449
 30
0.0
 11
600.9053254012038
 21
738.6834499005449
 31
0.0
  0
LINE
  5
3AB
330
17
100
AcDbEntity
  8
4
100
AcDbLine
 10
567.4848827114861
 20
638.6834499005449
 30
0.0
 11
589.7669062046939
 21
638.6834499005449
 31
0.0
  0
LINE
  5
3AC
330
17
100
AcDbEntity
  8
4
100
AcDbLine
 10
580.4848827114861
 20
654.6834499005449
 30
0.0
 11
616.4848827114861
 21
654.6834499005449
 31
0.0
  0
LINE
  5
3AD
330
17
100
AcDbEntity
  8
4
100
AcDbLine
 10
580.4848827114861
 20
722.6834499005449
 30
0.0
 11
588.4848827114861
 21
722.6834499005449
 31
0.0
  0
LINE
  5
3AE
330
17
100
AcDbEntity
  8
4
100
AcDbLine
 10
501.4848807114854
 20
808.6834459005445
 30
0.0
 11
501.4848807114854
 21
817.6834459005445
 31
0.0
  0
LINE
  5
3AF
330
17
100
AcDbEntity
  8
L-CENTER
 48
2.0
100
AcDbLine
 10
524.4848847114858
 20
778.4204638191009
 30
0.0
 11
524.4848847114858
 21
822.8052739005448
 31
0.0
  0
LINE
  5
3B0
330
17
100
AcDbEntity
  8
4
100
AcDbLine
 10
547.4848827114861
 20
808.6834459005445
 30
0.0
 11
547.4848827114861
 21
817.6834459005445
 31
0.0
  0
ARC
  5
3B1
330
17
100
AcDbEntity
  8
4
100
AcDbCircle
 10
636.4848807114854
 20
812.7925819005447
 30
0.0
 40
2.999976
100
AcDbArc
 50
271.5995520000048
 51
0.0
  0
ARC
  5
3B2
330
17
100
AcDbEntity
  8
4
100
AcDbCircle
 10
692.4848847114858
 20
812.7925819005447
 30
0.0
 40
2.999976
100
AcDbArc
 50
180.0
 51
268.4004479999952
  0
ARC
  5
3B3
330
17
100
AcDbEntity
  8
4
100
AcDbCircle
 10
664.4848827114861
 20
863.6834479005447
 30
0.0
 40
44.99995799999999
100
AcDbArc
 50
299.6975339999996
 51
240.3031599999997
  0
ARC
  5
3B4
330
17
100
AcDbEntity
  8
4
100
AcDbCircle
 10
664.4848827114861
 20
121.6834459005447
 30
0.0
 40
499.9999800000001
100
AcDbArc
 50
78.82099100000002
 51
101.1791000000001
  0
ARC
  5
3B5
330
17
100
AcDbEntity
  8
4
100
AcDbCircle
 10
664.4848827114861
 20
128.6834479005447
 30
0.0
 40
500.000016
100
AcDbArc
 50
78.13814300000011
 51
101.8618870000001
  0
LINE
  5
3B6
330
17
100
AcDbEntity
  8
L-CENTER
 48
2.0
100
AcDbLine
 10
603.8780585355248
 20
863.6834479005447
 30
0.0
 11
725.0917068874464
 21
863.6834479005447
 31
0.0
  0
LINE
  5
3B7
330
17
100
AcDbEntity
  8
4
100
AcDbLine
 10
753.4848827114861
 20
730.6834499005449
 30
0.0
 11
575.4848827114861
 21
730.6834499005449
 31
0.0
  0
LINE
  5
3B8
330
17
100
AcDbEntity
  8
4
100
AcDbLine
 10
753.4848827114861
 20
646.6834499005449
 30
0.0
 11
575.4848827114861
 21
646.6834499005449
 31
0.0
  0
LINE
  5
3BA
330
17
100
AcDbEntity
  8
L-CENTER
 48
2.0
100
AcDbLine
 10
484.4848827114861
 20
1542.245580605442
 30
0.0
 11
484.4848827114861
 21
1487.645580605441
 31
0.0
  0
LINE
  5
3BB
330
17
100
AcDbEntity
  8
L-CENTER
 48
2.0
100
AcDbLine
 10
664.4848827114861
 20
1292.594208638286
 30
0.0
 11
664.4848827114861
 21
1865.378072954615
 31
0.0
  0
LINE
  5
3BC
330
17
100
AcDbEntity
  8
L-CENTER
 48
2.0
100
AcDbLine
 10
844.4848827114861
 20
1542.245580605442
 30
0.0
 11
844.4848827114861
 21
1487.645580605441
 31
0.0
  0
LINE
  5
3BD
330
17
100
AcDbEntity
  8
4
100
AcDbLine
 10
938.4848827114861
 20
1520.945580605442
 30
0.0
 11
938.4848827114861
 21
1484.945580605442
 31
0.0
  0
LINE
  5
3BE
330
17
100
AcDbEntity
  8
4
100
AcDbLine
 10
556.0864068894957
 20
1476.425633658546
 30
0.0
 11
549.8233624747995
 21
1499.688370055992
 31
0.0
  0
LINE
  5
3BF
330
17
100
AcDbEntity
  8
4
100
AcDbLine
 10
772.8833585334746
 20
1476.425633658546
 30
0.0
 11
779.1464029481726
 21
1499.688370055992
 31
0.0
  0
ARC
  5
3C0
330
17
100
AcDbEntity
  8
4
100
AcDbCircle
 10
400.4848827114856
 20
1844.945580605442
 30
0.0
 40
10.0
100
AcDbArc
 50
90.0
 51
180.0
  0
LINE
  5
3C1
330
17
100
AcDbEntity
  8
4
100
AcDbLine
 10
434.4848827114856
 20
1815.002853309983
 30
0.0
 11
434.4848827114856
 21
1824.245580605442
 31
0.0
  0
LINE
  5
3C2
330
17
100
AcDbEntity
  8
4
100
AcDbLine
 10
396.9545378260882
 20
1821.108399694815
 30
0.0
 11
396.9545378260882
 21
1811.245580605442
 31
0.0
  0
LINE
  5
3C3
330
17
100
AcDbEntity
  8
4
100
AcDbLine
 10
370.9848827114856
 20
1780.945580605442
 30
0.0
 11
370.9848827114856
 21
1783.945580605442
 31
0.0
  0
LINE
  5
3C4
330
17
100
AcDbEntity
  8
4
100
AcDbLine
 10
368.9848827114852
 20
1784.245580605442
 30
0.0
 11
368.9848827114852
 21
1810.245580605442
 31
0.0
  0
ARC
  5
3C5
330
17
100
AcDbEntity
  8
4
100
AcDbCircle
 10
369.9848827114847
 20
1810.245580605442
 30
0.0
 40
1.0
100
AcDbArc
 50
90.0
 51
180.0
  0
LINE
  5
3C6
330
17
100
AcDbEntity
  8
4
100
AcDbLine
 10
375.0152275968821
 20
1811.245580605442
 30
0.0
 11
375.0152275968821
 21
1821.108399694815
 31
0.0
  0
ARC
  5
3C7
330
17
100
AcDbEntity
  8
4
100
AcDbCircle
 10
377.7576413755328
 20
1818.370201730163
 30
0.0
 40
3.875378875279264
100
AcDbArc
 50
44.95592676274163
 51
135.044073237256
  0
ARC
  5
3C8
330
17
100
AcDbEntity
  8
4
100
AcDbCircle
 10
385.9848827114843
 20
1808.449836470265
 30
0.0
 40
13.7957441351769
100
AcDbArc
 50
66.57340249137077
 51
113.4265975086275
  0
LINE
  5
3C9
330
17
100
AcDbEntity
  8
4
100
AcDbLine
 10
377.7576413755332
 20
1822.245580605442
 30
0.0
 11
394.2121240474371
 21
1822.245580605442
 31
0.0
  0
LINE
  5
3CA
330
17
100
AcDbEntity
  8
4
100
AcDbLine
 10
391.4697102687869
 20
1821.108399694815
 30
0.0
 11
391.4697102687869
 21
1814.245580605442
 31
0.0
  0
LINE
  5
3CB
330
17
100
AcDbEntity
  8
4
100
AcDbLine
 10
380.5000551541834
 20
1821.108399694815
 30
0.0
 11
380.5000551541834
 21
1814.245580605442
 31
0.0
  0
ARC
  5
3CC
330
17
100
AcDbEntity
  8
4
100
AcDbCircle
 10
353.1848827114854
 20
1778.445580605441
 30
0.0
 40
1.0
100
AcDbArc
 50
90.0
 51
180.0
  0
LINE
  5
3CD
330
17
100
AcDbEntity
  8
4
100
AcDbLine
 10
367.9848827114856
 20
1779.445580605442
 30
0.0
 11
353.1848827114854
 21
1779.445580605441
 31
0.0
  0
LINE
  5
3CE
330
17
100
AcDbEntity
  8
4
100
AcDbLine
 10
342.3220636221122
 20
1724.665498976192
 30
0.0
 11
352.1848827114854
 21
1724.665498976192
 31
0.0
  0
LINE
  5
3CF
330
17
100
AcDbEntity
  8
4
100
AcDbLine
 10
342.3220636221122
 20
1767.930408162743
 30
0.0
 11
349.1848827114854
 21
1767.930408162743
 31
0.0
  0
LINE
  5
3D0
330
17
100
AcDbEntity
  8
4
100
AcDbLine
 10
342.3220636221122
 20
1773.415235720045
 30
0.0
 11
352.1848827114854
 21
1773.415235720045
 31
0.0
  0
ARC
  5
3D1
330
17
100
AcDbEntity
  8
4
100
AcDbCircle
 10
345.0602615867647
 20
1770.672821941394
 30
0.0
 40
3.875378875279244
100
AcDbArc
 50
134.9559267627458
 51
225.0440732372542
  0
LINE
  5
3D2
330
17
100
AcDbEntity
  8
4
100
AcDbLine
 10
342.3220636221122
 20
1756.96075304814
 30
0.0
 11
349.1848827114854
 21
1756.96075304814
 31
0.0
  0
LINE
  5
3D3
330
17
100
AcDbEntity
  8
4
100
AcDbLine
 10
352.1848827114854
 20
1751.475925490839
 30
0.0
 11
342.3220636221122
 21
1751.475925490839
 31
0.0
  0
ARC
  5
3D4
330
17
100
AcDbEntity
  8
4
100
AcDbCircle
 10
345.0602615867647
 20
1754.21833926949
 30
0.0
 40
3.875378875279264
100
AcDbArc
 50
134.9559267627458
 51
225.0440732372542
  0
LINE
  5
3D5
330
17
100
AcDbEntity
  8
4
100
AcDbLine
 10
352.1848827114854
 20
1773.415235720045
 30
0.0
 11
352.1848827114854
 21
1751.475925490839
 31
0.0
  0
LINE
  5
3D6
330
17
100
AcDbEntity
  8
4
100
AcDbLine
 10
341.1848827114854
 20
1754.21833926949
 30
0.0
 11
341.1848827114854
 21
1770.672821941394
 31
0.0
  0
LINE
  5
3D7
330
17
100
AcDbEntity
  8
4
100
AcDbLine
 10
349.1848827114854
 20
1773.415235720045
 30
0.0
 11
349.1848827114854
 21
1751.475925490839
 31
0.0
  0
ARC
  5
3D8
330
17
100
AcDbEntity
  8
4
100
AcDbCircle
 10
354.9806268466627
 20
1762.445580605442
 30
0.0
 40
13.7957441351769
100
AcDbArc
 50
156.5734024913727
 51
203.4265975086273
  0
LINE
  5
3D9
330
17
100
AcDbEntity
  8
L-CENTER
 48
2.0
100
AcDbLine
 10
385.9848827114847
 20
1825.846420485546
 30
0.0
 11
385.9848827114847
 21
1771.5689668475
 31
0.0
  0
LINE
  5
3DA
330
17
100
AcDbEntity
  8
4
100
AcDbLine
 10
396.9545378260882
 20
1811.245580605442
 30
0.0
 11
375.0152275968821
 21
1811.245580605442
 31
0.0
  0
ARC
  5
3DB
330
17
100
AcDbEntity
  8
4
100
AcDbCircle
 10
394.2121240474366
 20
1818.370201730163
 30
0.0
 40
3.875378875279244
100
AcDbArc
 50
44.95592676274281
 51
135.044073237256
  0
LINE
  5
3DC
330
17
100
AcDbEntity
  8
4
100
AcDbLine
 10
396.9545378260882
 20
1814.245580605442
 30
0.0
 11
375.0152275968821
 21
1814.245580605442
 31
0.0
  0
LINE
  5
3DD
330
17
100
AcDbEntity
  8
4
100
AcDbLine
 10
390.4848827114856
 20
1844.945580605442
 30
0.0
 11
390.4848827114856
 21
1822.245580605442
 31
0.0
  0
LINE
  5
3DE
330
17
100
AcDbEntity
  8
L-CENTER
 48
2.0
100
AcDbLine
 10
334.1647407114856
 20
1762.445580605442
 30
0.0
 11
405.9011907114855
 21
1762.445580605442
 31
0.0
  0
ARC
  5
3DF
330
17
100
AcDbEntity
  8
4
100
AcDbCircle
 10
354.9806268466627
 20
1713.695843861589
 30
0.0
 40
13.7957441351769
100
AcDbArc
 50
156.5734024913727
 51
203.4265975086273
  0
ARC
  5
3E0
330
17
100
AcDbEntity
  8
4
100
AcDbCircle
 10
345.0602615867647
 20
1705.468602525637
 30
0.0
 40
3.875378875279264
100
AcDbArc
 50
134.9559267627458
 51
225.0440732372542
  0
LINE
  5
3E1
330
17
100
AcDbEntity
  8
4
100
AcDbLine
 10
352.1848827114854
 20
1702.726188746986
 30
0.0
 11
342.3220636221122
 21
1702.726188746986
 31
0.0
  0
LINE
  5
3E2
330
17
100
AcDbEntity
  8
4
100
AcDbLine
 10
342.3220636221122
 20
1708.211016304288
 30
0.0
 11
349.1848827114854
 21
1708.211016304288
 31
0.0
  0
LINE
  5
3E3
330
17
100
AcDbEntity
  8
4
100
AcDbLine
 10
342.3220636221122
 20
1719.180671418891
 30
0.0
 11
349.1848827114854
 21
1719.180671418891
 31
0.0
  0
LINE
  5
3E4
330
17
100
AcDbEntity
  8
4
100
AcDbLine
 10
342.3220636221122
 20
1610.710489791993
 30
0.0
 11
349.1848827114854
 21
1610.710489791993
 31
0.0
  0
LINE
  5
3E5
330
17
100
AcDbEntity
  8
4
100
AcDbLine
 10
342.3220636221122
 20
1621.680144906596
 30
0.0
 11
349.1848827114854
 21
1621.680144906596
 31
0.0
  0
LINE
  5
3E6
330
17
100
AcDbEntity
  8
4
100
AcDbLine
 10
352.1848827114854
 20
1627.164972463897
 30
0.0
 11
342.3220636221122
 21
1627.164972463897
 31
0.0
  0
ARC
  5
3E7
330
17
100
AcDbEntity
  8
4
100
AcDbCircle
 10
345.0602615867647
 20
1624.422558685246
 30
0.0
 40
3.875378875279264
100
AcDbArc
 50
134.9559267627458
 51
225.0440732372542
  0
LINE
  5
3E8
330
17
100
AcDbEntity
  8
4
100
AcDbLine
 10
341.1848827114854
 20
1624.422558685246
 30
0.0
 11
341.1848827114854
 21
1607.968076013342
 31
0.0
  0
ARC
  5
3E9
330
17
100
AcDbEntity
  8
4
100
AcDbCircle
 10
354.9806268466627
 20
1616.195317349294
 30
0.0
 40
13.7957441351769
100
AcDbArc
 50
156.5734024913727
 51
203.4265975086273
  0
ARC
  5
3EA
330
17
100
AcDbEntity
  8
4
100
AcDbCircle
 10
353.1848827114854
 20
1551.445580605442
 30
0.0
 40
1.0
100
AcDbArc
 50
180.0
 51
270.0
  0
LINE
  5
3EB
330
17
100
AcDbEntity
  8
4
100
AcDbLine
 10
342.3220636221122
 20
1605.225662234691
 30
0.0
 11
352.1848827114854
 21
1605.225662234691
 31
0.0
  0
LINE
  5
3EC
330
17
100
AcDbEntity
  8
4
100
AcDbLine
 10
349.1848827114854
 20
1556.475925490839
 30
0.0
 11
349.1848827114854
 21
1578.415235720044
 31
0.0
  0
LINE
  5
3ED
330
17
100
AcDbEntity
  8
4
100
AcDbLine
 10
352.1848827114854
 20
1556.475925490839
 30
0.0
 11
352.1848827114854
 21
1578.415235720044
 31
0.0
  0
ARC
  5
3EE
330
17
100
AcDbEntity
  8
4
100
AcDbCircle
 10
345.0602615867647
 20
1559.218339269489
 30
0.0
 40
3.875378875279244
100
AcDbArc
 50
134.9559267627458
 51
225.0440732372542
  0
ARC
  5
3EF
330
17
100
AcDbEntity
  8
4
100
AcDbCircle
 10
354.9806268466627
 20
1567.445580605442
 30
0.0
 40
13.7957441351769
100
AcDbArc
 50
156.5734024913727
 51
203.4265975086273
  0
LINE
  5
3F0
330
17
100
AcDbEntity
  8
4
100
AcDbLine
 10
341.1848827114854
 20
1575.672821941394
 30
0.0
 11
341.1848827114854
 21
1559.218339269489
 31
0.0
  0
ARC
  5
3F1
330
17
100
AcDbEntity
  8
4
100
AcDbCircle
 10
345.0602615867647
 20
1575.672821941394
 30
0.0
 40
3.875378875279264
100
AcDbArc
 50
134.9559267627458
 51
225.0440732372542
  0
LINE
  5
3F2
330
17
100
AcDbEntity
  8
4
100
AcDbLine
 10
352.1848827114854
 20
1578.415235720044
 30
0.0
 11
342.3220636221122
 21
1578.415235720044
 31
0.0
  0
LINE
  5
3F3
330
17
100
AcDbEntity
  8
4
100
AcDbLine
 10
342.3220636221122
 20
1572.930408162743
 30
0.0
 11
349.1848827114854
 21
1572.930408162743
 31
0.0
  0
LINE
  5
3F4
330
17
100
AcDbEntity
  8
4
100
AcDbLine
 10
342.3220636221122
 20
1561.96075304814
 30
0.0
 11
349.1848827114854
 21
1561.96075304814
 31
0.0
  0
LINE
  5
3F5
330
17
100
AcDbEntity
  8
4
100
AcDbLine
 10
342.3220636221122
 20
1556.475925490839
 30
0.0
 11
352.1848827114854
 21
1556.475925490839
 31
0.0
  0
LINE
  5
3F6
330
17
100
AcDbEntity
  8
4
100
AcDbLine
 10
367.9848827114856
 20
1550.445580605441
 30
0.0
 11
353.1848827114854
 21
1550.445580605442
 31
0.0
  0
LINE
  5
3F7
330
17
100
AcDbEntity
  8
4
100
AcDbLine
 10
370.9848827114856
 20
1520.945580605442
 30
0.0
 11
370.9848827114856
 21
1548.945580605442
 31
0.0
  0
ARC
  5
3F8
330
17
100
AcDbEntity
  8
4
100
AcDbCircle
 10
345.0602615867647
 20
1607.968076013342
 30
0.0
 40
3.875378875279244
100
AcDbArc
 50
134.9559267627458
 51
225.0440732372542
  0
LINE
  5
3F9
330
17
100
AcDbEntity
  8
4
100
AcDbLine
 10
352.1848827114854
 20
1605.225662234691
 30
0.0
 11
352.1848827114854
 21
1627.164972463897
 31
0.0
  0
LINE
  5
3FA
330
17
100
AcDbEntity
  8
4
100
AcDbLine
 10
349.1848827114854
 20
1605.225662234691
 30
0.0
 11
349.1848827114854
 21
1627.164972463897
 31
0.0
  0
LINE
  5
3FB
330
17
100
AcDbEntity
  8
L-CENTER
 48
2.0
100
AcDbLine
 10
334.1647407114856
 20
1713.695843861589
 30
0.0
 11
405.9011907114859
 21
1713.695843861589
 31
0.0
  0
LINE
  5
3FC
330
17
100
AcDbEntity
  8
L-CENTER
 48
2.0
100
AcDbLine
 10
334.1647407114856
 20
1567.445580605442
 30
0.0
 11
405.9011907114855
 21
1567.445580605442
 31
0.0
  0
LINE
  5
3FD
330
17
100
AcDbEntity
  8
L-CENTER
 48
2.0
100
AcDbLine
 10
334.1647407114856
 20
1616.195317349294
 30
0.0
 11
405.9011907114859
 21
1616.195317349294
 31
0.0
  0
LINE
  5
3FE
330
17
100
AcDbEntity
  8
4
100
AcDbLine
 10
367.9848827114856
 20
1548.945580605442
 30
0.0
 11
367.9848827114856
 21
1780.945580605442
 31
0.0
  0
LINE
  5
3FF
330
17
100
AcDbEntity
  8
4
100
AcDbLine
 10
352.1848827114854
 20
1551.445580605442
 30
0.0
 11
352.1848827114854
 21
1778.445580605441
 31
0.0
  0
LINE
  5
400
330
17
100
AcDbEntity
  8
4
100
AcDbLine
 10
349.1848827114854
 20
1724.665498976192
 30
0.0
 11
349.1848827114854
 21
1702.726188746986
 31
0.0
  0
LINE
  5
401
330
17
100
AcDbEntity
  8
4
100
AcDbLine
 10
341.1848827114854
 20
1705.468602525637
 30
0.0
 11
341.1848827114854
 21
1721.923085197541
 31
0.0
  0
LINE
  5
402
330
17
100
AcDbEntity
  8
4
100
AcDbLine
 10
352.1848827114854
 20
1724.665498976192
 30
0.0
 11
352.1848827114854
 21
1702.726188746986
 31
0.0
  0
ARC
  5
403
330
17
100
AcDbEntity
  8
4
100
AcDbCircle
 10
345.0602615867647
 20
1721.923085197541
 30
0.0
 40
3.875378875279244
100
AcDbArc
 50
134.9559267627458
 51
225.0440732372542
  0
ARC
  5
404
330
17
100
AcDbEntity
  8
4
100
AcDbCircle
 10
400.4848827114856
 20
1484.945580605442
 30
0.0
 40
10.0
100
AcDbArc
 50
180.0
 51
270.0
  0
ARC
  5
407
330
17
100
AcDbEntity
  8
4
100
AcDbCircle
 10
406.9038267114856
 20
771.2645059005447
 30
0.0
 40
5.000052
100
AcDbArc
 50
105.0038550000012
 51
164.9961419999994
  0
LINE
  5
409
330
17
100
AcDbEntity
  8
4
100
AcDbLine
 10
390.4848827114856
 20
1520.945580605442
 30
0.0
 11
390.4848827114856
 21
1484.945580605442
 31
0.0
  0
ARC
  5
40A
330
17
100
AcDbEntity
  8
4
100
AcDbCircle
 10
664.4848827114861
 20
-189.8165500994553
 30
0.0
 40
999.9999660000001
100
AcDbArc
 50
74.99662500000004
 51
105.00351
  0
LINE
  5
40D
330
17
100
AcDbEntity
  8
4
100
AcDbLine
 10
957.9848827114861
 20
1783.945580605442
 30
0.0
 11
370.9848827114856
 21
1783.945580605442
 31
0.0
  0
LINE
  5
40E
330
17
100
AcDbEntity
  8
4
100
AcDbLine
 10
957.9848827114861
 20
1520.945580605442
 30
0.0
 11
370.9848827114856
 21
1520.945580605442
 31
0.0
  0
LINE
  5
40F
330
17
100
AcDbEntity
  8
4
100
AcDbLine
 10
400.4848827114856
 20
1474.945580605442
 30
0.0
 11
564.4848827114861
 21
1474.945580605442
 31
0.0
  0
LINE
  5
410
330
17
100
AcDbEntity
  8
L-CENTER
 48
2.0
100
AcDbLine
 10
1126.940315374854
 20
1664.945580605442
 30
0.0
 11
202.0294500481182
 21
1664.945580605442
 31
0.0
  0
LINE
  5
411
330
17
100
AcDbEntity
  8
L-CENTER
 48
2.0
100
AcDbLine
 10
511.7848827114854
 20
1514.945580605442
 30
0.0
 11
457.184882711485
 21
1514.945580605442
 31
0.0
  0
LINE
  5
412
330
17
100
AcDbEntity
  8
L-CENTER
 48
2.0
100
AcDbLine
 10
511.7848827114872
 20
1814.945580605442
 30
0.0
 11
457.1848827114868
 21
1814.945580605442
 31
0.0
  0
LINE
  5
413
330
17
100
AcDbEntity
  8
4
100
AcDbLine
 10
556.5371177161564
 20
1854.945580605442
 30
0.0
 11
400.4848827114856
 21
1854.945580605442
 31
0.0
  0
LINE
  5
414
330
17
100
AcDbEntity
  8
4
100
AcDbLine
 10
960.9848827114861
 20
1780.945580605442
 30
0.0
 11
367.9848827114856
 21
1780.945580605442
 31
0.0
  0
LINE
  5
415
330
17
100
AcDbEntity
  8
4
100
AcDbLine
 10
960.9848827114852
 20
1548.945580605442
 30
0.0
 11
367.9848827114856
 21
1548.945580605442
 31
0.0
  0
LINE
  5
416
330
17
100
AcDbEntity
  8
4
100
AcDbLine
 10
369.9848827114852
 20
1811.245580605442
 30
0.0
 11
958.9848827114852
 21
1811.245580605442
 31
0.0
  0
LINE
  5
417
330
17
100
AcDbEntity
  8
4
100
AcDbLine
 10
368.9848827114852
 20
1784.245580605442
 30
0.0
 11
959.9848827114861
 21
1784.245580605442
 31
0.0
  0
LINE
  5
418
330
17
100
AcDbEntity
  8
4
100
AcDbLine
 10
422.1991684257691
 20
1811.245580605442
 30
0.0
 11
548.177072065519
 21
1829.060637685811
 31
0.0
  0
LINE
  5
419
330
17
100
AcDbEntity
  8
4
100
AcDbLine
 10
407.9155971579335
 20
1811.245580605442
 30
0.0
 11
549.2048407020325
 21
1831.225877672283
 31
0.0
  0
LINE
  5
41A
330
17
100
AcDbEntity
  8
4
100
AcDbLine
 10
484.4848827114861
 20
1824.245580605442
 30
0.0
 11
434.4848827114856
 21
1824.245580605442
 31
0.0
  0
LINE
  5
41B
330
17
100
AcDbEntity
  8
4
100
AcDbLine
 10
420.3544479288771
 20
1520.945580605442
 30
0.0
 11
548.1982454158365
 21
1501.144857762344
 31
0.0
  0
LINE
  5
41C
330
17
100
AcDbEntity
  8
4
100
AcDbLine
 10
407.2874401661375
 20
1520.945580605442
 30
0.0
 11
550.0534741303513
 21
1498.833669621086
 31
0.0
  0
ARC
  5
425
330
17
100
AcDbEntity
  8
4
100
AcDbCircle
 10
984.0094038362063
 20
311.347945236497
 30
0.0
 40
3.875378875279244
100
AcDbArc
 50
314.9559267627428
 51
45.04407323725719
  0
ARC
  5
426
330
17
100
AcDbEntity
  8
4
100
AcDbCircle
 10
975.884786711486
 20
332.1834499005447
 30
0.0
 40
1.000002
100
AcDbArc
 50
0.0
 51
90.0
  0
LINE
  5
427
330
17
100
AcDbEntity
  8
4
100
AcDbLine
 10
986.7476018008588
 20
314.0903590151477
 30
0.0
 11
976.8847827114855
 21
314.0903590151477
 31
0.0
  0
LINE
  5
428
330
17
100
AcDbEntity
  8
4
100
AcDbLine
 10
986.7476018008588
 20
308.6055314578464
 30
0.0
 11
979.8847827114855
 21
308.6055314578464
 31
0.0
  0
ARC
  5
42A
330
17
100
AcDbEntity
  8
4
100
AcDbCircle
 10
984.0094038362063
 20
294.8934625645927
 30
0.0
 40
3.875378875279264
100
AcDbArc
 50
314.955926762744
 51
45.04407323725719
  0
LINE
  5
42D
330
17
100
AcDbEntity
  8
4
100
AcDbLine
 10
976.8847827114855
 20
292.1510487859421
 30
0.0
 11
986.7476018008588
 21
292.1510487859421
 31
0.0
  0
LINE
  5
42E
330
17
100
AcDbEntity
  8
4
100
AcDbLine
 10
986.7476018008588
 20
297.6358763432434
 30
0.0
 11
979.8847827114855
 21
297.6358763432434
 31
0.0
  0
ARC
  5
42F
330
17
100
AcDbEntity
  8
4
100
AcDbCircle
 10
974.0890385763082
 20
303.1207039005446
 30
0.0
 40
13.7957441351769
100
AcDbArc
 50
336.5734024913738
 51
23.42659750862626
  0
LINE
  5
430
330
17
100
AcDbEntity
  8
4
100
AcDbLine
 10
979.8847827114855
 20
314.0903590151477
 30
0.0
 11
979.8847827114855
 21
292.1510487859421
 31
0.0
  0
LINE
  5
431
330
17
100
AcDbEntity
  8
4
100
AcDbLine
 10
987.8847827114855
 20
294.8934625645927
 30
0.0
 11
987.8847827114855
 21
311.347945236497
 31
0.0
  0
LINE
  5
432
330
17
100
AcDbEntity
  8
4
100
AcDbLine
 10
976.8847827114855
 20
314.0903590151477
 30
0.0
 11
976.8847827114855
 21
292.1510487859421
 31
0.0
  0
ARC
  5
433
330
17
100
AcDbEntity
  8
4
100
AcDbCircle
 10
974.0890385763082
 20
218.6834479005447
 30
0.0
 40
13.7957441351769
100
AcDbArc
 50
336.5734024913738
 51
23.42659750862626
  0
LINE
  5
434
330
17
100
AcDbEntity
  8
4
100
AcDbLine
 10
987.8847827114855
 20
210.4562065645928
 30
0.0
 11
987.8847827114855
 21
226.9106892364971
 31
0.0
  0
ARC
  5
435
330
17
100
AcDbEntity
  8
4
100
AcDbCircle
 10
984.0094038362063
 20
210.4562065645928
 30
0.0
 40
3.875378875279264
100
AcDbArc
 50
314.955926762744
 51
45.04407323725601
  0
ARC
  5
436
330
17
100
AcDbEntity
  8
4
100
AcDbCircle
 10
984.0094038362063
 20
226.9106892364971
 30
0.0
 40
3.875378875279244
100
AcDbArc
 50
314.955926762744
 51
45.04407323725601
  0
LINE
  5
437
330
17
100
AcDbEntity
  8
4
100
AcDbLine
 10
979.8847827114855
 20
229.6531030151477
 30
0.0
 11
979.8847827114855
 21
207.7137927859421
 31
0.0
  0
LINE
  5
438
330
17
100
AcDbEntity
  8
4
100
AcDbLine
 10
976.8847827114855
 20
229.6531030151477
 30
0.0
 11
976.8847827114855
 21
207.7137927859421
 31
0.0
  0
LINE
  5
439
330
17
100
AcDbEntity
  8
4
100
AcDbLine
 10
976.8847827114855
 20
207.7137927859421
 30
0.0
 11
986.7476018008588
 21
207.7137927859421
 31
0.0
  0
LINE
  5
43A
330
17
100
AcDbEntity
  8
4
100
AcDbLine
 10
986.7476018008588
 20
213.1986203432434
 30
0.0
 11
979.8847827114855
 21
213.1986203432434
 31
0.0
  0
LINE
  5
43B
330
17
100
AcDbEntity
  8
4
100
AcDbLine
 10
986.7476018008588
 20
229.6531030151477
 30
0.0
 11
976.8847827114855
 21
229.6531030151477
 31
0.0
  0
LINE
  5
43C
330
17
100
AcDbEntity
  8
4
100
AcDbLine
 10
986.7476018008588
 20
224.1682754578464
 30
0.0
 11
979.8847827114855
 21
224.1682754578464
 31
0.0
  0
ARC
  5
43D
330
17
100
AcDbEntity
  8
4
100
AcDbCircle
 10
984.0094038362063
 20
142.473433236497
 30
0.0
 40
3.875378875279244
100
AcDbArc
 50
314.955926762744
 51
45.04407323725601
  0
LINE
  5
440
330
17
100
AcDbEntity
  8
4
100
AcDbLine
 10
986.7476018008588
 20
145.2158470151477
 30
0.0
 11
976.8847827114855
 21
145.2158470151477
 31
0.0
  0
LINE
  5
441
330
17
100
AcDbEntity
  8
4
100
AcDbLine
 10
986.7476018008588
 20
139.7310194578464
 30
0.0
 11
979.8847827114855
 21
139.7310194578464
 31
0.0
  0
ARC
  5
451
330
17
100
AcDbEntity
  8
4
100
AcDbCircle
 10
984.0094038362063
 20
126.0189505645927
 30
0.0
 40
3.875378875279264
100
AcDbArc
 50
314.955926762744
 51
45.04407323725601
  0
ARC
  5
452
330
17
100
AcDbEntity
  8
4
100
AcDbCircle
 10
975.884786711486
 20
105.1834459005447
 30
0.0
 40
1.000002
100
AcDbArc
 50
270.0
 51
0.0
  0
LINE
  5
453
330
17
100
AcDbEntity
  8
4
100
AcDbLine
 10
976.8847827114855
 20
123.2765367859421
 30
0.0
 11
986.7476018008588
 21
123.2765367859421
 31
0.0
  0
LINE
  5
454
330
17
100
AcDbEntity
  8
4
100
AcDbLine
 10
986.7476018008588
 20
128.7613643432434
 30
0.0
 11
979.8847827114855
 21
128.7613643432434
 31
0.0
  0
TEXT
  5
456
330
17
100
AcDbEntity
  8
3
100
AcDbText
 10
1245.503098701979
 20
28.28586918824078
 30
0.0
 40
21.86125196538633
  1
LA10-08
  7
KANJI
100
AcDbText
  0
LINE
  5
457
330
17
100
AcDbEntity
  8
4
100
AcDbLine
 10
976.8847827114855
 20
332.1834499005447
 30
0.0
 11
976.8847827114855
 21
105.1834459005447
 31
0.0
  0
LINE
  5
458
330
17
100
AcDbEntity
  8
4
100
AcDbLine
 10
956.4848847114858
 20
333.1834459005447
 30
0.0
 11
956.4848847114858
 21
104.1834499005447
 31
0.0
  0
ARC
  5
459
330
17
100
AcDbEntity
  8
4
100
AcDbCircle
 10
974.0890385763082
 20
134.2461919005447
 30
0.0
 40
13.7957441351769
100
AcDbArc
 50
336.5734024913738
 51
23.42659750862626
  0
LINE
  5
45A
330
17
100
AcDbEntity
  8
4
100
AcDbLine
 10
979.8847827114855
 20
145.2158470151477
 30
0.0
 11
979.8847827114855
 21
123.2765367859421
 31
0.0
  0
LINE
  5
45B
330
17
100
AcDbEntity
  8
4
100
AcDbLine
 10
987.8847827114855
 20
126.0189505645927
 30
0.0
 11
987.8847827114855
 21
142.473433236497
 31
0.0
  0
LINE
  5
45C
330
17
100
AcDbEntity
  8
4
100
AcDbLine
 10
976.8847827114855
 20
145.2158470151477
 30
0.0
 11
976.8847827114855
 21
123.2765367859421
 31
0.0
  0
ARC
  5
45D
330
17
100
AcDbEntity
  8
4
100
AcDbCircle
 10
916.4531427114857
 20
575.7498559005446
 30
0.0
 40
3.999918
100
AcDbArc
 50
264.0019730000074
 51
13.83946400000168
  0
ARC
  5
45E
330
17
100
AcDbEntity
  8
4
100
AcDbCircle
 10
916.4531427114857
 20
451.6170439005448
 30
0.0
 40
3.999918
100
AcDbArc
 50
346.1605359999984
 51
95.99802699999265
  0
ARC
  5
45F
330
17
100
AcDbEntity
  8
4
100
AcDbCircle
 10
775.0024587114854
 20
439.7698759005448
 30
0.0
 40
1.000044
100
AcDbArc
 50
95.99728099997981
 51
171.5058919999985
  0
ARC
  5
460
330
17
100
AcDbEntity
  8
4
100
AcDbCircle
 10
782.8266807114856
 20
431.5425799005448
 30
0.0
 40
10.000008
100
AcDbArc
 50
95.99926800000128
 51
170.7315380000005
  0
ARC
  5
461
330
17
100
AcDbEntity
  8
4
100
AcDbCircle
 10
761.0356647114854
 20
417.1326679005447
 30
0.0
 40
1.999902
100
AcDbArc
 50
281.1851209999978
 51
348.8148790000027
  0
ARC
  5
462
330
17
100
AcDbEntity
  8
4
100
AcDbCircle
 10
746.6257527114853
 20
395.3416519005448
 30
0.0
 40
10.000008
100
AcDbArc
 50
99.26845599999626
 51
174.000732
  0
ARC
  5
463
330
17
100
AcDbEntity
  8
4
100
AcDbCircle
 10
766.8506067114854
 20
411.3177259005447
 30
0.0
 40
1.999986
100
AcDbArc
 50
281.8627300000047
 51
348.1372979999981
  0
ARC
  5
464
330
17
100
AcDbEntity
  8
4
100
AcDbCircle
 10
272.4848847114858
 20
513.6834499005447
 30
0.0
 40
500.00001
100
AcDbArc
 50
348.82116
 51
0.0
  0
ARC
  5
465
330
17
100
AcDbEntity
  8
4
100
AcDbCircle
 10
279.4848807114854
 20
513.6834499005447
 30
0.0
 40
499.99995
100
AcDbArc
 50
348.138455
 51
0.0
  0
LINE
  5
466
330
17
100
AcDbEntity
  8
4
100
AcDbLine
 10
781.7815107114861
 20
441.4878919005446
 30
0.0
 11
916.0351767114857
 21
455.5950679005448
 31
0.0
  0
ARC
  5
467
330
17
100
AcDbEntity
  8
4
100
AcDbCircle
 10
922.0659387114852
 20
256.1023939005447
 30
0.0
 40
5.000052
100
AcDbArc
 50
285.0038550000066
 51
344.996145
  0
ARC
  5
468
330
17
100
AcDbEntity
  8
4
100
AcDbCircle
 10
726.551288711486
 20
261.7151839005446
 30
0.0
 40
3.999918
100
AcDbArc
 50
174.0019730000007
 51
283.8394639999985
  0
ARC
  5
469
330
17
100
AcDbEntity
  8
4
100
AcDbCircle
 10
841.9848807114854
 20
218.6834479005447
 30
0.0
 40
72.499998
100
AcDbArc
 50
180.0001930000602
 51
0.0
  0
LINE
  5
46A
330
17
100
AcDbEntity
  8
4
100
AcDbLine
 10
736.6806807114858
 20
396.3868159005447
 30
0.0
 11
722.5732587114858
 21
262.1331559005448
 31
0.0
  0
ARC
  5
46B
330
17
100
AcDbEntity
  8
4
100
AcDbCircle
 10
582.3440127114859
 20
395.3416519005448
 30
0.0
 40
10.000008
100
AcDbArc
 50
5.999267999999993
 51
80.73153800000188
  0
ARC
  5
46C
330
17
100
AcDbEntity
  8
4
100
AcDbCircle
 10
567.9341007114858
 20
417.1326679005447
 30
0.0
 40
1.999902
100
AcDbArc
 50
191.1851209999972
 51
258.8148790000022
  0
ARC
  5
46D
330
17
100
AcDbEntity
  8
4
100
AcDbCircle
 10
553.9673067114859
 20
439.7698759005448
 30
0.0
 40
1.000044
100
AcDbArc
 50
8.4940989999993
 51
84.0027190000202
  0
ARC
  5
46E
330
17
100
AcDbEntity
  8
4
100
AcDbCircle
 10
546.1430847114857
 20
431.5425799005448
 30
0.0
 40
10.000008
100
AcDbArc
 50
9.26846199999955
 51
84.00073199999873
  0
ARC
  5
46F
330
17
100
AcDbEntity
  8
4
100
AcDbCircle
 10
562.1191587114859
 20
411.3177259005447
 30
0.0
 40
1.999986
100
AcDbArc
 50
191.8627020000019
 51
258.1372979999981
  0
ARC
  5
470
330
17
100
AcDbEntity
  8
4
100
AcDbCircle
 10
1049.484884711486
 20
513.6834499005447
 30
0.0
 40
499.9999800000001
100
AcDbArc
 50
180.0001399980527
 51
191.861715
  0
ARC
  5
471
330
17
100
AcDbEntity
  8
4
100
AcDbCircle
 10
1056.484880711485
 20
513.6834499005447
 30
0.0
 40
500.000028
100
AcDbArc
 50
180.0001399980527
 51
191.17901
  0
ARC
  5
472
330
17
100
AcDbEntity
  8
4
100
AcDbCircle
 10
602.4184767114862
 20
261.7151839005446
 30
0.0
 40
3.999918
100
AcDbArc
 50
256.160535999988
 51
5.998027000000934
  0
LINE
  5
473
330
17
100
AcDbEntity
  8
4
100
AcDbLine
 10
664.4848827114861
 20
206.6834479005447
 30
0.0
 11
648.8962587114861
 21
197.6834479005447
 31
0.0
  0
LINE
  5
474
330
17
100
AcDbEntity
  8
4
100
AcDbLine
 10
680.0732607114855
 20
197.6834479005447
 30
0.0
 11
664.4848827114861
 21
206.6834479005447
 31
0.0
  0
LINE
  5
475
330
17
100
AcDbEntity
  8
4
100
AcDbLine
 10
648.8962587114861
 20
179.6834479005447
 30
0.0
 11
664.4848827114861
 21
170.6834479005447
 31
0.0
  0
LINE
  5
476
330
17
100
AcDbEntity
  8
4
100
AcDbLine
 10
664.4848827114861
 20
170.6834479005447
 30
0.0
 11
680.0732607114855
 21
179.6834479005447
 31
0.0
  0
CIRCLE
  5
477
330
17
100
AcDbEntity
  8
4
100
AcDbCircle
 10
664.4848827114861
 20
188.6834479005447
 30
0.0
 40
18.0
  0
CIRCLE
  5
478
330
17
100
AcDbEntity
  8
4
100
AcDbCircle
 10
664.4848827114861
 20
188.6834479005447
 30
0.0
 40
19.999998
  0
LINE
  5
479
330
17
100
AcDbEntity
  8
4
100
AcDbLine
 10
648.8962587114861
 20
179.6834479005447
 30
0.0
 11
648.8962587114861
 21
197.6834479005447
 31
0.0
  0
LINE
  5
47A
330
17
100
AcDbEntity
  8
4
100
AcDbLine
 10
680.0732607114855
 20
179.6834479005447
 30
0.0
 11
680.0732607114855
 21
197.6834479005447
 31
0.0
  0
LINE
  5
47B
330
17
100
AcDbEntity
  8
L-CENTER
 48
2.0
100
AcDbLine
 10
635.9680228011025
 20
188.6834479005447
 30
0.0
 11
693.0017426218678
 21
188.6834479005447
 31
0.0
  0
LINE
  5
47C
330
17
100
AcDbEntity
  8
4
100
AcDbLine
 10
592.2890787114852
 20
396.3868159005447
 30
0.0
 11
606.3965007114862
 21
262.1331559005448
 31
0.0
  0
ARC
  5
47D
330
17
100
AcDbEntity
  8
4
100
AcDbCircle
 10
664.4848827114861
 20
905.6834479005447
 30
0.0
 40
500.00001
100
AcDbArc
 50
258.821015
 51
281.179322
  0
ARC
  5
47E
330
17
100
AcDbEntity
  8
4
100
AcDbCircle
 10
664.4848827114861
 20
898.6834459005445
 30
0.0
 40
500.000058
100
AcDbArc
 50
258.1382009999999
 51
281.8620809999999
  0
ARC
  5
47F
330
17
100
AcDbEntity
  8
4
100
AcDbCircle
 10
944.0478687114851
 20
99.18344590054471
 30
0.0
 40
4.999956
100
AcDbArc
 50
90.0
 51
176.9686880000001
  0
LINE
  5
480
330
17
100
AcDbEntity
  8
4
100
AcDbLine
 10
938.4848847114858
 20
103.6834459005447
 30
0.0
 11
938.4848847114858
 21
48.6834499005447
 31
0.0
  0
LINE
  5
482
330
17
100
AcDbEntity
  8
4
100
AcDbLine
 10
857.4848847114858
 20
48.6834499005447
 30
0.0
 11
857.4848847114858
 21
103.6834459005447
 31
0.0
  0
LINE
  5
483
330
17
100
AcDbEntity
  8
4
100
AcDbLine
 10
831.4848807114854
 20
48.6834499005447
 30
0.0
 11
831.4848807114854
 21
103.6834459005447
 31
0.0
  0
LWPOLYLINE
  5
486
330
17
100
AcDbEntity
  8
4
 62
     3
100
AcDbPolyline
 90
       30
 70
     0
 43
0.0
 10
796.8639867114857
 20
103.4065999005447
 10
798.0316407114856
 20
102.4380079005447
 10
799.1704407114853
 20
101.4678979005448
 10
800.2515147114859
 20
100.4947519005448
 10
802.8597987114858
 20
97.54187590054471
 10
803.4213807114852
 20
96.5413819005447
 10
803.7809367114855
 20
95.53024990054473
 10
803.9096127114858
 20
94.50696190054475
 10
803.7225987114857
 20
93.20173990054468
 10
803.2067967114858
 20
91.87422190054463
 10
802.4437047114857
 20
90.52372390054484
 10
799.4854347114856
 20
86.32739590054473
 10
798.5479587114855
 20
84.87802990054468
 10
797.7705927114853
 20
83.40221590054466
 10
797.2348227114858
 20
81.89925790054474
 10
796.9999347114858
 20
80.35855990054472
 10
797.0438547114859
 20
78.79595590054464
 10
797.3176647114856
 20
77.21777590054467
 10
799.0292487114862
 20
72.45315790054474
 10
801.0487887114855
 20
67.77638590054471
 10
801.5621187114853
 20
66.26653990054479
 10
801.9139887114857
 20
64.7917879005447
 10
802.0554867114856
 20
63.35845990054474
 10
801.8534067114856
 20
61.48959190054472
 10
801.2282247114858
 20
59.69865190054475
 10
800.232824711486
 20
57.97590190054461
 10
795.5542107114857
 20
53.11937590054481
 10
793.6068267114856
 20
51.57196990054467
 10
791.5536687114859
 20
50.04404590054469
 10
789.4476207114853
 20
48.52585990054467
  0
ARC
  5
487
330
17
100
AcDbEntity
  8
4
100
AcDbCircle
 10
751.4848827114861
 20
65.6834479005447
 30
0.0
 40
3.0
100
AcDbArc
 50
0.0
 51
90.0
  0
LINE
  5
488
330
17
100
AcDbEntity
  8
4
100
AcDbLine
 10
938.4848847114858
 20
103.6834459005447
 30
0.0
 11
754.4848827114861
 21
103.6834459005447
 31
0.0
  0
LINE
  5
489
330
17
100
AcDbEntity
  8
4
100
AcDbLine
 10
938.4848847114858
 20
48.6834499005447
 30
0.0
 11
754.4848827114861
 21
48.6834499005447
 31
0.0
  0
LINE
  5
490
330
17
100
AcDbEntity
  8
4
 62
     3
100
AcDbLine
 10
664.4848827114861
 20
94.83814990054475
 30
0.0
 11
672.1451367114855
 21
99.26079790054473
 31
0.0
  0
LINE
  5
491
330
17
100
AcDbEntity
  8
4
 62
     3
100
AcDbLine
 10
656.8246287114857
 20
99.26079790054473
 30
0.0
 11
664.4848827114861
 21
94.83814990054475
 31
0.0
  0
CIRCLE
  5
492
330
17
100
AcDbEntity
  8
4
100
AcDbCircle
 10
664.4848827114861
 20
103.6834459005447
 30
0.0
 40
11.000002
  0
CIRCLE
  5
493
330
17
100
AcDbEntity
  8
2
100
AcDbCircle
 10
664.4848827114861
 20
103.6834459005447
 30
0.0
 40
10.000002
  0
LINE
  5
494
330
17
100
AcDbEntity
  8
4
 62
     3
100
AcDbLine
 10
664.4848827114861
 20
112.5287479005447
 30
0.0
 11
672.1451367114855
 21
108.1060999005447
 31
0.0
  0
LINE
  5
495
330
17
100
AcDbEntity
  8
4
 62
     3
100
AcDbLine
 10
664.4848827114861
 20
112.5287479005447
 30
0.0
 11
656.8246287114857
 21
108.1060999005447
 31
0.0
  0
LINE
  5
496
330
17
100
AcDbEntity
  8
4
 62
     3
100
AcDbLine
 10
656.8246287114857
 20
108.1060999005447
 30
0.0
 11
656.8246287114857
 21
99.26079790054473
 31
0.0
  0
LINE
  5
497
330
17
100
AcDbEntity
  8
4
 62
     3
100
AcDbLine
 10
672.1451367114855
 20
99.26079790054473
 30
0.0
 11
672.1451367114855
 21
108.1060999005447
 31
0.0
  0
CIRCLE
  5
498
330
17
100
AcDbEntity
  8
4
100
AcDbCircle
 10
664.4848827114861
 20
103.6834459005447
 30
0.0
 40
15.0
  0
LINE
  5
499
330
17
100
AcDbEntity
  8
L-CENTER
 48
2.0
100
AcDbLine
 10
639.880880711486
 20
103.6834459005447
 30
0.0
 11
689.0888847114852
 21
103.6834459005447
 31
0.0
  0
ARC
  5
49B
330
17
100
AcDbEntity
  8
4
100
AcDbCircle
 10
577.4848827114861
 20
65.6834479005447
 30
0.0
 40
3.0
100
AcDbArc
 50
90.0
 51
180.0
  0
LINE
  5
49F
330
17
100
AcDbEntity
  8
4
100
AcDbLine
 10
577.4848827114861
 20
68.6834479005447
 30
0.0
 11
751.4848827114861
 21
68.6834479005447
 31
0.0
  0
LINE
  5
4A1
330
17
100
AcDbEntity
  8
4
100
AcDbLine
 10
914.4848847114858
 20
218.6834479005447
 30
0.0
 11
914.4848847114858
 21
103.6834459005447
 31
0.0
  0
LINE
  5
4A2
330
17
100
AcDbEntity
  8
4
100
AcDbLine
 10
769.4848827114861
 20
103.6834459005447
 30
0.0
 11
769.4848827114861
 21
218.6834479005447
 31
0.0
  0
LINE
  5
4A3
330
17
100
AcDbEntity
  8
4
100
AcDbLine
 10
754.4848827114861
 20
218.6834479005447
 30
0.0
 11
754.4848827114861
 21
48.6834499005447
 31
0.0
  0
LINE
  5
4A4
330
17
100
AcDbEntity
  8
4
100
AcDbLine
 10
559.4848827114861
 20
103.6834459005447
 30
0.0
 11
559.4848827114861
 21
218.6834479005447
 31
0.0
  0
LINE
  5
4A5
330
17
100
AcDbEntity
  8
4
100
AcDbLine
 10
574.4848827114861
 20
218.6834479005447
 30
0.0
 11
574.4848827114861
 21
48.6834499005447
 31
0.0
  0
LINE
  5
4A6
330
17
100
AcDbEntity
  8
L-CENTER
 48
2.0
100
AcDbLine
 10
484.4848827114861
 20
123.6834459005447
 30
0.0
 11
484.4848827114861
 21
28.6834499005447
 31
0.0
  0
LINE
  5
4A7
330
17
100
AcDbEntity
  8
4
100
AcDbLine
 10
649.4848827114861
 20
175.4546899005447
 30
0.0
 11
649.4848827114861
 21
103.6834459005447
 31
0.0
  0
LINE
  5
4A8
330
17
100
AcDbEntity
  8
4
100
AcDbLine
 10
679.4848827114861
 20
175.4546899005447
 30
0.0
 11
679.4848827114861
 21
103.6834459005447
 31
0.0
  0
LINE
  5
4A9
330
17
100
AcDbEntity
  8
L-CENTER
 48
2.0
100
AcDbLine
 10
844.4848827114861
 20
123.6834459005447
 30
0.0
 11
844.4848827114861
 21
28.6834499005447
 31
0.0
  0
LINE
  5
4AA
330
17
100
AcDbEntity
  8
4
100
AcDbLine
 10
938.4848847114858
 20
88.68344590054471
 30
0.0
 11
960.9848847114858
 21
513.6834499005447
 31
0.0
  0
LINE
  5
4AC
330
17
100
AcDbEntity
  8
L-CENTER
 48
2.0
100
AcDbLine
 10
993.8837547114858
 20
134.2461919005447
 30
0.0
 11
931.3027527114859
 21
134.2461919005447
 31
0.0
  0
LINE
  5
4AD
330
17
100
AcDbEntity
  8
4
100
AcDbLine
 10
975.884786711486
 20
104.1834499005447
 30
0.0
 11
944.0478687114851
 21
104.1834499005447
 31
0.0
  0
LINE
  5
4B0
330
17
100
AcDbEntity
  8
L-CENTER
 48
2.0
100
AcDbLine
 10
992.6135067114851
 20
303.1207039005446
 30
0.0
 11
930.5280927114859
 21
303.1207039005446
 31
0.0
  0
ARC
  5
4B1
330
17
100
AcDbEntity
  8
4
100
AcDbCircle
 10
-39.01511728851438
 20
513.6834499005447
 30
0.0
 40
1000.000032
100
AcDbArc
 50
344.997058
 51
0.0
  0
LINE
  5
4B2
330
17
100
AcDbEntity
  8
4
100
AcDbLine
 10
975.884786711486
 20
333.1834459005447
 30
0.0
 11
951.4289727114851
 21
333.1834459005447
 31
0.0
  0
ARC
  5
4D2
330
17
100
AcDbEntity
  8
4
100
AcDbCircle
 10
412.5166227114855
 20
575.7498559005446
 30
0.0
 40
3.999918
100
AcDbArc
 50
166.1605359999983
 51
275.9980270000059
  0
ARC
  5
4D3
330
17
100
AcDbEntity
  8
4
100
AcDbCircle
 10
412.5166227114855
 20
451.6170439005448
 30
0.0
 40
3.999918
100
AcDbArc
 50
84.00197299999405
 51
193.8394640000017
  0
ARC
  5
4D4
330
17
100
AcDbEntity
  8
4
100
AcDbCircle
 10
406.9038267114856
 20
256.1023939005447
 30
0.0
 40
5.000052
100
AcDbArc
 50
195.0038580000019
 51
254.9961449999988
  0
ARC
  5
4D5
330
17
100
AcDbEntity
  8
4
100
AcDbCircle
 10
353.0849787114857
 20
332.1834499005447
 30
0.0
 40
1.000002
100
AcDbArc
 50
90.0
 51
180.0
  0
LINE
  5
4D6
330
17
100
AcDbEntity
  8
4
100
AcDbLine
 10
342.2221636221125
 20
308.6055314578464
 30
0.0
 11
349.0849827114857
 21
308.6055314578464
 31
0.0
  0
LINE
  5
4D7
330
17
100
AcDbEntity
  8
4
100
AcDbLine
 10
342.2221636221125
 20
314.0903590151477
 30
0.0
 11
352.0849827114857
 21
314.0903590151477
 31
0.0
  0
ARC
  5
4D8
330
17
100
AcDbEntity
  8
4
100
AcDbCircle
 10
344.960361586765
 20
311.347945236497
 30
0.0
 40
3.875378875279244
100
AcDbArc
 50
134.9559267627517
 51
225.0440732372483
  0
LINE
  5
4D9
330
17
100
AcDbEntity
  8
4
100
AcDbLine
 10
353.0849787114857
 20
333.1834459005447
 30
0.0
 11
377.5407927114857
 21
333.1834459005447
 31
0.0
  0
LINE
  5
4DA
330
17
100
AcDbEntity
  8
4
100
AcDbLine
 10
342.2221636221125
 20
297.6358763432434
 30
0.0
 11
349.0849827114857
 21
297.6358763432434
 31
0.0
  0
LINE
  5
4DB
330
17
100
AcDbEntity
  8
4
100
AcDbLine
 10
352.0849827114857
 20
292.1510487859421
 30
0.0
 11
342.2221636221125
 21
292.1510487859421
 31
0.0
  0
ARC
  5
4DC
330
17
100
AcDbEntity
  8
4
100
AcDbCircle
 10
344.960361586765
 20
294.8934625645927
 30
0.0
 40
3.875378875279264
100
AcDbArc
 50
134.9559267627517
 51
225.0440732372483
  0
LINE
  5
4DD
330
17
100
AcDbEntity
  8
4
100
AcDbLine
 10
352.0849827114857
 20
314.0903590151477
 30
0.0
 11
352.0849827114857
 21
292.1510487859421
 31
0.0
  0
LINE
  5
4DE
330
17
100
AcDbEntity
  8
4
100
AcDbLine
 10
341.0849827114857
 20
294.8934625645927
 30
0.0
 11
341.0849827114857
 21
311.347945236497
 31
0.0
  0
LINE
  5
4DF
330
17
100
AcDbEntity
  8
4
100
AcDbLine
 10
349.0849827114857
 20
314.0903590151477
 30
0.0
 11
349.0849827114857
 21
292.1510487859421
 31
0.0
  0
ARC
  5
4E0
330
17
100
AcDbEntity
  8
4
100
AcDbCircle
 10
354.880726846663
 20
303.1207039005446
 30
0.0
 40
13.7957441351769
100
AcDbArc
 50
156.5734024913727
 51
203.4265975086273
  0
LINE
  5
4E1
330
17
100
AcDbEntity
  8
4
100
AcDbLine
 10
352.0849827114857
 20
229.6531030151477
 30
0.0
 11
352.0849827114857
 21
207.7137927859421
 31
0.0
  0
LINE
  5
4E2
330
17
100
AcDbEntity
  8
4
100
AcDbLine
 10
341.0849827114857
 20
210.4562065645928
 30
0.0
 11
341.0849827114857
 21
226.9106892364971
 31
0.0
  0
LINE
  5
4E3
330
17
100
AcDbEntity
  8
4
100
AcDbLine
 10
349.0849827114857
 20
229.6531030151477
 30
0.0
 11
349.0849827114857
 21
207.7137927859421
 31
0.0
  0
ARC
  5
4E4
330
17
100
AcDbEntity
  8
4
100
AcDbCircle
 10
354.880726846663
 20
218.6834479005447
 30
0.0
 40
13.7957441351769
100
AcDbArc
 50
156.5734024913727
 51
203.4265975086273
  0
LINE
  5
4E5
330
17
100
AcDbEntity
  8
4
100
AcDbLine
 10
342.2221636221125
 20
213.1986203432434
 30
0.0
 11
349.0849827114857
 21
213.1986203432434
 31
0.0
  0
LINE
  5
4E6
330
17
100
AcDbEntity
  8
4
100
AcDbLine
 10
352.0849827114857
 20
207.7137927859421
 30
0.0
 11
342.2221636221125
 21
207.7137927859421
 31
0.0
  0
ARC
  5
4E7
330
17
100
AcDbEntity
  8
4
100
AcDbCircle
 10
344.960361586765
 20
210.4562065645928
 30
0.0
 40
3.875378875279264
100
AcDbArc
 50
134.9559267627517
 51
225.0440732372483
  0
LINE
  5
4E8
330
17
100
AcDbEntity
  8
4
100
AcDbLine
 10
342.2221636221125
 20
224.1682754578464
 30
0.0
 11
349.0849827114857
 21
224.1682754578464
 31
0.0
  0
LINE
  5
4E9
330
17
100
AcDbEntity
  8
4
100
AcDbLine
 10
342.2221636221125
 20
229.6531030151477
 30
0.0
 11
352.0849827114857
 21
229.6531030151477
 31
0.0
  0
ARC
  5
4EA
330
17
100
AcDbEntity
  8
4
100
AcDbCircle
 10
344.960361586765
 20
226.9106892364971
 30
0.0
 40
3.875378875279244
100
AcDbArc
 50
134.9559267627517
 51
225.0440732372471
  0
LINE
  5
4EB
330
17
100
AcDbEntity
  8
4
100
AcDbLine
 10
342.2221636221125
 20
139.7310194578464
 30
0.0
 11
349.0849827114857
 21
139.7310194578464
 31
0.0
  0
LINE
  5
4EC
330
17
100
AcDbEntity
  8
4
100
AcDbLine
 10
342.2221636221125
 20
145.2158470151477
 30
0.0
 11
352.0849827114857
 21
145.2158470151477
 31
0.0
  0
ARC
  5
4ED
330
17
100
AcDbEntity
  8
4
100
AcDbCircle
 10
344.960361586765
 20
142.473433236497
 30
0.0
 40
3.875378875279244
100
AcDbArc
 50
134.9559267627517
 51
225.0440732372471
  0
LINE
  5
4EE
330
17
100
AcDbEntity
  8
L-CENTER
 48
2.0
100
AcDbLine
 10
335.0416167114859
 20
134.2461919005447
 30
0.0
 11
400.9587567114854
 21
134.2461919005447
 31
0.0
  0
LINE
  5
4EF
330
17
100
AcDbEntity
  8
L-CENTER
 48
2.0
100
AcDbLine
 10
334.0648407114854
 20
303.1207039005446
 30
0.0
 11
405.8012907114858
 21
303.1207039005446
 31
0.0
  0
ARC
  5
4F0
330
17
100
AcDbEntity
  8
4
100
AcDbCircle
 10
1367.984882711486
 20
513.6834499005447
 30
0.0
 40
1000.000032
100
AcDbArc
 50
180.0001259887593
 51
195.0031589999999
  0
ARC
  5
4F1
330
17
100
AcDbEntity
  8
4
100
AcDbCircle
 10
384.9218967114857
 20
99.18344590054471
 30
0.0
 40
4.999956
100
AcDbArc
 50
3.031311999999935
 51
90.0
  0
ARC
  5
4F2
330
17
100
AcDbEntity
  8
4
100
AcDbCircle
 10
353.0849787114857
 20
105.1834459005447
 30
0.0
 40
1.000002
100
AcDbArc
 50
180.0
 51
270.0
  0
LINE
  5
4F3
330
17
100
AcDbEntity
  8
4
100
AcDbLine
 10
342.2221636221125
 20
128.7613643432434
 30
0.0
 11
349.0849827114857
 21
128.7613643432434
 31
0.0
  0
LINE
  5
4F4
330
17
100
AcDbEntity
  8
4
100
AcDbLine
 10
352.0849827114857
 20
123.2765367859421
 30
0.0
 11
342.2221636221125
 21
123.2765367859421
 31
0.0
  0
ARC
  5
4F5
330
17
100
AcDbEntity
  8
4
100
AcDbCircle
 10
344.960361586765
 20
126.0189505645927
 30
0.0
 40
3.875378875279264
100
AcDbArc
 50
134.9559267627517
 51
225.0440732372483
  0
LINE
  5
4F6
330
17
100
AcDbEntity
  8
4
100
AcDbLine
 10
353.0849787114857
 20
104.1834499005447
 30
0.0
 11
384.9218967114857
 21
104.1834499005447
 31
0.0
  0
LINE
  5
4F7
330
17
100
AcDbEntity
  8
4
100
AcDbLine
 10
390.4848807114854
 20
103.6834459005447
 30
0.0
 11
390.4848807114854
 21
48.6834499005447
 31
0.0
  0
LINE
  5
4FE
330
17
100
AcDbEntity
  8
4
100
AcDbLine
 10
414.4848807114854
 20
218.6834479005447
 30
0.0
 11
414.4848807114854
 21
103.6834459005447
 31
0.0
  0
LINE
  5
4FF
330
17
100
AcDbEntity
  8
4
100
AcDbLine
 10
390.4848807114854
 20
88.68344590054471
 30
0.0
 11
367.9848807114854
 21
513.6834499005447
 31
0.0
  0
LINE
  5
500
330
17
100
AcDbEntity
  8
4
100
AcDbLine
 10
352.0849827114857
 20
105.1834459005447
 30
0.0
 11
352.0849827114857
 21
332.1834499005447
 31
0.0
  0
LINE
  5
501
330
17
100
AcDbEntity
  8
4
100
AcDbLine
 10
372.4848807114854
 20
333.1834459005447
 30
0.0
 11
372.4848807114854
 21
104.1834499005447
 31
0.0
  0
LINE
  5
502
330
17
100
AcDbEntity
  8
4
100
AcDbLine
 10
352.0849827114857
 20
145.2158470151477
 30
0.0
 11
352.0849827114857
 21
123.2765367859421
 31
0.0
  0
LINE
  5
503
330
17
100
AcDbEntity
  8
4
100
AcDbLine
 10
341.0849827114857
 20
126.0189505645927
 30
0.0
 11
341.0849827114857
 21
142.473433236497
 31
0.0
  0
LINE
  5
504
330
17
100
AcDbEntity
  8
4
100
AcDbLine
 10
349.0849827114857
 20
145.2158470151477
 30
0.0
 11
349.0849827114857
 21
123.2765367859421
 31
0.0
  0
ARC
  5
505
330
17
100
AcDbEntity
  8
4
100
AcDbCircle
 10
354.880726846663
 20
134.2461919005447
 30
0.0
 40
13.7957441351769
100
AcDbArc
 50
156.5734024913727
 51
203.4265975086273
  0
ARC
  5
525
330
17
100
AcDbEntity
  8
4
100
AcDbCircle
 10
486.9848847114858
 20
218.6834479005447
 30
0.0
 40
72.499998
100
AcDbArc
 50
180.0
 51
0.0
  0
LINE
  5
526
330
17
100
AcDbEntity
  8
4
100
AcDbLine
 10
390.4848807114854
 20
48.6834499005447
 30
0.0
 11
574.4848827114861
 21
48.6834499005447
 31
0.0
  0
LINE
  5
527
330
17
100
AcDbEntity
  8
4
100
AcDbLine
 10
390.4848807114854
 20
103.6834459005447
 30
0.0
 11
574.4848827114861
 21
103.6834459005447
 31
0.0
  0
LINE
  5
529
330
17
100
AcDbEntity
  8
L-CENTER
 48
2.0
100
AcDbLine
 10
349.6856907114857
 20
513.6834499005447
 30
0.0
 11
979.2840747114856
 21
513.6834499005447
 31
0.0
  0
LINE
  5
52A
330
17
100
AcDbEntity
  8
4
100
AcDbLine
 10
547.1882487114858
 20
441.4878919005446
 30
0.0
 11
412.9345887114855
 21
455.5950679005448
 31
0.0
  0
LINE
  5
52B
330
17
100
AcDbEntity
  8
L-CENTER
 48
2.0
100
AcDbLine
 10
1125.568880711486
 20
218.6834479005447
 30
0.0
 11
203.400884711486
 21
218.6834479005448
 31
0.0
  0
ARC
  5
52C
330
17
100
AcDbEntity
  8
4
100
AcDbCircle
 10
664.4848827114861
 20
1217.183449900544
 30
0.0
 40
1000.000002
100
AcDbArc
 50
254.9966359999999
 51
285.0036359999999
  0
LINE
  5
52D
330
17
100
AcDbEntity
  8
L-CENTER
 48
2.0
100
AcDbLine
 10
664.4848827114861
 20
51.74057988687173
 30
0.0
 11
664.4848827114861
 21
924.2902720765053
 31
0.0
  0
ARC
  5
52E
330
17
100
AcDbEntity
  8
4
100
AcDbCircle
 10
664.4848827114861
 20
513.6834499005447
 30
0.0
 40
263.500002
100
AcDbArc
 50
90.00000200000005
 51
270.0000519999998
  0
LINE
  5
52F
330
17
100
AcDbEntity
  8
4
100
AcDbLine
 10
547.1882487114858
 20
585.8790079005446
 30
0.0
 11
412.9345887114855
 21
571.7718259005446
 31
0.0
  0
ARC
  5
530
330
17
100
AcDbEntity
  8
4
100
AcDbCircle
 10
664.4848827114861
 20
513.6834499005447
 30
0.0
 40
293.500002
100
AcDbArc
 50
90.00000200000007
 51
270.0000459999998
  0
ARC
  5
531
330
17
100
AcDbEntity
  8
4
100
AcDbCircle
 10
1367.984882711486
 20
513.6834499005447
 30
0.0
 40
999.99993
100
AcDbArc
 50
164.996939
 51
180.0001259887593
  0
ARC
  5
533
330
17
100
AcDbEntity
  8
4
100
AcDbCircle
 10
-39.01511728851438
 20
513.6834499005447
 30
0.0
 40
999.999996
100
AcDbArc
 50
0.0
 51
15.00330500000001
  0
ARC
  5
534
330
17
100
AcDbEntity
  8
4
100
AcDbCircle
 10
664.4848827114861
 20
513.6834499005447
 30
0.0
 40
293.500002
100
AcDbArc
 50
270.0002839999997
 51
90.00000200000007
  0
ARC
  5
535
330
17
100
AcDbEntity
  8
4
100
AcDbCircle
 10
664.4848827114861
 20
513.6834499005447
 30
0.0
 40
263.500002
100
AcDbArc
 50
270.000264
 51
90.00000200000005
  0
ARC
  5
536
330
17
100
AcDbEntity
  8
4
100
AcDbCircle
 10
546.1430847114857
 20
595.8243199005447
 30
0.0
 40
10.000008
100
AcDbArc
 50
275.9992680000012
 51
350.7315380000005
  0
ARC
  5
537
330
17
100
AcDbEntity
  8
4
100
AcDbCircle
 10
1056.484880711485
 20
513.6834499005447
 30
0.0
 40
499.999962
100
AcDbArc
 50
168.821072
 51
180.000140000656
  0
ARC
  5
538
330
17
100
AcDbEntity
  8
4
100
AcDbCircle
 10
1049.484884711486
 20
513.6834499005447
 30
0.0
 40
499.9999319999999
100
AcDbArc
 50
168.138339
 51
180.0001399980527
  0
LINE
  5
539
330
17
100
AcDbEntity
  8
4
100
AcDbLine
 10
781.7815107114861
 20
585.8790079005446
 30
0.0
 11
916.0351767114857
 21
571.7718259005446
 31
0.0
  0
ARC
  5
53A
330
17
100
AcDbEntity
  8
4
100
AcDbCircle
 10
782.8266807114856
 20
595.8243199005447
 30
0.0
 40
10.000008
100
AcDbArc
 50
189.2684619999995
 51
264.0007319999988
  0
ARC
  5
53B
330
17
100
AcDbEntity
  8
4
100
AcDbCircle
 10
272.4848847114858
 20
513.6834499005447
 30
0.0
 40
500.000004
100
AcDbArc
 50
0.0
 51
11.17912600000009
  0
ARC
  5
53C
330
17
100
AcDbEntity
  8
4
100
AcDbCircle
 10
279.4848807114854
 20
513.6834499005447
 30
0.0
 40
500.00004
100
AcDbArc
 50
0.0
 51
11.86191299999992
  0
LINE
  5
560
330
17
100
AcDbEntity
  8
4
100
AcDbLine
 10
334.4848827114861
 20
187.1834479005447
 30
0.0
 11
215.4848847114868
 21
187.1834479005447
 31
0.0
  0
LINE
  5
561
330
17
100
AcDbEntity
  8
4
100
AcDbLine
 10
334.4848827114861
 20
250.1834479005447
 30
0.0
 11
215.4848847114868
 21
250.1834479005447
 31
0.0
  0
LINE
  5
562
330
17
100
AcDbEntity
  8
4
100
AcDbLine
 10
214.4848827114861
 20
256.1834479005447
 30
0.0
 11
324.4848807114863
 21
256.1834479005447
 31
0.0
  0
LINE
  5
563
330
17
100
AcDbEntity
  8
4
100
AcDbLine
 10
351.0849827114866
 20
263.6834479005448
 30
0.0
 11
351.0849827114866
 21
229.6531030151477
 31
0.0
  0
LINE
  5
564
330
17
100
AcDbEntity
  8
4
100
AcDbLine
 10
334.4848827114861
 20
251.1834499005447
 30
0.0
 11
334.4848827114861
 21
186.1834459005447
 31
0.0
  0
LINE
  5
565
330
17
100
AcDbEntity
  8
4
100
AcDbLine
 10
351.0849827114866
 20
207.713792785942
 30
0.0
 11
351.0849827114866
 21
173.6834479005446
 31
0.0
  0
LINE
  5
566
330
17
100
AcDbEntity
  8
4
100
AcDbLine
 10
334.4848827114861
 20
186.1834459005447
 30
0.0
 11
351.0849807114869
 21
186.1834459005447
 31
0.0
  0
LINE
  5
567
330
17
100
AcDbEntity
  8
4
100
AcDbLine
 10
351.0849827114866
 20
173.6834479005446
 30
0.0
 11
352.0849827114866
 21
173.6834479005446
 31
0.0
  0
LINE
  5
568
330
17
100
AcDbEntity
  8
4
100
AcDbLine
 10
334.4848827114861
 20
251.1834499005447
 30
0.0
 11
351.0849807114869
 21
251.1834499005447
 31
0.0
  0
LINE
  5
569
330
17
100
AcDbEntity
  8
4
100
AcDbLine
 10
351.0849827114866
 20
263.6834479005447
 30
0.0
 11
352.0849827114866
 21
263.6834479005447
 31
0.0
  0
LINE
  5
56A
330
17
100
AcDbEntity
  8
4
100
AcDbLine
 10
324.4848807114863
 20
256.1834479005447
 30
0.0
 11
324.4848807114863
 21
250.1834479005447
 31
0.0
  0
LINE
  5
56B
330
17
100
AcDbEntity
  8
4
100
AcDbLine
 10
214.4848827114861
 20
256.1834479005447
 30
0.0
 11
214.4848827114861
 21
188.1834499005447
 31
0.0
  0
LINE
  5
56C
330
17
100
AcDbEntity
  8
4
100
AcDbLine
 10
215.4848847114868
 20
187.1834479005447
 30
0.0
 11
215.4848847114868
 21
250.1834479005447
 31
0.0
  0
LINE
  5
56D
330
17
100
AcDbEntity
  8
4
100
AcDbLine
 10
215.4848847114868
 20
187.1834479005447
 30
0.0
 11
214.4848827114861
 21
188.1834499005447
 31
0.0
  0
LINE
  5
56E
330
17
100
AcDbEntity
  8
4
100
AcDbLine
 10
214.4848827114861
 20
249.1834459005447
 30
0.0
 11
215.4848847114868
 21
250.1834479005447
 31
0.0
  0
LINE
  5
592
330
17
100
AcDbEntity
  8
4
100
AcDbLine
 10
333.4848827114863
 20
1633.445580605442
 30
0.0
 11
215.4848827114863
 21
1633.445580605442
 31
0.0
  0
LINE
  5
593
330
17
100
AcDbEntity
  8
4
100
AcDbLine
 10
333.4848827114863
 20
1696.445580605442
 30
0.0
 11
215.4848827114863
 21
1696.445580605442
 31
0.0
  0
LINE
  5
594
330
17
100
AcDbEntity
  8
4
100
AcDbLine
 10
315.4848827114863
 20
1655.945580605442
 30
0.0
 11
214.4848827114863
 21
1655.945580605442
 31
0.0
  0
LINE
  5
595
330
17
100
AcDbEntity
  8
4
100
AcDbLine
 10
315.4848827114863
 20
1673.945580605442
 30
0.0
 11
214.4848827114863
 21
1673.945580605442
 31
0.0
  0
LINE
  5
596
330
17
100
AcDbEntity
  8
4
100
AcDbLine
 10
334.4848827114863
 20
1697.445580605442
 30
0.0
 11
334.4848827114863
 21
1632.445580605442
 31
0.0
  0
ARC
  5
597
330
17
100
AcDbEntity
  8
4
100
AcDbCircle
 10
315.4848827114863
 20
1664.945580605442
 30
0.0
 40
9.0
100
AcDbArc
 50
270.0
 51
90.0
  0
LINE
  5
598
330
17
100
AcDbEntity
  8
4
100
AcDbLine
 10
351.184882711487
 20
1627.164972463897
 30
0.0
 11
351.184882711487
 21
1702.726188746986
 31
0.0
  0
LINE
  5
599
330
17
100
AcDbEntity
  8
4
100
AcDbLine
 10
334.4848827114863
 20
1632.445580605442
 30
0.0
 11
351.184882711487
 21
1632.445580605442
 31
0.0
  0
ARC
  5
59A
330
17
100
AcDbEntity
  8
4
100
AcDbCircle
 10
333.4848827114863
 20
1632.445580605442
 30
0.0
 40
1.0
100
AcDbArc
 50
0.0
 51
90.0
  0
LINE
  5
59B
330
17
100
AcDbEntity
  8
4
100
AcDbLine
 10
334.4848827114863
 20
1697.445580605442
 30
0.0
 11
351.184882711487
 21
1697.445580605442
 31
0.0
  0
ARC
  5
59C
330
17
100
AcDbEntity
  8
4
100
AcDbCircle
 10
333.4848827114863
 20
1697.445580605442
 30
0.0
 40
1.0
100
AcDbArc
 50
270.0
 51
0.0
  0
LINE
  5
59D
330
17
100
AcDbEntity
  8
4
100
AcDbLine
 10
214.4848827114863
 20
1695.445580605442
 30
0.0
 11
214.4848827114863
 21
1634.445580605442
 31
0.0
  0
LINE
  5
59E
330
17
100
AcDbEntity
  8
4
100
AcDbLine
 10
215.4848827114863
 20
1655.945580605442
 30
0.0
 11
215.4848827114863
 21
1633.445580605442
 31
0.0
  0
LINE
  5
59F
330
17
100
AcDbEntity
  8
4
100
AcDbLine
 10
215.4848827114863
 20
1633.445580605442
 30
0.0
 11
214.4848827114863
 21
1634.445580605442
 31
0.0
  0
LINE
  5
5A0
330
17
100
AcDbEntity
  8
4
100
AcDbLine
 10
215.4848827114863
 20
1696.445580605442
 30
0.0
 11
215.4848827114863
 21
1673.945580605442
 31
0.0
  0
LINE
  5
5A1
330
17
100
AcDbEntity
  8
4
100
AcDbLine
 10
215.4848827114863
 20
1696.445580605442
 30
0.0
 11
214.4848827114863
 21
1695.445580605442
 31
0.0
  0
LINE
  5
5A6
330
17
100
AcDbEntity
  8
4
100
AcDbLine
 10
1525.211167036672
 20
568.1834479005447
 30
0.0
 11
1675.211167036672
 21
568.1834479005447
 31
0.0
  0
LINE
  5
5A7
330
17
100
AcDbEntity
  8
4
100
AcDbLine
 10
1685.211163036672
 20
560.1834499005447
 30
0.0
 11
1527.211165036671
 21
560.1834499005447
 31
0.0
  0
LINE
  5
5A8
330
17
100
AcDbEntity
  8
4
100
AcDbLine
 10
1685.211163036672
 20
467.1834499005447
 30
0.0
 11
1527.211165036671
 21
467.1834499005447
 31
0.0
  0
LINE
  5
5A9
330
17
100
AcDbEntity
  8
4
100
AcDbLine
 10
1685.211163036672
 20
561.1834459005447
 30
0.0
 11
1685.211163036672
 21
466.1834479005447
 31
0.0
  0
LINE
  5
5AA
330
17
100
AcDbEntity
  8
4
100
AcDbLine
 10
1694.211265036672
 20
453.6834499005447
 30
0.0
 11
1694.211265036672
 21
573.6834499005447
 31
0.0
  0
LINE
  5
5AB
330
17
100
AcDbEntity
  8
4
100
AcDbLine
 10
1694.211265036672
 20
466.1834479005447
 30
0.0
 11
1685.211163036672
 21
466.1834479005447
 31
0.0
  0
LINE
  5
5AC
330
17
100
AcDbEntity
  8
4
100
AcDbLine
 10
1695.211261036671
 20
453.6834499005447
 30
0.0
 11
1694.211265036672
 21
453.6834499005447
 31
0.0
  0
LINE
  5
5AD
330
17
100
AcDbEntity
  8
4
100
AcDbLine
 10
1675.211167036672
 20
568.1834479005447
 30
0.0
 11
1675.211167036672
 21
560.1834499005447
 31
0.0
  0
LINE
  5
5AE
330
17
100
AcDbEntity
  8
4
100
AcDbLine
 10
1685.211163036672
 20
561.1834459005447
 30
0.0
 11
1694.211265036672
 21
561.1834459005447
 31
0.0
  0
LINE
  5
5AF
330
17
100
AcDbEntity
  8
4
100
AcDbLine
 10
1695.211261036671
 20
573.6834499005447
 30
0.0
 11
1694.211265036672
 21
573.6834499005447
 31
0.0
  0
LINE
  5
5B0
330
17
100
AcDbEntity
  8
4
100
AcDbLine
 10
1525.211167036672
 20
568.1834479005447
 30
0.0
 11
1525.211167036672
 21
469.1834479005447
 31
0.0
  0
LINE
  5
5B1
330
17
100
AcDbEntity
  8
4
100
AcDbLine
 10
1527.211165036671
 20
560.1834499005447
 30
0.0
 11
1527.211165036671
 21
467.1834499005447
 31
0.0
  0
LINE
  5
5B2
330
17
100
AcDbEntity
  8
4
100
AcDbLine
 10
1527.211165036671
 20
467.1834499005447
 30
0.0
 11
1525.211167036672
 21
469.1834479005447
 31
0.0
  0
LINE
  5
5B3
330
17
100
AcDbEntity
  8
4
100
AcDbLine
 10
1525.211167036672
 20
558.1834459005447
 30
0.0
 11
1527.211165036671
 21
560.1834499005447
 31
0.0
  0
LINE
  5
5B7
330
17
100
AcDbEntity
  8
4
100
AcDbLine
 10
710.9848827114861
 20
1463.945580605442
 30
0.0
 11
710.9848827114861
 21
1306.945580605442
 31
0.0
  0
LINE
  5
5B8
330
17
100
AcDbEntity
  8
4
100
AcDbLine
 10
676.4848827114861
 20
1304.945580605442
 30
0.0
 11
676.4848827114861
 21
1442.945580605442
 31
0.0
  0
LINE
  5
5B9
330
17
100
AcDbEntity
  8
4
100
AcDbLine
 10
652.4848827114861
 20
1304.945580605442
 30
0.0
 11
652.4848827114861
 21
1442.945580605442
 31
0.0
  0
LINE
  5
5BA
330
17
100
AcDbEntity
  8
4
100
AcDbLine
 10
617.9848827114861
 20
1463.945580605442
 30
0.0
 11
617.9848827114861
 21
1306.945580605442
 31
0.0
  0
LINE
  5
5BB
330
17
100
AcDbEntity
  8
4
100
AcDbLine
 10
616.9848827114861
 20
1464.945580605442
 30
0.0
 11
711.9848827114861
 21
1464.945580605442
 31
0.0
  0
LINE
  5
5BC
330
17
100
AcDbEntity
  8
4
100
AcDbLine
 10
599.4848827114861
 20
1473.945580605442
 30
0.0
 11
729.4848827114861
 21
1473.945580605441
 31
0.0
  0
LINE
  5
5BD
330
17
100
AcDbEntity
  8
4
100
AcDbLine
 10
599.4848827114852
 20
1474.945580605442
 30
0.0
 11
599.4848827114861
 21
1473.945580605442
 31
0.0
  0
ARC
  5
5BE
330
17
100
AcDbEntity
  8
4
100
AcDbCircle
 10
616.9848827114861
 20
1463.945580605442
 30
0.0
 40
1.0
100
AcDbArc
 50
0.0
 51
90.0
  0
LINE
  5
5BF
330
17
100
AcDbEntity
  8
4
100
AcDbLine
 10
616.9848827114861
 20
1464.945580605442
 30
0.0
 11
616.9848827114861
 21
1464.945580605442
 31
0.0
  0
LINE
  5
5C0
330
17
100
AcDbEntity
  8
4
100
AcDbLine
 10
616.9848827114861
 20
1473.945580605442
 30
0.0
 11
616.9848827114861
 21
1464.945580605442
 31
0.0
  0
ARC
  5
5C1
330
17
100
AcDbEntity
  8
4
100
AcDbCircle
 10
664.4848827114861
 20
1442.945580605442
 30
0.0
 40
12.0
100
AcDbArc
 50
0.0
 51
180.0
  0
LINE
  5
5C2
330
17
100
AcDbEntity
  8
4
100
AcDbLine
 10
711.9848827114861
 20
1464.945580605442
 30
0.0
 11
711.9848827114861
 21
1464.945580605442
 31
0.0
  0
ARC
  5
5C3
330
17
100
AcDbEntity
  8
4
100
AcDbCircle
 10
711.9848827114861
 20
1463.945580605442
 30
0.0
 40
1.0
100
AcDbArc
 50
90.0
 51
180.0
  0
LINE
  5
5C4
330
17
100
AcDbEntity
  8
4
100
AcDbLine
 10
711.9848827114852
 20
1473.945580605441
 30
0.0
 11
711.9848827114861
 21
1464.945580605442
 31
0.0
  0
LINE
  5
5C5
330
17
100
AcDbEntity
  8
4
100
AcDbLine
 10
729.4848827114861
 20
1474.945580605441
 30
0.0
 11
729.4848827114861
 21
1473.945580605441
 31
0.0
  0
LINE
  5
5C6
330
17
100
AcDbEntity
  8
4
100
AcDbLine
 10
676.4848827114861
 20
1306.945580605442
 30
0.0
 11
710.9848827114861
 21
1306.945580605442
 31
0.0
  0
LINE
  5
5C7
330
17
100
AcDbEntity
  8
4
100
AcDbLine
 10
619.9848827114861
 20
1304.945580605442
 30
0.0
 11
708.9848827114861
 21
1304.945580605442
 31
0.0
  0
LINE
  5
5C8
330
17
100
AcDbEntity
  8
4
100
AcDbLine
 10
617.9848827114861
 20
1306.945580605442
 30
0.0
 11
652.4848827114861
 21
1306.945580605442
 31
0.0
  0
LINE
  5
5C9
330
17
100
AcDbEntity
  8
4
100
AcDbLine
 10
617.9848827114861
 20
1306.945580605442
 30
0.0
 11
619.9848827114861
 21
1304.945580605442
 31
0.0
  0
LINE
  5
5CA
330
17
100
AcDbEntity
  8
4
100
AcDbLine
 10
710.9848827114861
 20
1306.945580605442
 30
0.0
 11
708.9848827114861
 21
1304.945580605442
 31
0.0
  0
LINE
  5
5D0
330
17
100
AcDbEntity
  8
4
100
AcDbLine
 10
676.4848827114861
 20
568.1834479005447
 30
0.0
 11
652.4848827114861
 21
568.1834479005447
 31
0.0
  0
LINE
  5
5D1
330
17
100
AcDbEntity
  8
4
100
AcDbLine
 10
676.4848827114861
 20
552.1834459005445
 30
0.0
 11
652.4848827114861
 21
552.1834459005445
 31
0.0
  0
LINE
  5
5D2
330
17
100
AcDbEntity
  8
4
100
AcDbLine
 10
652.4848827114861
 20
568.1834479005447
 30
0.0
 11
652.4848827114861
 21
552.1834459005445
 31
0.0
  0
LINE
  5
5D3
330
17
100
AcDbEntity
  8
4
100
AcDbLine
 10
676.4848827114861
 20
552.1834459005445
 30
0.0
 11
676.4848827114861
 21
568.1834479005447
 31
0.0
  0
ARC
  5
5D4
330
17
100
AcDbEntity
  8
4
100
AcDbCircle
 10
664.4848827114861
 20
513.6834499005445
 30
0.0
 40
46.500054
100
AcDbArc
 50
104.9552305438094
 51
75.04478700000072
  0
CIRCLE
  5
5D5
330
17
100
AcDbEntity
  8
4
100
AcDbCircle
 10
664.4848827114861
 20
513.6834499005447
 30
0.0
 40
60.0
  0
LINE
  5
62B
330
17
100
AcDbEntity
  8
4
100
AcDbLine
 10
994.4848827114861
 20
187.1834479005447
 30
0.0
 11
1113.484880711485
 21
187.1834479005447
 31
0.0
  0
LINE
  5
62C
330
17
100
AcDbEntity
  8
4
100
AcDbLine
 10
994.4848827114861
 20
250.1834479005447
 30
0.0
 11
1113.484880711485
 21
250.1834479005447
 31
0.0
  0
LINE
  5
62D
330
17
100
AcDbEntity
  8
4
100
AcDbLine
 10
1114.484882711486
 20
256.1834479005447
 30
0.0
 11
1004.484884711486
 21
256.1834479005447
 31
0.0
  0
LINE
  5
62E
330
17
100
AcDbEntity
  8
4
100
AcDbLine
 10
977.8847827114855
 20
263.6834479005448
 30
0.0
 11
977.8847827114855
 21
229.6531030151477
 31
0.0
  0
LINE
  5
62F
330
17
100
AcDbEntity
  8
4
100
AcDbLine
 10
994.4848827114861
 20
251.1834499005447
 30
0.0
 11
994.4848827114861
 21
186.1834459005447
 31
0.0
  0
LINE
  5
630
330
17
100
AcDbEntity
  8
4
100
AcDbLine
 10
977.8847827114855
 20
207.713792785942
 30
0.0
 11
977.8847827114855
 21
173.6834479005446
 31
0.0
  0
LINE
  5
631
330
17
100
AcDbEntity
  8
4
100
AcDbLine
 10
994.4848827114861
 20
186.1834459005447
 30
0.0
 11
977.8847847114853
 21
186.1834459005447
 31
0.0
  0
LINE
  5
632
330
17
100
AcDbEntity
  8
4
100
AcDbLine
 10
977.8847827114855
 20
173.6834479005446
 30
0.0
 11
976.8847827114855
 21
173.6834479005446
 31
0.0
  0
LINE
  5
633
330
17
100
AcDbEntity
  8
4
100
AcDbLine
 10
994.4848827114861
 20
251.1834499005447
 30
0.0
 11
977.8847847114853
 21
251.1834499005447
 31
0.0
  0
LINE
  5
634
330
17
100
AcDbEntity
  8
4
100
AcDbLine
 10
977.8847827114855
 20
263.6834479005447
 30
0.0
 11
976.8847827114855
 21
263.6834479005447
 31
0.0
  0
LINE
  5
635
330
17
100
AcDbEntity
  8
4
100
AcDbLine
 10
1004.484884711486
 20
256.1834479005447
 30
0.0
 11
1004.484884711486
 21
250.1834479005447
 31
0.0
  0
LINE
  5
636
330
17
100
AcDbEntity
  8
4
100
AcDbLine
 10
1114.484882711486
 20
256.1834479005447
 30
0.0
 11
1114.484882711486
 21
188.1834499005447
 31
0.0
  0
LINE
  5
637
330
17
100
AcDbEntity
  8
4
100
AcDbLine
 10
1113.484880711485
 20
187.1834479005447
 30
0.0
 11
1113.484880711485
 21
250.1834479005447
 31
0.0
  0
LINE
  5
638
330
17
100
AcDbEntity
  8
4
100
AcDbLine
 10
1113.484880711485
 20
187.1834479005447
 30
0.0
 11
1114.484882711486
 21
188.1834499005447
 31
0.0
  0
LINE
  5
639
330
17
100
AcDbEntity
  8
4
100
AcDbLine
 10
1114.484882711486
 20
249.1834459005447
 30
0.0
 11
1113.484880711485
 21
250.1834479005447
 31
0.0
  0
LINE
  5
63E
330
17
100
AcDbEntity
  8
4
100
AcDbLine
 10
1894.211167036672
 20
256.1834479005447
 30
0.0
 11
1876.211167036672
 21
256.1834479005447
 31
0.0
  0
LINE
  5
63F
330
17
100
AcDbEntity
  8
4
100
AcDbLine
 10
1894.211167036672
 20
244.1834479005447
 30
0.0
 11
1876.211167036672
 21
244.1834479005447
 31
0.0
  0
LINE
  5
640
330
17
100
AcDbEntity
  8
4
100
AcDbLine
 10
1876.211167036672
 20
256.1834479005447
 30
0.0
 11
1876.211167036672
 21
244.1834479005447
 31
0.0
  0
LINE
  5
641
330
17
100
AcDbEntity
  8
4
100
AcDbLine
 10
1894.211167036672
 20
244.1834479005447
 30
0.0
 11
1894.211167036672
 21
256.1834479005447
 31
0.0
  0
ARC
  5
642
330
17
100
AcDbEntity
  8
4
100
AcDbCircle
 10
1885.211167036672
 20
218.6834479005447
 30
0.0
 40
31.500048
100
AcDbArc
 50
106.6015235688887
 51
73.39849900000006
  0
CIRCLE
  5
644
330
17
100
AcDbEntity
  8
4
100
AcDbCircle
 10
1885.211167036672
 20
218.6834479005447
 30
0.0
 40
45.0
  0
LINE
  5
645
330
17
100
AcDbEntity
  8
4
100
AcDbLine
 10
995.4848827114859
 20
1633.445580605442
 30
0.0
 11
1113.484882711486
 21
1633.445580605442
 31
0.0
  0
LINE
  5
646
330
17
100
AcDbEntity
  8
4
100
AcDbLine
 10
995.4848827114859
 20
1696.445580605442
 30
0.0
 11
1113.484882711486
 21
1696.445580605442
 31
0.0
  0
LINE
  5
647
330
17
100
AcDbEntity
  8
4
100
AcDbLine
 10
1013.484882711486
 20
1655.945580605442
 30
0.0
 11
1114.484882711486
 21
1655.945580605442
 31
0.0
  0
LINE
  5
648
330
17
100
AcDbEntity
  8
4
100
AcDbLine
 10
1013.484882711486
 20
1673.945580605442
 30
0.0
 11
1114.484882711486
 21
1673.945580605442
 31
0.0
  0
LINE
  5
649
330
17
100
AcDbEntity
  8
4
100
AcDbLine
 10
994.4848827114859
 20
1697.445580605442
 30
0.0
 11
994.4848827114859
 21
1632.445580605442
 31
0.0
  0
ARC
  5
64A
330
17
100
AcDbEntity
  8
4
100
AcDbCircle
 10
1013.484882711486
 20
1664.945580605442
 30
0.0
 40
9.0
100
AcDbArc
 50
90.0
 51
270.0
  0
LINE
  5
64B
330
17
100
AcDbEntity
  8
4
100
AcDbLine
 10
977.7848827114851
 20
1627.164972463897
 30
0.0
 11
977.7848827114851
 21
1702.726188746986
 31
0.0
  0
LINE
  5
64C
330
17
100
AcDbEntity
  8
4
100
AcDbLine
 10
994.4848827114859
 20
1632.445580605442
 30
0.0
 11
977.7848827114851
 21
1632.445580605442
 31
0.0
  0
ARC
  5
64D
330
17
100
AcDbEntity
  8
4
100
AcDbCircle
 10
995.4848827114859
 20
1632.445580605442
 30
0.0
 40
1.0
100
AcDbArc
 50
90.0
 51
180.0
  0
LINE
  5
64E
330
17
100
AcDbEntity
  8
4
100
AcDbLine
 10
994.4848827114859
 20
1697.445580605442
 30
0.0
 11
977.7848827114851
 21
1697.445580605442
 31
0.0
  0
ARC
  5
64F
330
17
100
AcDbEntity
  8
4
100
AcDbCircle
 10
995.4848827114859
 20
1697.445580605442
 30
0.0
 40
1.0
100
AcDbArc
 50
180.0
 51
270.0
  0
LINE
  5
650
330
17
100
AcDbEntity
  8
4
100
AcDbLine
 10
1114.484882711486
 20
1695.445580605442
 30
0.0
 11
1114.484882711486
 21
1634.445580605442
 31
0.0
  0
LINE
  5
651
330
17
100
AcDbEntity
  8
4
100
AcDbLine
 10
1113.484882711486
 20
1655.945580605442
 30
0.0
 11
1113.484882711486
 21
1633.445580605442
 31
0.0
  0
LINE
  5
652
330
17
100
AcDbEntity
  8
4
100
AcDbLine
 10
1113.484882711486
 20
1633.445580605442
 30
0.0
 11
1114.484882711486
 21
1634.445580605442
 31
0.0
  0
LINE
  5
653
330
17
100
AcDbEntity
  8
4
100
AcDbLine
 10
1113.484882711486
 20
1696.445580605442
 30
0.0
 11
1113.484882711486
 21
1673.945580605442
 31
0.0
  0
LINE
  5
654
330
17
100
AcDbEntity
  8
4
100
AcDbLine
 10
1113.484882711486
 20
1696.445580605442
 30
0.0
 11
1114.484882711486
 21
1695.445580605442
 31
0.0
  0
ENDSEC
  0
SECTION
  2
OBJECTS
  0
DICTIONARY
  5
5
330
0
100
AcDbDictionary
281
     1
  3
ACAD_COLOR
350
28
  3
ACAD_GROUP
350
26
  3
ACAD_LAYOUT
350
1E
  3
ACAD_MATERIAL
350
7
  3
ACAD_MLEADERSTYLE
350
541
  3
ACAD_MLINESTYLE
350
15
  3
ACAD_PLOTSETTINGS
350
27
  3
ACAD_PLOTSTYLENAME
350
4
  3
ACAD_SCALELIST
350
2C
  3
ACAD_TABLESTYLE
350
540
  3
ACAD_VISUALSTYLE
350
29
  3
ACDBHEADERROUNDTRIPXREC
350
66F
  3
AcDbVariableDictionary
350
53E
  3
DWGPROPS
350
672
  0
DICTIONARY
  5
673
330
25
100
AcDbDictionary
280
     1
281
     1
  3
ACAD_XREC_ROUNDTRIP
360
674
  0
DICTIONARY
  5
18
330
17
100
AcDbDictionary
280
     1
281
     1
  3
ACAD_SORTENTS
360
19
  0
DICTIONARY
  5
28
102
{ACAD_REACTORS
330
5
102
}
330
5
100
AcDbDictionary
281
     1
  0
DICTIONARY
  5
26
102
{ACAD_REACTORS
330
5
102
}
330
5
100
AcDbDictionary
281
     1
  0
DICTIONARY
  5
1E
102
{ACAD_REACTORS
330
5
102
}
330
5
100
AcDbDictionary
281
     1
  3
Model
350
1D
  3
ﾚｲｱｳﾄ1
350
22
  0
DICTIONARY
  5
7
102
{ACAD_REACTORS
330
5
102
}
330
5
100
AcDbDictionary
281
     1
  3
ByBlock
350
4F
  3
ByLayer
350
10
  3
Global
350
6
  0
DICTIONARY
  5
541
102
{ACAD_REACTORS
330
5
102
}
330
5
100
AcDbDictionary
281
     1
  3
Standard
350
5E8
  0
DICTIONARY
  5
15
102
{ACAD_REACTORS
330
5
102
}
330
5
100
AcDbDictionary
281
     1
  3
STANDARD
350
14
  0
DICTIONARY
  5
27
102
{ACAD_REACTORS
330
5
102
}
330
5
100
AcDbDictionary
281
     1
  0
ACDBDICTIONARYWDFLT
  5
4
102
{ACAD_REACTORS
330
5
102
}
330
5
100
AcDbDictionary
281
     1
  3
Normal
350
3
100
AcDbDictionaryWithDefault
340
3
  0
DICTIONARY
  5
2C
102
{ACAD_REACTORS
330
5
102
}
330
5
100
AcDbDictionary
281
     1
  3
*A1
350
4E
  0
DICTIONARY
  5
540
102
{ACAD_REACTORS
330
5
102
}
330
5
100
AcDbDictionary
281
     1
  3
Standard
350
66B
  0
DICTIONARY
  5
29
102
{ACAD_REACTORS
330
5
102
}
330
5
100
AcDbDictionary
281
     1
  3
2dWireframe
350
549
  3
Basic
350
54C
  3
Brighten
350
550
  3
ColorChange
350
554
  3
Conceptual
350
54E
  3
Dim
350
54F
  3
EdgeColorOff
350
557
  3
Facepattern
350
553
  3
Flat
350
545
  3
FlatWithEdges
350
546
  3
Gouraud
350
547
  3
GouraudWithEdges
350
548
  3
Hidden
350
54B
  3
JitterOff
350
555
  3
Linepattern
350
552
  3
OverhangOff
350
556
  3
Realistic
350
54D
  3
Shaded
350
55C
  3
Shaded with edges
350
55B
  3
Shades of Gray
350
558
  3
Sketchy
350
559
  3
Thicken
350
551
  3
Wireframe
350
54A
  3
X-Ray
350
55A
  0
DICTIONARY
  5
66F
102
{ACAD_REACTORS
330
5
102
}
330
5
100
AcDbDictionary
281
     1
  3
COLORDICT
350
670
  3
MATERIALDICT
350
671
  0
DICTIONARY
  5
53E
102
{ACAD_REACTORS
330
5
102
}
330
5
100
AcDbDictionary
281
     1
  3
CANNOSCALE
350
53F
  3
CMLEADERSTYLE
350
5EA
  3
CTABLESTYLE
350
66C
  3
DIMASSOC
350
66D
  3
HIDETEXT
350
66E
  3
MSLTSCALE
350
675
  3
XCLIPFRAME
350
542
  0
XRECORD
  5
672
102
{ACAD_REACTORS
330
5
102
}
330
5
100
AcDbXrecord
280
     1
  1
DWGPROPS COOKIE
  2

  3

  4

  6

  7

  8
sg-d04
  9

300
=
301
=
302
=
303
=
304
=
305
=
306
=
307
=
308
=
309
=
 40
0.0
 41
2457464.015263252
 42
2457871.448658333
  1

 90
        0
  0
XRECORD
  5
674
102
{ACAD_REACTORS
330
673
102
}
330
673
100
AcDbXrecord
280
     1
102
VTR_0.000_0.000_1.000_1.000_VISUALSTYLE
340
549
102
VTR_0.000_0.000_1.000_1.000_GRIDDISPLAY
 70
     3
102
VTR_0.000_0.000_1.000_1.000_GRIDMAJOR
 70
     5
102
VTR_0.000_0.000_1.000_1.000_DEFAULTLIGHTING
280
     1
102
VTR_0.000_0.000_1.000_1.000_DEFAULTLIGHTINGTYPE
 70
     1
102
VTR_0.000_0.000_1.000_1.000_BRIGHTNESS
141
0.0
102
VTR_0.000_0.000_1.000_1.000_CONTRAST
142
0.0
  0
SORTENTSTABLE
  5
19
102
{ACAD_REACTORS
330
18
102
}
330
18
100
AcDbSortentsTable
330
17
331
0
  5
364
331
180
  5
3E2
331
188
  5
3DA
331
189
  5
3D9
331
18A
  5
3D8
331
18B
  5
3D7
331
18C
  5
3D6
331
18D
  5
3D5
331
18E
  5
3D4
331
18F
  5
3D3
331
190
  5
3D2
331
191
  5
3D1
331
192
  5
3D0
331
193
  5
3CF
331
194
  5
3CE
331
195
  5
3CD
331
197
  5
3CB
331
198
  5
3CA
331
199
  5
3C9
331
19A
  5
3C8
331
19B
  5
3C7
331
19C
  5
3C6
331
19D
  5
3C5
331
19E
  5
3C4
331
19F
  5
3C3
331
1A0
  5
3C2
331
1A1
  5
3C1
331
1A2
  5
3C0
331
1A3
  5
3BF
331
1A4
  5
3BE
331
1A5
  5
3BD
331
1A6
  5
3BC
331
1A7
  5
3BB
331
1A8
  5
3BA
331
1A9
  5
3B9
331
1B0
  5
3B2
331
1B1
  5
3B1
331
1B2
  5
3B0
331
1B3
  5
3AF
331
1B4
  5
3AE
331
1B5
  5
3AD
331
1BC
  5
3A6
331
1C6
  5
39C
331
1C9
  5
399
331
1CB
  5
397
331
1CC
  5
396
331
1D1
  5
391
331
1D2
  5
390
331
1D3
  5
38F
331
1D4
  5
38E
331
1D5
  5
38D
331
1D6
  5
38C
331
1D7
  5
38B
331
1D8
  5
38A
331
1D9
  5
389
331
1DA
  5
388
331
1DB
  5
387
331
1DC
  5
386
331
1DD
  5
385
331
1DE
  5
384
331
1DF
  5
383
331
1E0
  5
382
331
1E1
  5
381
331
1E2
  5
380
331
1E3
  5
37F
331
1E4
  5
37E
331
1E5
  5
37D
331
1E6
  5
37C
331
1E7
  5
37B
331
1E8
  5
37A
331
1E9
  5
379
331
1EA
  5
378
331
1EB
  5
377
331
1EC
  5
376
331
1ED
  5
375
331
1EE
  5
374
331
1EF
  5
373
331
1F0
  5
372
331
1F1
  5
371
331
1F2
  5
370
331
1F3
  5
36F
331
1F4
  5
36E
331
1F5
  5
36D
331
1F6
  5
36C
331
1F7
  5
36B
331
1F8
  5
36A
331
1F9
  5
369
331
1FA
  5
368
331
1FB
  5
367
331
1FC
  5
366
331
1FD
  5
365
331
1FF
  5
363
331
200
  5
362
331
201
  5
361
331
202
  5
360
331
208
  5
35A
331
209
  5
359
331
20A
  5
358
331
20B
  5
357
331
20C
  5
356
331
20D
  5
355
331
20F
  5
353
331
212
  5
350
331
213
  5
34F
331
214
  5
34E
331
215
  5
34D
331
219
  5
349
331
21A
  5
348
331
21B
  5
347
331
21C
  5
346
331
21D
  5
345
331
21E
  5
344
331
21F
  5
343
331
220
  5
342
331
221
  5
341
331
222
  5
340
331
223
  5
33F
331
224
  5
33E
331
225
  5
33D
331
226
  5
33C
331
227
  5
33B
331
228
  5
33A
331
229
  5
339
331
22A
  5
338
331
22B
  5
337
331
22C
  5
336
331
22D
  5
335
331
22E
  5
334
331
22F
  5
333
331
230
  5
332
331
231
  5
331
331
240
  5
322
331
241
  5
321
331
244
  5
31E
331
245
  5
31D
331
24E
  5
314
331
24F
  5
313
331
253
  5
30F
331
254
  5
30E
331
255
  5
30D
331
256
  5
30C
331
257
  5
30B
331
25A
  5
308
331
25B
  5
307
331
25C
  5
306
331
25D
  5
305
331
25F
  5
303
331
262
  5
300
331
263
  5
2FF
331
264
  5
2FE
331
265
  5
2FD
331
266
  5
2FC
331
267
  5
2FB
331
268
  5
2FA
331
269
  5
2F9
331
26A
  5
2F8
331
26D
  5
2F5
331
26E
  5
2F4
331
26F
  5
2F3
331
270
  5
2F2
331
271
  5
2F1
331
272
  5
2F0
331
273
  5
2EF
331
274
  5
2EE
331
275
  5
2ED
331
276
  5
2EC
331
277
  5
2EB
331
278
  5
2EA
331
279
  5
2E9
331
27A
  5
2E8
331
27B
  5
2E7
331
27C
  5
2E6
331
27D
  5
2E5
331
283
  5
2DF
331
284
  5
2DE
331
286
  5
2DC
331
287
  5
2DB
331
288
  5
2DA
331
28A
  5
2D8
331
28B
  5
2D7
331
28C
  5
2D6
331
28E
  5
2D4
331
28F
  5
2D3
331
290
  5
2D2
331
295
  5
2CD
331
296
  5
2CC
331
297
  5
2CB
331
298
  5
2CA
331
299
  5
2C9
331
29A
  5
2C8
331
29B
  5
2C7
331
29C
  5
2C6
331
29D
  5
2C5
331
29E
  5
2C4
331
29F
  5
2C3
331
2A0
  5
2C2
331
2A1
  5
2C1
331
2A2
  5
2C0
331
2A3
  5
2BF
331
2A4
  5
2BE
331
2A5
  5
2BD
331
2AA
  5
2B8
331
2AB
  5
2B7
331
2AC
  5
2B6
331
2AD
  5
2B5
331
2AE
  5
2B4
331
2AF
  5
2B3
331
2B5
  5
2AD
331
2B6
  5
2AC
331
2B7
  5
2AB
331
2B8
  5
2AA
331
2B9
  5
2A9
331
2BA
  5
2A8
331
2BB
  5
2A7
331
2BC
  5
2A6
331
2BD
  5
2A5
331
2BE
  5
2A4
331
2BF
  5
2A3
331
2C0
  5
2A2
331
2C1
  5
2A1
331
2C2
  5
2A0
331
2C3
  5
29F
331
2C4
  5
29E
331
2C5
  5
29D
331
2C9
  5
299
331
2CA
  5
298
331
2CB
  5
297
331
2CC
  5
296
331
2CD
  5
295
331
2CE
  5
294
331
2CF
  5
293
331
2D0
  5
292
331
2D1
  5
291
331
2D2
  5
290
331
2D3
  5
28F
331
2D4
  5
28E
331
2D5
  5
28D
331
2D6
  5
28C
331
2D7
  5
28B
331
2D8
  5
28A
331
2D9
  5
289
331
2DA
  5
288
331
2DB
  5
287
331
2DC
  5
286
331
2DD
  5
285
331
2DE
  5
284
331
2DF
  5
283
331
2E0
  5
282
331
2E1
  5
281
331
2E2
  5
280
331
2E3
  5
27F
331
2E4
  5
27E
331
2E5
  5
27D
331
2E6
  5
27C
331
2E7
  5
27B
331
2E8
  5
27A
331
2E9
  5
279
331
2EA
  5
278
331
2EF
  5
273
331
2F0
  5
272
331
2F1
  5
271
331
2F2
  5
270
331
2F3
  5
26F
331
2F4
  5
26E
331
2F5
  5
26D
331
2F6
  5
26C
331
2F7
  5
26B
331
2F8
  5
26A
331
2F9
  5
269
331
2FA
  5
268
331
2FB
  5
267
331
2FC
  5
266
331
2FD
  5
265
331
2FE
  5
264
331
2FF
  5
263
331
300
  5
262
331
301
  5
261
331
302
  5
260
331
303
  5
25F
331
304
  5
25E
331
305
  5
25D
331
306
  5
25C
331
307
  5
25B
331
308
  5
25A
331
309
  5
259
331
30A
  5
258
331
30B
  5
257
331
30C
  5
256
331
30D
  5
255
331
30E
  5
254
331
30F
  5
253
331
310
  5
252
331
311
  5
251
331
312
  5
250
331
313
  5
24F
331
314
  5
24E
331
315
  5
24D
331
316
  5
24C
331
317
  5
24B
331
318
  5
24A
331
319
  5
249
331
31A
  5
248
331
31B
  5
247
331
31C
  5
246
331
31D
  5
245
331
31E
  5
244
331
31F
  5
243
331
320
  5
242
331
321
  5
241
331
322
  5
240
331
323
  5
23F
331
324
  5
23E
331
325
  5
23D
331
326
  5
23C
331
327
  5
23B
331
328
  5
23A
331
329
  5
239
331
32A
  5
238
331
32B
  5
237
331
32C
  5
236
331
32D
  5
235
331
32E
  5
234
331
32F
  5
233
331
330
  5
232
331
331
  5
231
331
332
  5
230
331
333
  5
22F
331
334
  5
22E
331
335
  5
22D
331
336
  5
22C
331
337
  5
22B
331
339
  5
229
331
33A
  5
228
331
33B
  5
227
331
340
  5
222
331
341
  5
221
331
342
  5
220
331
343
  5
21F
331
347
  5
21B
331
348
  5
21A
331
349
  5
219
331
34A
  5
218
331
34C
  5
216
331
34E
  5
214
331
34F
  5
213
331
350
  5
212
331
351
  5
211
331
352
  5
210
331
353
  5
20F
331
354
  5
20E
331
355
  5
20D
331
356
  5
20C
331
357
  5
20B
331
358
  5
20A
331
359
  5
209
331
35A
  5
208
331
35B
  5
207
331
35C
  5
206
331
35D
  5
205
331
35E
  5
204
331
35F
  5
203
331
360
  5
202
331
361
  5
201
331
362
  5
200
331
363
  5
1FF
331
364
  5
1FE
331
365
  5
1FD
331
366
  5
1FC
331
367
  5
1FB
331
36D
  5
1F5
331
36E
  5
1F4
331
36F
  5
1F3
331
370
  5
1F2
331
371
  5
1F1
331
372
  5
1F0
331
373
  5
1EF
331
374
  5
1EE
331
375
  5
1ED
331
376
  5
1EC
331
378
  5
1EA
331
379
  5
1E9
331
37A
  5
1E8
331
37B
  5
1E7
331
37C
  5
1E6
331
37D
  5
1E5
331
37E
  5
1E4
331
37F
  5
1E3
331
380
  5
1E2
331
381
  5
1E1
331
382
  5
1E0
331
383
  5
1DF
331
384
  5
1DE
331
385
  5
1DD
331
386
  5
1DC
331
387
  5
1DB
331
388
  5
1DA
331
389
  5
1D9
331
38A
  5
1D8
331
38B
  5
1D7
331
38C
  5
1D6
331
38D
  5
1D5
331
38E
  5
1D4
331
38F
  5
1D3
331
390
  5
1D2
331
391
  5
1D1
331
392
  5
1D0
331
393
  5
1CF
331
394
  5
1CE
331
395
  5
1CD
331
396
  5
1CC
331
397
  5
1CB
331
398
  5
1CA
331
399
  5
1C9
331
39A
  5
1C8
331
39B
  5
1C7
331
39C
  5
1C6
331
39D
  5
1C5
331
39E
  5
1C4
331
39F
  5
1C3
331
3A0
  5
1C2
331
3A1
  5
1C1
331
3A2
  5
1C0
331
3A3
  5
1BF
331
3A4
  5
1BE
331
3A5
  5
1BD
331
3A6
  5
1BC
331
3A7
  5
1BB
331
3A8
  5
1BA
331
3A9
  5
1B9
331
3AA
  5
1B8
331
3AB
  5
1B7
331
3AC
  5
1B6
331
3AD
  5
1B5
331
3AE
  5
1B4
331
3AF
  5
1B3
331
3B0
  5
1B2
331
3B1
  5
1B1
331
3B2
  5
1B0
331
3B3
  5
1AF
331
3B4
  5
1AE
331
3B5
  5
1AD
331
3B6
  5
1AC
331
3B7
  5
1AB
331
3B8
  5
1AA
331
3BA
  5
1A8
331
3BB
  5
1A7
331
3BC
  5
1A6
331
3BD
  5
1A5
331
3BE
  5
1A4
331
3BF
  5
1A3
331
3C0
  5
1A2
331
3C1
  5
1A1
331
3C2
  5
1A0
331
3C3
  5
19F
331
3C4
  5
19E
331
3C5
  5
19D
331
3C6
  5
19C
331
3C7
  5
19B
331
3C8
  5
19A
331
3C9
  5
199
331
3CA
  5
198
331
3CB
  5
197
331
3CC
  5
196
331
3CD
  5
195
331
3CE
  5
194
331
3CF
  5
193
331
3D0
  5
192
331
3D1
  5
191
331
3D2
  5
190
331
3D3
  5
18F
331
3D4
  5
18E
331
3D5
  5
18D
331
3D6
  5
18C
331
3D7
  5
18B
331
3D8
  5
18A
331
3D9
  5
189
331
3DA
  5
188
331
3DB
  5
187
331
3DC
  5
186
331
3DD
  5
185
331
3DE
  5
184
331
3DF
  5
183
331
3E0
  5
182
331
3E1
  5
181
331
3E2
  5
180
331
3E3
  5
17F
331
3E4
  5
17E
331
3E5
  5
17D
331
3E6
  5
17C
331
3E7
  5
17B
331
3E8
  5
17A
331
3E9
  5
179
331
3EA
  5
178
331
3EB
  5
177
331
3EC
  5
176
331
3ED
  5
175
331
3EE
  5
174
331
3EF
  5
173
331
3F0
  5
172
331
3F1
  5
171
331
3F2
  5
170
331
3F3
  5
16F
331
3F4
  5
16E
331
3F5
  5
16D
331
3F6
  5
16C
331
3F7
  5
16B
331
3F8
  5
16A
331
3F9
  5
169
331
3FA
  5
168
331
3FB
  5
167
331
3FC
  5
166
331
3FD
  5
165
331
3FE
  5
164
331
3FF
  5
163
331
400
  5
162
331
401
  5
161
331
402
  5
160
331
403
  5
15F
331
404
  5
15E
331
407
  5
15B
331
409
  5
159
331
40A
  5
158
331
40D
  5
155
331
40E
  5
154
331
40F
  5
153
331
410
  5
152
331
411
  5
151
331
412
  5
150
331
413
  5
14F
331
414
  5
14E
331
415
  5
14D
331
416
  5
14C
331
417
  5
14B
331
418
  5
14A
331
419
  5
149
331
41A
  5
148
331
41B
  5
147
331
41C
  5
146
331
425
  5
13D
331
426
  5
13C
331
427
  5
13B
331
428
  5
13A
331
42A
  5
138
331
42D
  5
135
331
42E
  5
134
331
42F
  5
133
331
430
  5
132
331
431
  5
131
331
432
  5
130
331
433
  5
12F
331
434
  5
12E
331
435
  5
12D
331
436
  5
12C
331
437
  5
12B
331
438
  5
12A
331
439
  5
129
331
43A
  5
128
331
43B
  5
127
331
43C
  5
126
331
43D
  5
125
331
440
  5
122
331
441
  5
121
331
451
  5
111
331
452
  5
110
331
453
  5
10F
331
454
  5
10E
331
456
  5
10C
331
457
  5
10B
331
458
  5
10A
331
459
  5
109
331
45A
  5
108
331
45B
  5
107
331
45C
  5
106
331
45D
  5
105
331
45E
  5
104
331
45F
  5
103
331
460
  5
102
331
461
  5
101
331
462
  5
100
331
463
  5
FF
331
464
  5
FE
331
465
  5
FD
331
466
  5
FC
331
467
  5
FB
331
468
  5
FA
331
469
  5
F9
331
46A
  5
F8
331
46B
  5
F7
331
46C
  5
F6
331
46D
  5
F5
331
46E
  5
F4
331
46F
  5
F3
331
470
  5
F2
331
471
  5
F1
331
472
  5
F0
331
473
  5
EF
331
474
  5
EE
331
475
  5
ED
331
476
  5
EC
331
477
  5
EB
331
478
  5
EA
331
479
  5
E9
331
47A
  5
E8
331
47B
  5
E7
331
47C
  5
E6
331
47D
  5
E5
331
47E
  5
E4
331
47F
  5
E3
331
480
  5
E2
331
482
  5
E0
331
483
  5
DF
331
486
  5
DC
331
487
  5
DB
331
488
  5
DA
331
489
  5
D9
331
490
  5
D2
331
491
  5
D1
331
492
  5
D0
331
52C
  5
52D
331
52D
  5
52E
331
52E
  5
52F
331
52F
  5
530
331
530
  5
531
331
531
  5
532
331
533
  5
534
331
534
  5
535
331
535
  5
536
331
536
  5
537
331
537
  5
538
331
538
  5
539
331
539
  5
53A
331
53A
  5
53B
331
53B
  5
53C
331
53C
  5
55E
331
560
  5
561
331
561
  5
562
331
562
  5
563
331
563
  5
564
331
564
  5
565
331
565
  5
568
331
566
  5
569
331
567
  5
56A
331
568
  5
56B
331
569
  5
56C
331
56A
  5
56D
331
56B
  5
56E
331
56C
  5
570
331
56D
  5
571
331
56E
  5
572
331
592
  5
595
331
593
  5
596
331
594
  5
597
331
595
  5
598
331
596
  5
599
331
597
  5
59A
331
598
  5
59B
331
599
  5
59C
331
59A
  5
59D
331
59B
  5
59E
331
59C
  5
59F
331
59D
  5
5A0
331
59E
  5
5A1
331
59F
  5
5A3
331
5A0
  5
5A4
331
5A1
  5
5A5
331
5A6
  5
5A9
331
5A7
  5
5AA
331
5A8
  5
5AB
331
5A9
  5
5AC
331
5AA
  5
5AD
331
5AB
  5
5AE
331
5AC
  5
5AF
331
5AD
  5
5B0
331
5AE
  5
5B1
331
5AF
  5
5B2
331
5B0
  5
5B3
331
5B1
  5
5B4
331
5B2
  5
5B6
331
5B3
  5
5B7
331
5B7
  5
5BA
331
5B8
  5
5BB
331
5B9
  5
5BC
331
5BA
  5
5BD
331
5BB
  5
5BE
331
5BC
  5
5BF
331
5BD
  5
5C0
331
5BE
  5
5C1
331
5BF
  5
5C2
331
5C0
  5
5C3
331
5C1
  5
5C4
331
5C2
  5
5C5
331
5C3
  5
5C6
331
5C4
  5
5C7
331
5C5
  5
5C8
331
5C6
  5
5C9
331
5C7
  5
5CA
331
5C8
  5
5CD
331
5C9
  5
5CE
331
5CA
  5
5D0
331
5D0
  5
5D3
331
5D1
  5
5D4
331
5D2
  5
5D5
331
5D3
  5
5D6
331
5D4
  5
5D7
331
5D5
  5
5D8
  0
LAYOUT
  5
1D
102
{ACAD_REACTORS
330
1E
102
}
330
1E
100
AcDbPlotSettings
  1

  2
Bullzip PDF Printer.pc3
  4
A3
  6

 40
0.2
 41
0.0
 42
0.0
 43
0.0
 44
420.2
 45
297.1
 46
25.0
 47
12.0
 48
139.9999997783334
 49
0.0
140
2813.999993653335
141
1907.499995549166
142
1.0
143
7.0
 70
 11936
 72
     1
 73
     0
 74
     4
  7
monochrome.ctb
 75
     0
147
0.1428571428571428
148
-139.9999997783334
149
0.0
100
AcDbLayout
  1
Model
 70
     0
 71
     0
 10
0.0
 20
0.0
 11
12.0
 21
9.0
 12
0.0
 22
0.0
 32
0.0
 14
202.0294500481177
 24
26.66515390054519
 34
0.0
 15
2084.756157609514
 25
1865.378072954614
 35
0.0
146
0.0
 13
0.0
 23
0.0
 33
0.0
 16
1.0
 26
0.0
 36
0.0
 17
0.0
 27
1.0
 37
0.0
 76
     0
330
17
331
2A
1001
ACAD_PSEXT
1000
Bullzip PDF Printer.pc3
1000
Bullzip PDF Printer
1000
BULLZIP
1000
Bullzip PDF Printer 10.1.0.1871
1070
     0
  0
LAYOUT
  5
22
102
{ACAD_REACTORS
330
1E
102
}
330
1E
100
AcDbPlotSettings
  1

  2
SR-LP8300F
  4

  6

 40
0.0
 41
0.0
 42
0.0
 43
0.0
 44
0.0
 45
0.0
 46
0.0
 47
0.0
 48
0.0
 49
0.0
140
0.0
141
0.0
142
1.0
143
1.0
 70
   688
 72
     0
 73
     0
 74
     5
  7
monochrome.ctb
 75
    16
147
1.0
148
0.0
149
0.0
100
AcDbLayout
  1
ﾚｲｱｳﾄ1
 70
     0
 71
     1
 10
0.0
 20
0.0
 11
12.0
 21
9.0
 12
0.0
 22
0.0
 32
0.0
 14
1.000000000000000E+20
 24
1.000000000000000E+20
 34
1.000000000000000E+20
 15
-1.000000000000000E+20
 25
-1.000000000000000E+20
 35
-1.000000000000000E+20
146
0.0
 13
0.0
 23
0.0
 33
0.0
 16
1.0
 26
0.0
 36
0.0
 17
0.0
 27
1.0
 37
0.0
 76
     0
330
1F
  0
MATERIAL
  5
4F
102
{ACAD_REACTORS
330
7
102
}
102
{ACAD_XDICTIONARY
360
67A
102
}
330
7
100
AcDbMaterial
  1
ByBlock
  0
MATERIAL
  5
10
102
{ACAD_REACTORS
330
7
102
}
102
{ACAD_XDICTIONARY
360
676
102
}
330
7
100
AcDbMaterial
  1
ByLayer
  0
MATERIAL
  5
6
102
{ACAD_REACTORS
330
7
102
}
102
{ACAD_XDICTIONARY
360
678
102
}
330
7
100
AcDbMaterial
  1
Global
1001
ACAD
1070
    -1
1070
     3
1070
     0
1000

1071
        0
  0
MLEADERSTYLE
  5
5E8
102
{ACAD_REACTORS
330
541
102
}
102
{ACAD_XDICTIONARY
360
6AC
102
}
330
541
100
AcDbMLeaderStyle
170
     2
171
     1
172
     0
 90
        2
 40
0.0
 41
0.0
173
     1
 91
-1056964608
340
D
 92
       -2
290
     1
 42
0.09
291
     1
 43
0.36
  3
Standard
341
0
 44
0.18
300

342
E
174
     1
178
     6
175
     1
176
     0
 93
-1056964608
 45
0.18
292
     0
297
     0
 46
0.18
343
0
 94
-1056964608
 47
1.0
 49
1.0
140
1.0
293
     1
141
0.0
294
     1
177
     0
142
1.0
295
     0
296
     0
143
0.125
1001
ACAD_MLEADERVER
1070
     2
  0
MLINESTYLE
  5
14
102
{ACAD_REACTORS
330
15
102
}
330
15
100
AcDbMlineStyle
  2
STANDARD
 70
     0
  3

 62
     0
 51
90.0
 52
90.0
 71
     2
 49
0.5
 62
   256
  6
BYLAYER
 49
-0.5
 62
   256
  6
BYLAYER
  0
ACDBPLACEHOLDER
  5
3
102
{ACAD_REACTORS
330
4
102
}
330
4
  0
SCALE
  5
4E
102
{ACAD_REACTORS
330
2C
102
}
330
2C
100
AcDbScale
 70
     0
300
1:1
140
1.0
141
1.0
290
     1
  0
TABLESTYLE
  5
66B
102
{ACAD_REACTORS
330
540
102
}
330
540
100
AcDbTableStyle
  3
Standard
 70
     0
 71
     0
 40
0.06
 41
0.06
280
     0
281
     0
  7
STANDARD
140
0.18
170
     2
 62
     0
 63
   257
283
     0
274
    -2
284
     1
 64
     0
275
    -2
285
     1
 65
     0
276
    -2
286
     1
 66
     0
277
    -2
287
     1
 67
     0
278
    -2
288
     1
 68
     0
279
    -2
289
     1
 69
     0
  7
STANDARD
140
0.25
170
     5
 62
     0
 63
   257
283
     0
274
    -2
284
     1
 64
     0
275
    -2
285
     1
 65
     0
276
    -2
286
     1
 66
     0
277
    -2
287
     1
 67
     0
278
    -2
288
     1
 68
     0
279
    -2
289
     1
 69
     0
  7
STANDARD
140
0.18
170
     5
 62
     0
 63
   257
283
     0
274
    -2
284
     1
 64
     0
275
    -2
285
     1
 65
     0
276
    -2
286
     1
 66
     0
277
    -2
287
     1
 67
     0
278
    -2
288
     1
 68
     0
279
    -2
289
     1
 69
     0
  0
VISUALSTYLE
  5
549
102
{ACAD_REACTORS
330
29
102
}
102
{ACAD_XDICTIONARY
360
684
102
}
330
29
100
AcDbVisualStyle
  2
2dWireframe
 70
     4
 71
     0
 72
     2
 73
     0
 90
        0
 40
0.6
 41
30.0
 62
     5
 63
     7
 74
     1
 91
        4
 64
     7
 65
   257
 75
     1
175
     1
 42
1.0
 92
        0
 66
   257
 43
1.0
 76
     1
 77
     6
 78
     2
 67
     7
 79
     5
170
     0
171
     0
290
     0
174
     0
 93
        1
 44
0.0
173
     0
291
     0
 45
0.0
1001
ACAD
1000
AcDbSavedByObjectVersion
1070
     0
  0
VISUALSTYLE
  5
54C
102
{ACAD_REACTORS
330
29
102
}
102
{ACAD_XDICTIONARY
360
68A
102
}
330
29
100
AcDbVisualStyle
  2
Basic
 70
     7
 71
     1
 72
     0
 73
     1
 90
        0
 40
0.6
 41
30.0
 62
     5
 63
     7
 74
     0
 91
        4
 64
     7
 65
   257
 75
     1
175
     1
 42
1.0
 92
        8
 66
     7
 43
1.0
 76
     1
 77
     6
 78
     2
 67
     7
 79
     5
170
     0
171
     0
290
     0
174
     0
 93
        1
 44
0.0
173
     0
291
     1
 45
0.0
1001
ACAD
1000
AcDbSavedByObjectVersion
1070
     0
  0
VISUALSTYLE
  5
550
102
{ACAD_REACTORS
330
29
102
}
102
{ACAD_XDICTIONARY
360
692
102
}
330
29
100
AcDbVisualStyle
  2
Brighten
 70
    12
 71
     2
 72
     2
 73
     0
 90
        0
 40
0.6
 41
30.0
 62
     5
 63
     7
 74
     1
 91
        4
 64
     7
 65
   257
 75
     1
175
     1
 42
1.0
 92
        8
 66
     7
 43
1.0
 76
     1
 77
     6
 78
     2
 67
     7
 79
     5
170
     0
171
     0
290
     0
174
     0
 93
        1
 44
50.0
173
     0
291
     1
 45
0.0
1001
ACAD
1000
AcDbSavedByObjectVersion
1070
     0
  0
VISUALSTYLE
  5
554
102
{ACAD_REACTORS
330
29
102
}
102
{ACAD_XDICTIONARY
360
69A
102
}
330
29
100
AcDbVisualStyle
  2
ColorChange
 70
    16
 71
     2
 72
     2
 73
     3
 90
        0
 40
0.6
 41
30.0
 62
     5
 63
     8
 74
     1
 91
        4
 64
     7
 65
   257
 75
     1
175
     1
 42
1.0
 92
        8
 66
     8
 43
1.0
 76
     1
 77
     6
 78
     2
 67
     7
 79
     5
170
     0
171
     0
290
     0
174
     0
 93
        1
 44
0.0
173
     0
291
     1
 45
0.0
1001
ACAD
1000
AcDbSavedByObjectVersion
1070
     0
  0
VISUALSTYLE
  5
54E
102
{ACAD_REACTORS
330
29
102
}
102
{ACAD_XDICTIONARY
360
68E
102
}
330
29
100
AcDbVisualStyle
  2
Conceptual
 70
     9
 71
     3
 72
     2
 73
     0
 90
        0
 40
0.6
 41
30.0
 62
     5
 63
     7
 74
     2
 91
        2
 64
     7
 65
   257
 75
     1
175
     1
 42
40.0
 92
        8
 66
     7
 43
1.0
 76
     1
 77
     6
 78
     2
 67
     7
 79
     3
170
     0
171
     0
290
     0
174
     0
 93
        1
 44
0.0
173
     0
291
     0
 45
0.0
1001
ACAD
1000
AcDbSavedByObjectVersion
1070
     0
  0
VISUALSTYLE
  5
54F
102
{ACAD_REACTORS
330
29
102
}
102
{ACAD_XDICTIONARY
360
690
102
}
330
29
100
AcDbVisualStyle
  2
Dim
 70
    11
 71
     2
 72
     2
 73
     0
 90
        0
 40
0.6
 41
30.0
 62
     5
 63
     7
 74
     1
 91
        4
 64
     7
 65
   257
 75
     1
175
     1
 42
1.0
 92
        8
 66
     7
 43
1.0
 76
     1
 77
     6
 78
     2
 67
     7
 79
     5
170
     0
171
     0
290
     0
174
     0
 93
        1
 44
-50.0
173
     0
291
     1
 45
0.0
1001
ACAD
1000
AcDbSavedByObjectVersion
1070
     0
  0
VISUALSTYLE
  5
557
102
{ACAD_REACTORS
330
29
102
}
102
{ACAD_XDICTIONARY
360
6A0
102
}
330
29
100
AcDbVisualStyle
  2
EdgeColorOff
 70
    22
 71
     2
 72
     2
 73
     0
 90
        0
 40
0.6
 41
30.0
 62
     5
 63
     7
 74
     1
 91
        4
 64
     7
 65
   257
 75
     1
175
     1
 42
1.0
 92
        8
 66
     7
 43
1.0
 76
     1
 77
     6
 78
     2
 67
     7
 79
     5
170
     0
171
     0
290
     0
174
     0
 93
        1
 44
0.0
173
     0
291
     1
 45
0.0
1001
ACAD
1000
AcDbSavedByObjectVersion
1070
     0
  0
VISUALSTYLE
  5
553
102
{ACAD_REACTORS
330
29
102
}
102
{ACAD_XDICTIONARY
360
698
102
}
330
29
100
AcDbVisualStyle
  2
Facepattern
 70
    15
 71
     2
 72
     2
 73
     0
 90
        0
 40
0.6
 41
30.0
 62
     5
 63
     7
 74
     1
 91
        4
 64
     7
 65
   257
 75
     1
175
     1
 42
1.0
 92
        8
 66
     7
 43
1.0
 76
     1
 77
     6
 78
     2
 67
     7
 79
     5
170
     0
171
     0
290
     0
174
     0
 93
        1
 44
0.0
173
     0
291
     1
 45
0.0
1001
ACAD
1000
AcDbSavedByObjectVersion
1070
     0
  0
VISUALSTYLE
  5
545
102
{ACAD_REACTORS
330
29
102
}
102
{ACAD_XDICTIONARY
360
67C
102
}
330
29
100
AcDbVisualStyle
  2
Flat
 70
     0
 71
     2
 72
     1
 73
     1
 90
        2
 40
0.6
 41
30.0
 62
     5
 63
     7
 74
     0
 91
        4
 64
     7
 65
   257
 75
     1
175
     1
 42
1.0
 92
        8
 66
     7
 43
1.0
 76
     1
 77
     6
 78
     2
 67
     7
 79
     5
170
     0
171
     0
290
     0
174
     0
 93
       13
 44
0.0
173
     0
291
     1
 45
0.0
1001
ACAD
1000
AcDbSavedByObjectVersion
1070
     0
  0
VISUALSTYLE
  5
546
102
{ACAD_REACTORS
330
29
102
}
102
{ACAD_XDICTIONARY
360
67E
102
}
330
29
100
AcDbVisualStyle
  2
FlatWithEdges
 70
     1
 71
     2
 72
     1
 73
     1
 90
        2
 40
0.6
 41
30.0
 62
     5
 63
     7
 74
     1
 91
        4
 64
     7
 65
   257
 75
     1
175
     1
 42
1.0
 92
        0
 66
   257
 43
1.0
 76
     1
 77
     6
 78
     2
 67
     7
 79
     5
170
     0
171
     0
290
     0
174
     0
 93
       13
 44
0.0
173
     0
291
     1
 45
0.0
1001
ACAD
1000
AcDbSavedByObjectVersion
1070
     0
  0
VISUALSTYLE
  5
547
102
{ACAD_REACTORS
330
29
102
}
102
{ACAD_XDICTIONARY
360
680
102
}
330
29
100
AcDbVisualStyle
  2
Gouraud
 70
     2
 71
     2
 72
     2
 73
     1
 90
        2
 40
0.6
 41
30.0
 62
     5
 63
     7
 74
     0
 91
        4
 64
     7
 65
   257
 75
     1
175
     1
 42
1.0
 92
        0
 66
     7
 43
1.0
 76
     1
 77
     6
 78
     2
 67
     7
 79
     5
170
     0
171
     0
290
     0
174
     0
 93
       13
 44
0.0
173
     0
291
     1
 45
0.0
1001
ACAD
1000
AcDbSavedByObjectVersion
1070
     0
  0
VISUALSTYLE
  5
548
102
{ACAD_REACTORS
330
29
102
}
102
{ACAD_XDICTIONARY
360
682
102
}
330
29
100
AcDbVisualStyle
  2
GouraudWithEdges
 70
     3
 71
     2
 72
     2
 73
     1
 90
        2
 40
0.6
 41
30.0
 62
     5
 63
     7
 74
     1
 91
        4
 64
     7
 65
   257
 75
     1
175
     1
 42
1.0
 92
        0
 66
   257
 43
1.0
 76
     1
 77
     6
 78
     2
 67
     7
 79
     5
170
     0
171
     0
290
     0
174
     0
 93
       13
 44
0.0
173
     0
291
     1
 45
0.0
1001
ACAD
1000
AcDbSavedByObjectVersion
1070
     0
  0
VISUALSTYLE
  5
54B
102
{ACAD_REACTORS
330
29
102
}
102
{ACAD_XDICTIONARY
360
688
102
}
330
29
100
AcDbVisualStyle
  2
Hidden
 70
     6
 71
     1
 72
     2
 73
     2
 90
        0
 40
0.6
 41
30.0
 62
     5
 63
     7
 74
     2
 91
        2
 64
     7
 65
   257
 75
     2
175
     1
 42
40.0
 92
        0
 66
   257
 43
1.0
 76
     1
 77
     6
 78
     2
 67
     7
 79
     3
170
     0
171
     0
290
     0
174
     0
 93
        1
 44
0.0
173
     0
291
     0
 45
0.0
1001
ACAD
1000
AcDbSavedByObjectVersion
1070
     0
  0
VISUALSTYLE
  5
555
102
{ACAD_REACTORS
330
29
102
}
102
{ACAD_XDICTIONARY
360
69C
102
}
330
29
100
AcDbVisualStyle
  2
JitterOff
 70
    20
 71
     2
 72
     2
 73
     0
 90
        0
 40
0.6
 41
30.0
 62
     5
 63
     7
 74
     1
 91
        4
 64
     7
 65
   257
 75
     1
175
     1
 42
1.0
 92
       10
 66
     7
 43
1.0
 76
     1
 77
     6
 78
     2
 67
     7
 79
     5
170
     0
171
     0
290
     0
174
     0
 93
        1
 44
0.0
173
     0
291
     1
 45
0.0
1001
ACAD
1000
AcDbSavedByObjectVersion
1070
     0
  0
VISUALSTYLE
  5
552
102
{ACAD_REACTORS
330
29
102
}
102
{ACAD_XDICTIONARY
360
696
102
}
330
29
100
AcDbVisualStyle
  2
Linepattern
 70
    14
 71
     2
 72
     2
 73
     0
 90
        0
 40
0.6
 41
30.0
 62
     5
 63
     7
 74
     1
 91
        4
 64
     7
 65
   257
 75
     7
175
     7
 42
1.0
 92
        8
 66
     7
 43
1.0
 76
     1
 77
     6
 78
     2
 67
     7
 79
     5
170
     0
171
     0
290
     0
174
     0
 93
        1
 44
0.0
173
     0
291
     1
 45
0.0
1001
ACAD
1000
AcDbSavedByObjectVersion
1070
     0
  0
VISUALSTYLE
  5
556
102
{ACAD_REACTORS
330
29
102
}
102
{ACAD_XDICTIONARY
360
69E
102
}
330
29
100
AcDbVisualStyle
  2
OverhangOff
 70
    21
 71
     2
 72
     2
 73
     0
 90
        0
 40
0.6
 41
30.0
 62
     5
 63
     7
 74
     1
 91
        4
 64
     7
 65
   257
 75
     1
175
     1
 42
1.0
 92
        9
 66
     7
 43
1.0
 76
     1
 77
     6
 78
     2
 67
     7
 79
     5
170
     0
171
     0
290
     0
174
     0
 93
        1
 44
0.0
173
     0
291
     1
 45
0.0
1001
ACAD
1000
AcDbSavedByObjectVersion
1070
     0
  0
VISUALSTYLE
  5
54D
102
{ACAD_REACTORS
330
29
102
}
102
{ACAD_XDICTIONARY
360
68C
102
}
330
29
100
AcDbVisualStyle
  2
Realistic
 70
     8
 71
     2
 72
     3
 73
     0
 90
        2
 40
0.6
 41
30.0
 62
     5
 63
     7
 74
     0
 91
        0
 64
     7
 65
   257
 75
     1
175
     1
 42
1.0
 92
        8
 66
   257
 43
1.0
 76
     1
 77
     6
 78
     2
 67
     7
 79
     3
170
     0
171
     0
290
     0
174
     0
 93
       13
 44
0.0
173
     0
291
     0
 45
0.0
1001
ACAD
1000
AcDbSavedByObjectVersion
1070
     0
  0
VISUALSTYLE
  5
55C
102
{ACAD_REACTORS
330
29
102
}
102
{ACAD_XDICTIONARY
360
6AA
102
}
330
29
100
AcDbVisualStyle
  2
Shaded
 70
    27
 71
     2
 72
     2
 73
     1
 90
        2
 40
0.6
 41
30.0
 62
     5
 63
     7
 74
     0
 91
        4
 64
     7
 65
   257
 75
     1
175
     1
 42
1.0
 92
        8
 66
   257
 43
1.0
 76
     1
 77
     6
 78
     2
 67
   251
 79
     3
170
     0
171
     0
290
     0
174
     0
 93
        5
 44
0.0
173
     0
291
     0
 45
0.0
1001
ACAD
1000
AcDbSavedByObjectVersion
1070
     0
  0
VISUALSTYLE
  5
55B
102
{ACAD_REACTORS
330
29
102
}
102
{ACAD_XDICTIONARY
360
6A8
102
}
330
29
100
AcDbVisualStyle
  2
Shaded with edges
 70
    26
 71
     2
 72
     2
 73
     1
 90
        2
 40
0.6
 41
30.0
 62
     5
 63
     7
 74
     1
 91
       10
 64
     7
 65
   257
 75
     2
175
     1
 42
1.0
 92
        8
 66
   257
 43
1.0
 76
     1
 77
     6
 78
     2
 67
     7
 79
     3
170
     0
171
     0
290
     0
174
     0
 93
        5
 44
0.0
173
     0
291
     0
 45
0.0
1001
ACAD
1000
AcDbSavedByObjectVersion
1070
     0
  0
VISUALSTYLE
  5
558
102
{ACAD_REACTORS
330
29
102
}
102
{ACAD_XDICTIONARY
360
6A2
102
}
330
29
100
AcDbVisualStyle
  2
Shades of Gray
 70
    23
 71
     2
 72
     2
 73
     3
 90
        0
 40
0.6
 41
30.0
 62
     5
 63
     7
 74
     2
 91
        2
 64
     7
 65
     7
 75
     1
175
     1
 42
40.0
 92
        8
 66
     7
 43
1.0
 76
     1
 77
     6
 78
     2
 67
     7
 79
     3
170
     0
171
     0
290
     0
174
     0
 93
        1
 44
0.0
173
     0
291
     0
 45
0.0
1001
ACAD
1000
AcDbSavedByObjectVersion
1070
     0
  0
VISUALSTYLE
  5
559
102
{ACAD_REACTORS
330
29
102
}
102
{ACAD_XDICTIONARY
360
6A4
102
}
330
29
100
AcDbVisualStyle
  2
Sketchy
 70
    24
 71
     1
 72
     2
 73
     2
 90
        0
 40
0.6
 41
30.0
 62
     5
 63
     7
 74
     2
 91
        2
 64
     7
 65
     7
 75
     1
175
     1
 42
40.0
 92
       11
 66
     7
 43
1.0
 76
     1
 77
     6
 78
     2
 67
     7
 79
     6
170
     0
171
     0
290
     0
174
     0
 93
        1
 44
0.0
173
     0
291
     0
 45
0.0
1001
ACAD
1000
AcDbSavedByObjectVersion
1070
     0
  0
VISUALSTYLE
  5
551
102
{ACAD_REACTORS
330
29
102
}
102
{ACAD_XDICTIONARY
360
694
102
}
330
29
100
AcDbVisualStyle
  2
Thicken
 70
    13
 71
     2
 72
     2
 73
     0
 90
        0
 40
0.6
 41
30.0
 62
     5
 63
     7
 74
     1
 91
        4
 64
     7
 65
   257
 75
     1
175
     1
 42
1.0
 92
       12
 66
     7
 43
1.0
 76
     1
 77
     6
 78
     2
 67
     7
 79
     5
170
     0
171
     0
290
     0
174
     0
 93
        1
 44
0.0
173
     0
291
     1
 45
0.0
1001
ACAD
1000
AcDbSavedByObjectVersion
1070
     0
  0
VISUALSTYLE
  5
54A
102
{ACAD_REACTORS
330
29
102
}
102
{ACAD_XDICTIONARY
360
686
102
}
330
29
100
AcDbVisualStyle
  2
Wireframe
 70
     5
 71
     0
 72
     2
 73
     0
 90
        0
 40
0.6
 41
30.0
 62
     5
 63
     7
 74
     1
 91
        4
 64
     7
 65
   257
 75
     1
175
     1
 42
1.0
 92
        0
 66
   257
 43
1.0
 76
     1
 77
     6
 78
     2
 67
     7
 79
     5
170
     0
171
     0
290
     0
174
     0
 93
        1
 44
0.0
173
     0
291
     0
 45
0.0
1001
ACAD
1000
AcDbSavedByObjectVersion
1070
     0
  0
VISUALSTYLE
  5
55A
102
{ACAD_REACTORS
330
29
102
}
102
{ACAD_XDICTIONARY
360
6A6
102
}
330
29
100
AcDbVisualStyle
  2
X-Ray
 70
    25
 71
     2
 72
     2
 73
     1
 90
        1
 40
0.5
 41
30.0
 62
     5
 63
     7
 74
     1
 91
        0
 64
     7
 65
   257
 75
     1
175
     1
 42
1.0
 92
        8
 66
     7
 43
1.0
 76
     1
 77
     6
 78
     2
 67
     7
 79
     3
170
     0
171
     0
290
     0
174
     0
 93
       13
 44
0.0
173
     0
291
     0
 45
0.0
1001
ACAD
1000
AcDbSavedByObjectVersion
1070
     0
  0
XRECORD
  5
670
102
{ACAD_REACTORS
330
66F
102
}
330
66F
100
AcDbXrecord
280
     1
340
28
  0
XRECORD
  5
671
102
{ACAD_REACTORS
330
66F
102
}
330
66F
100
AcDbXrecord
280
     1
340
7
  0
DICTIONARYVAR
  5
53F
102
{ACAD_REACTORS
330
53E
102
}
330
53E
100
DictionaryVariables
280
     0
  1
1:1
  0
DICTIONARYVAR
  5
5EA
102
{ACAD_REACTORS
330
53E
102
}
330
53E
100
DictionaryVariables
280
     0
  1
Standard
  0
DICTIONARYVAR
  5
66C
102
{ACAD_REACTORS
330
53E
102
}
330
53E
100
DictionaryVariables
280
     0
  1
Standard
  0
DICTIONARYVAR
  5
66D
102
{ACAD_REACTORS
330
53E
102
}
330
53E
100
DictionaryVariables
280
     0
  1
0
  0
DICTIONARYVAR
  5
66E
102
{ACAD_REACTORS
330
53E
102
}
330
53E
100
DictionaryVariables
280
     0
  1
1
  0
DICTIONARYVAR
  5
675
102
{ACAD_REACTORS
330
53E
102
}
330
53E
100
DictionaryVariables
280
     0
  1
1
  0
DICTIONARYVAR
  5
542
102
{ACAD_REACTORS
330
53E
102
}
330
53E
100
DictionaryVariables
280
     0
  1
0
  0
DICTIONARY
  5
67A
330
4F
100
AcDbDictionary
280
     1
281
     1
  3
ACAD_XREC_ROUNDTRIP
360
67B
  0
DICTIONARY
  5
676
330
10
100
AcDbDictionary
280
     1
281
     1
  3
ACAD_XREC_ROUNDTRIP
360
677
  0
DICTIONARY
  5
678
330
6
100
AcDbDictionary
280
     1
281
     1
  3
ACAD_XREC_ROUNDTRIP
360
679
  0
DICTIONARY
  5
6AC
330
5E8
100
AcDbDictionary
280
     1
281
     1
  3
ACAD_XREC_ROUNDTRIP
360
6AD
  0
DICTIONARY
  5
684
330
549
100
AcDbDictionary
280
     1
281
     1
  3
ACAD_XREC_ROUNDTRIP
360
685
  0
DICTIONARY
  5
68A
330
54C
100
AcDbDictionary
280
     1
281
     1
  3
ACAD_XREC_ROUNDTRIP
360
68B
  0
DICTIONARY
  5
692
330
550
100
AcDbDictionary
280
     1
281
     1
  3
ACAD_XREC_ROUNDTRIP
360
693
  0
DICTIONARY
  5
69A
330
554
100
AcDbDictionary
280
     1
281
     1
  3
ACAD_XREC_ROUNDTRIP
360
69B
  0
DICTIONARY
  5
68E
330
54E
100
AcDbDictionary
280
     1
281
     1
  3
ACAD_XREC_ROUNDTRIP
360
68F
  0
DICTIONARY
  5
690
330
54F
100
AcDbDictionary
280
     1
281
     1
  3
ACAD_XREC_ROUNDTRIP
360
691
  0
DICTIONARY
  5
6A0
330
557
100
AcDbDictionary
280
     1
281
     1
  3
ACAD_XREC_ROUNDTRIP
360
6A1
  0
DICTIONARY
  5
698
330
553
100
AcDbDictionary
280
     1
281
     1
  3
ACAD_XREC_ROUNDTRIP
360
699
  0
DICTIONARY
  5
67C
330
545
100
AcDbDictionary
280
     1
281
     1
  3
ACAD_XREC_ROUNDTRIP
360
67D
  0
DICTIONARY
  5
67E
330
546
100
AcDbDictionary
280
     1
281
     1
  3
ACAD_XREC_ROUNDTRIP
360
67F
  0
DICTIONARY
  5
680
330
547
100
AcDbDictionary
280
     1
281
     1
  3
ACAD_XREC_ROUNDTRIP
360
681
  0
DICTIONARY
  5
682
330
548
100
AcDbDictionary
280
     1
281
     1
  3
ACAD_XREC_ROUNDTRIP
360
683
  0
DICTIONARY
  5
688
330
54B
100
AcDbDictionary
280
     1
281
     1
  3
ACAD_XREC_ROUNDTRIP
360
689
  0
DICTIONARY
  5
69C
330
555
100
AcDbDictionary
280
     1
281
     1
  3
ACAD_XREC_ROUNDTRIP
360
69D
  0
DICTIONARY
  5
696
330
552
100
AcDbDictionary
280
     1
281
     1
  3
ACAD_XREC_ROUNDTRIP
360
697
  0
DICTIONARY
  5
69E
330
556
100
AcDbDictionary
280
     1
281
     1
  3
ACAD_XREC_ROUNDTRIP
360
69F
  0
DICTIONARY
  5
68C
330
54D
100
AcDbDictionary
280
     1
281
     1
  3
ACAD_XREC_ROUNDTRIP
360
68D
  0
DICTIONARY
  5
6AA
330
55C
100
AcDbDictionary
280
     1
281
     1
  3
ACAD_XREC_ROUNDTRIP
360
6AB
  0
DICTIONARY
  5
6A8
330
55B
100
AcDbDictionary
280
     1
281
     1
  3
ACAD_XREC_ROUNDTRIP
360
6A9
  0
DICTIONARY
  5
6A2
330
558
100
AcDbDictionary
280
     1
281
     1
  3
ACAD_XREC_ROUNDTRIP
360
6A3
  0
DICTIONARY
  5
6A4
330
559
100
AcDbDictionary
280
     1
281
     1
  3
ACAD_XREC_ROUNDTRIP
360
6A5
  0
DICTIONARY
  5
694
330
551
100
AcDbDictionary
280
     1
281
     1
  3
ACAD_XREC_ROUNDTRIP
360
695
  0
DICTIONARY
  5
686
330
54A
100
AcDbDictionary
280
     1
281
     1
  3
ACAD_XREC_ROUNDTRIP
360
687
  0
DICTIONARY
  5
6A6
330
55A
100
AcDbDictionary
280
     1
281
     1
  3
ACAD_XREC_ROUNDTRIP
360
6A7
  0
XRECORD
  5
67B
102
{ACAD_REACTORS
330
67A
102
}
330
67A
100
AcDbXrecord
280
     1
102
MATERIAL
148
0.0
149
0.0
149
0.0
 93
        0
 94
      127
282
     0
 72
     1
 77
     1
171
     1
175
     1
179
     1
273
     0
  0
XRECORD
  5
677
102
{ACAD_REACTORS
330
676
102
}
330
676
100
AcDbXrecord
280
     1
102
MATERIAL
148
0.0
149
0.0
149
0.0
 93
        0
 94
      127
282
     0
 72
     1
 77
     1
171
     1
175
     1
179
     1
273
     0
  0
XRECORD
  5
679
102
{ACAD_REACTORS
330
678
102
}
330
678
100
AcDbXrecord
280
     1
102
MATERIAL
148
0.0
149
0.0
149
0.0
 93
        0
 94
      127
282
     0
 72
     1
 77
     1
171
     1
175
     1
179
     1
273
     0
  0
XRECORD
  5
6AD
102
{ACAD_REACTORS
330
6AC
102
}
330
6AC
100
AcDbXrecord
280
     1
102
ACAD_ROUNDTRIP_2010_MLEADER_STYLE
  0
XRECORD
  5
685
102
{ACAD_REACTORS
330
684
102
}
330
684
100
AcDbXrecord
280
     1
102
RTVSPropertyOp0
 70
     1
102
RTVSPropertyOp1
 70
     1
102
RTVSPropertyOp2
 70
     1
102
RTVSPropertyOp3
 70
     1
102
RTVSPropertyOp4
 70
     1
102
RTVSPropertyOp5
 70
     1
102
RTVSPropertyOp6
 70
     1
102
RTVSPropertyOp7
 70
     1
102
RTVSPropertyOp8
 70
     1
102
RTVSPropertyOp9
 70
     1
102
RTVSPropertyOp10
 70
     1
102
RTVSPropertyOp11
 70
     1
102
RTVSPropertyOp12
 70
     1
102
RTVSPropertyOp13
 70
     1
102
RTVSPropertyOp14
 70
     1
102
RTVSPropertyOp15
 70
     1
102
RTVSPropertyOp16
 70
     1
102
RTVSPropertyOp17
 70
     1
102
RTVSPropertyOp18
 70
     1
102
RTVSPropertyOp19
 70
     1
102
RTVSPropertyOp20
 70
     1
102
RTVSPropertyOp21
 70
     1
102
RTVSPropertyOp22
 70
     1
102
RTVSPropertyOp23
 70
     1
102
RTVSPropertyOp24
 70
     1
102
RTVSPropertyOp25
 70
     1
102
RTVSPropertyOp26
 70
     1
102
RTVSPropertyOp27
 70
     1
102
RTVSPropertyOp28
 70
     1
102
RTVSPropertyOp29
 70
     1
102
RTVSPropertyOp30
 70
     1
102
RTVSPropertyOp31
 70
     1
102
RTVSPropertyOp32
 70
     1
102
RTVSPropertyOp33
 70
     1
102
RTVSPropertyOp34
 70
     1
102
RTVSPropertyOp35
 70
     1
102
RTVSPropertyOp36
 70
     1
102
RTVSPropertyOp37
 70
     1
102
RTVSPropertyOp38
 70
     1
102
RTVSPropertyOp39
 70
     1
102
RTVSPropertyOp40
 70
     1
102
RTVSPropertyOp41
 70
     1
102
RTVSPropertyOp42
 70
     1
102
RTVSPropertyOp43
 70
     1
102
RTVSPropertyOp44
 70
     1
102
RTVSPropertyOp45
 70
     1
102
RTVSPropertyOp46
 70
     1
102
RTVSPropertyOp47
 70
     1
102
RTVSPropertyOp48
 70
     1
102
RTVSPropertyOp49
 70
     1
102
RTVSPropertyOp50
 70
     1
102
RTVSPropertyOp51
 70
     0
102
RTVSPropertyOp52
 70
     0
102
RTVSPropertyOp53
 70
     1
102
RTVSPropertyOp54
 70
     1
102
RTVSPropertyOp55
 70
     1
102
RTVSPropertyOp56
 70
     1
102
RTVSPropertyOp57
 70
     1
102
RTVSPost2010Prop28
280
     1
102
RTVSPost2010PropOp28
 70
     1
102
RTVSPost2010Prop29
280
     1
102
RTVSPost2010PropOp29
 70
     1
102
RTVSPost2010Prop30
280
     0
102
RTVSPost2010PropOp30
 70
     1
102
RTVSPost2010Prop31
280
     0
102
RTVSPost2010PropOp31
 70
     1
102
RTVSPost2010Prop32
280
     0
102
RTVSPost2010PropOp32
 70
     1
102
RTVSPost2010Prop33
280
     0
102
RTVSPost2010PropOp33
 70
     1
102
RTVSPost2010Prop34
280
     0
102
RTVSPost2010PropOp34
 70
     1
102
RTVSPost2010Prop35
280
     0
102
RTVSPost2010PropOp35
 70
     1
102
RTVSPost2010Prop36
280
     0
102
RTVSPost2010PropOp36
 70
     1
102
RTVSPost2010Prop37
 90
       50
102
RTVSPost2010PropOp37
 70
     1
102
RTVSPost2010Prop38
140
0.0
102
RTVSPost2010PropOp38
 70
     1
102
RTVSPost2010Prop39
140
1.0
102
RTVSPost2010PropOp39
 70
     1
102
RTVSPost2010Prop40
 90
        0
102
RTVSPost2010PropOp40
 70
     1
102
RTVSPost2010Prop41ColorIndex
 90
       18
102
RTVSPost2010Prop41ColorRGB
 90
        0
102
RTVSPost2010PropOp41
 70
     1
102
RTVSPost2010Prop42
 90
       50
102
RTVSPost2010PropOp42
 70
     1
102
RTVSPost2010Prop43
 90
        3
102
RTVSPost2010PropOp43
 70
     1
102
RTVSPost2010Prop44ColorIndex
 90
        5
102
RTVSPost2010Prop44ColorRGB
 90
      255
102
RTVSPost2010PropOp44
 70
     1
102
RTVSPost2010Prop45
280
     0
102
RTVSPost2010PropOp45
 70
     1
102
RTVSPost2010Prop46
 90
       50
102
RTVSPost2010PropOp46
 70
     1
102
RTVSPost2010Prop47
 90
       50
102
RTVSPost2010PropOp47
 70
     1
102
RTVSPost2010Prop48
 90
       50
102
RTVSPost2010PropOp48
 70
     1
102
RTVSPost2010Prop49
280
     0
102
RTVSPost2010PropOp49
 70
     1
102
RTVSPost2010Prop50
 90
       50
102
RTVSPost2010PropOp50
 70
     1
102
RTVSPost2010Prop51ColorIndex
 90
      256
102
RTVSPost2010Prop51ColorRGB
 90
-16777216
102
RTVSPost2010PropOp51
 70
     0
102
RTVSPost2010Prop52
140
1.0
102
RTVSPost2010PropOp52
 70
     0
102
RTVSPost2010Prop53
 90
        2
102
RTVSPost2010PropOp53
 70
     1
102
RTVSPost2010Prop54
  1
strokes_ogs.tif
102
RTVSPost2010PropOp54
 70
     1
102
RTVSPost2010Prop55
280
     0
102
RTVSPost2010PropOp55
 70
     1
102
RTVSPost2010Prop56
140
1.0
102
RTVSPost2010PropOp56
 70
     1
102
RTVSPost2010Prop57
140
1.0
102
RTVSPost2010PropOp57
 70
     1
  0
XRECORD
  5
68B
102
{ACAD_REACTORS
330
68A
102
}
330
68A
100
AcDbXrecord
280
     1
102
RTVSPropertyOp0
 70
     1
102
RTVSPropertyOp1
 70
     1
102
RTVSPropertyOp2
 70
     1
102
RTVSPropertyOp3
 70
     1
102
RTVSPropertyOp4
 70
     1
102
RTVSPropertyOp5
 70
     1
102
RTVSPropertyOp6
 70
     1
102
RTVSPropertyOp7
 70
     1
102
RTVSPropertyOp8
 70
     1
102
RTVSPropertyOp9
 70
     1
102
RTVSPropertyOp10
 70
     1
102
RTVSPropertyOp11
 70
     1
102
RTVSPropertyOp12
 70
     1
102
RTVSPropertyOp13
 70
     1
102
RTVSPropertyOp14
 70
     1
102
RTVSPropertyOp15
 70
     1
102
RTVSPropertyOp16
 70
     1
102
RTVSPropertyOp17
 70
     1
102
RTVSPropertyOp18
 70
     1
102
RTVSPropertyOp19
 70
     1
102
RTVSPropertyOp20
 70
     1
102
RTVSPropertyOp21
 70
     1
102
RTVSPropertyOp22
 70
     1
102
RTVSPropertyOp23
 70
     1
102
RTVSPropertyOp24
 70
     1
102
RTVSPropertyOp25
 70
     1
102
RTVSPropertyOp26
 70
     1
102
RTVSPropertyOp27
 70
     1
102
RTVSPropertyOp28
 70
     1
102
RTVSPropertyOp29
 70
     1
102
RTVSPropertyOp30
 70
     1
102
RTVSPropertyOp31
 70
     1
102
RTVSPropertyOp32
 70
     1
102
RTVSPropertyOp33
 70
     1
102
RTVSPropertyOp34
 70
     1
102
RTVSPropertyOp35
 70
     1
102
RTVSPropertyOp36
 70
     1
102
RTVSPropertyOp37
 70
     1
102
RTVSPropertyOp38
 70
     1
102
RTVSPropertyOp39
 70
     1
102
RTVSPropertyOp40
 70
     1
102
RTVSPropertyOp41
 70
     1
102
RTVSPropertyOp42
 70
     1
102
RTVSPropertyOp43
 70
     1
102
RTVSPropertyOp44
 70
     1
102
RTVSPropertyOp45
 70
     1
102
RTVSPropertyOp46
 70
     1
102
RTVSPropertyOp47
 70
     1
102
RTVSPropertyOp48
 70
     1
102
RTVSPropertyOp49
 70
     1
102
RTVSPropertyOp50
 70
     1
102
RTVSPropertyOp51
 70
     0
102
RTVSPropertyOp52
 70
     0
102
RTVSPropertyOp53
 70
     1
102
RTVSPropertyOp54
 70
     1
102
RTVSPropertyOp55
 70
     1
102
RTVSPropertyOp56
 70
     1
102
RTVSPropertyOp57
 70
     1
102
RTVSPost2010Prop28
280
     0
102
RTVSPost2010PropOp28
 70
     1
102
RTVSPost2010Prop29
280
     1
102
RTVSPost2010PropOp29
 70
     1
102
RTVSPost2010Prop30
280
     1
102
RTVSPost2010PropOp30
 70
     1
102
RTVSPost2010Prop31
280
     0
102
RTVSPost2010PropOp31
 70
     1
102
RTVSPost2010Prop32
280
     0
102
RTVSPost2010PropOp32
 70
     1
102
RTVSPost2010Prop33
280
     0
102
RTVSPost2010PropOp33
 70
     1
102
RTVSPost2010Prop34
280
     0
102
RTVSPost2010PropOp34
 70
     1
102
RTVSPost2010Prop35
280
     0
102
RTVSPost2010PropOp35
 70
     1
102
RTVSPost2010Prop36
280
     0
102
RTVSPost2010PropOp36
 70
     1
102
RTVSPost2010Prop37
 90
       50
102
RTVSPost2010PropOp37
 70
     1
102
RTVSPost2010Prop38
140
0.0
102
RTVSPost2010PropOp38
 70
     1
102
RTVSPost2010Prop39
140
1.0
102
RTVSPost2010PropOp39
 70
     1
102
RTVSPost2010Prop40
 90
        0
102
RTVSPost2010PropOp40
 70
     1
102
RTVSPost2010Prop41ColorIndex
 90
       18
102
RTVSPost2010Prop41ColorRGB
 90
        0
102
RTVSPost2010PropOp41
 70
     1
102
RTVSPost2010Prop42
 90
       50
102
RTVSPost2010PropOp42
 70
     1
102
RTVSPost2010Prop43
 90
        3
102
RTVSPost2010PropOp43
 70
     1
102
RTVSPost2010Prop44ColorIndex
 90
        5
102
RTVSPost2010Prop44ColorRGB
 90
      255
102
RTVSPost2010PropOp44
 70
     1
102
RTVSPost2010Prop45
280
     0
102
RTVSPost2010PropOp45
 70
     1
102
RTVSPost2010Prop46
 90
       50
102
RTVSPost2010PropOp46
 70
     1
102
RTVSPost2010Prop47
 90
       50
102
RTVSPost2010PropOp47
 70
     1
102
RTVSPost2010Prop48
 90
       50
102
RTVSPost2010PropOp48
 70
     1
102
RTVSPost2010Prop49
280
     0
102
RTVSPost2010PropOp49
 70
     1
102
RTVSPost2010Prop50
 90
       50
102
RTVSPost2010PropOp50
 70
     1
102
RTVSPost2010Prop51ColorIndex
 90
      256
102
RTVSPost2010Prop51ColorRGB
 90
-16777216
102
RTVSPost2010PropOp51
 70
     0
102
RTVSPost2010Prop52
140
1.0
102
RTVSPost2010PropOp52
 70
     0
102
RTVSPost2010Prop53
 90
        2
102
RTVSPost2010PropOp53
 70
     1
102
RTVSPost2010Prop54
  1
strokes_ogs.tif
102
RTVSPost2010PropOp54
 70
     1
102
RTVSPost2010Prop55
280
     0
102
RTVSPost2010PropOp55
 70
     1
102
RTVSPost2010Prop56
140
1.0
102
RTVSPost2010PropOp56
 70
     1
102
RTVSPost2010Prop57
140
1.0
102
RTVSPost2010PropOp57
 70
     1
  0
XRECORD
  5
693
102
{ACAD_REACTORS
330
692
102
}
330
692
100
AcDbXrecord
280
     1
102
RTVSPropertyOp0
 70
     1
102
RTVSPropertyOp1
 70
     1
102
RTVSPropertyOp2
 70
     1
102
RTVSPropertyOp3
 70
     1
102
RTVSPropertyOp4
 70
     1
102
RTVSPropertyOp5
 70
     1
102
RTVSPropertyOp6
 70
     1
102
RTVSPropertyOp7
 70
     1
102
RTVSPropertyOp8
 70
     1
102
RTVSPropertyOp9
 70
     1
102
RTVSPropertyOp10
 70
     1
102
RTVSPropertyOp11
 70
     1
102
RTVSPropertyOp12
 70
     1
102
RTVSPropertyOp13
 70
     1
102
RTVSPropertyOp14
 70
     1
102
RTVSPropertyOp15
 70
     1
102
RTVSPropertyOp16
 70
     1
102
RTVSPropertyOp17
 70
     1
102
RTVSPropertyOp18
 70
     1
102
RTVSPropertyOp19
 70
     1
102
RTVSPropertyOp20
 70
     1
102
RTVSPropertyOp21
 70
     1
102
RTVSPropertyOp22
 70
     1
102
RTVSPropertyOp23
 70
     1
102
RTVSPropertyOp24
 70
     1
102
RTVSPropertyOp25
 70
     1
102
RTVSPropertyOp26
 70
     1
102
RTVSPropertyOp27
 70
     1
102
RTVSPropertyOp28
 70
     1
102
RTVSPropertyOp29
 70
     1
102
RTVSPropertyOp30
 70
     1
102
RTVSPropertyOp31
 70
     1
102
RTVSPropertyOp32
 70
     1
102
RTVSPropertyOp33
 70
     1
102
RTVSPropertyOp34
 70
     1
102
RTVSPropertyOp35
 70
     1
102
RTVSPropertyOp36
 70
     1
102
RTVSPropertyOp37
 70
     1
102
RTVSPropertyOp38
 70
     1
102
RTVSPropertyOp39
 70
     1
102
RTVSPropertyOp40
 70
     1
102
RTVSPropertyOp41
 70
     1
102
RTVSPropertyOp42
 70
     1
102
RTVSPropertyOp43
 70
     1
102
RTVSPropertyOp44
 70
     1
102
RTVSPropertyOp45
 70
     1
102
RTVSPropertyOp46
 70
     1
102
RTVSPropertyOp47
 70
     1
102
RTVSPropertyOp48
 70
     1
102
RTVSPropertyOp49
 70
     1
102
RTVSPropertyOp50
 70
     1
102
RTVSPropertyOp51
 70
     0
102
RTVSPropertyOp52
 70
     0
102
RTVSPropertyOp53
 70
     1
102
RTVSPropertyOp54
 70
     1
102
RTVSPropertyOp55
 70
     1
102
RTVSPropertyOp56
 70
     1
102
RTVSPropertyOp57
 70
     1
102
RTVSPost2010Prop28
280
     0
102
RTVSPost2010PropOp28
 70
     1
102
RTVSPost2010Prop29
280
     1
102
RTVSPost2010PropOp29
 70
     1
102
RTVSPost2010Prop30
280
     1
102
RTVSPost2010PropOp30
 70
     1
102
RTVSPost2010Prop31
280
     0
102
RTVSPost2010PropOp31
 70
     1
102
RTVSPost2010Prop32
280
     0
102
RTVSPost2010PropOp32
 70
     1
102
RTVSPost2010Prop33
280
     0
102
RTVSPost2010PropOp33
 70
     1
102
RTVSPost2010Prop34
280
     0
102
RTVSPost2010PropOp34
 70
     1
102
RTVSPost2010Prop35
280
     0
102
RTVSPost2010PropOp35
 70
     1
102
RTVSPost2010Prop36
280
     0
102
RTVSPost2010PropOp36
 70
     1
102
RTVSPost2010Prop37
 90
       50
102
RTVSPost2010PropOp37
 70
     1
102
RTVSPost2010Prop38
140
0.0
102
RTVSPost2010PropOp38
 70
     1
102
RTVSPost2010Prop39
140
1.0
102
RTVSPost2010PropOp39
 70
     1
102
RTVSPost2010Prop40
 90
        0
102
RTVSPost2010PropOp40
 70
     1
102
RTVSPost2010Prop41ColorIndex
 90
       18
102
RTVSPost2010Prop41ColorRGB
 90
        0
102
RTVSPost2010PropOp41
 70
     1
102
RTVSPost2010Prop42
 90
       50
102
RTVSPost2010PropOp42
 70
     1
102
RTVSPost2010Prop43
 90
        3
102
RTVSPost2010PropOp43
 70
     1
102
RTVSPost2010Prop44ColorIndex
 90
        5
102
RTVSPost2010Prop44ColorRGB
 90
      255
102
RTVSPost2010PropOp44
 70
     1
102
RTVSPost2010Prop45
280
     0
102
RTVSPost2010PropOp45
 70
     1
102
RTVSPost2010Prop46
 90
       50
102
RTVSPost2010PropOp46
 70
     1
102
RTVSPost2010Prop47
 90
       50
102
RTVSPost2010PropOp47
 70
     1
102
RTVSPost2010Prop48
 90
       50
102
RTVSPost2010PropOp48
 70
     1
102
RTVSPost2010Prop49
280
     0
102
RTVSPost2010PropOp49
 70
     1
102
RTVSPost2010Prop50
 90
       50
102
RTVSPost2010PropOp50
 70
     1
102
RTVSPost2010Prop51ColorIndex
 90
      256
102
RTVSPost2010Prop51ColorRGB
 90
-16777216
102
RTVSPost2010PropOp51
 70
     0
102
RTVSPost2010Prop52
140
1.0
102
RTVSPost2010PropOp52
 70
     0
102
RTVSPost2010Prop53
 90
        2
102
RTVSPost2010PropOp53
 70
     1
102
RTVSPost2010Prop54
  1
strokes_ogs.tif
102
RTVSPost2010PropOp54
 70
     1
102
RTVSPost2010Prop55
280
     0
102
RTVSPost2010PropOp55
 70
     1
102
RTVSPost2010Prop56
140
1.0
102
RTVSPost2010PropOp56
 70
     1
102
RTVSPost2010Prop57
140
1.0
102
RTVSPost2010PropOp57
 70
     1
  0
XRECORD
  5
69B
102
{ACAD_REACTORS
330
69A
102
}
330
69A
100
AcDbXrecord
280
     1
102
RTVSPropertyOp0
 70
     1
102
RTVSPropertyOp1
 70
     1
102
RTVSPropertyOp2
 70
     1
102
RTVSPropertyOp3
 70
     1
102
RTVSPropertyOp4
 70
     1
102
RTVSPropertyOp5
 70
     1
102
RTVSPropertyOp6
 70
     1
102
RTVSPropertyOp7
 70
     1
102
RTVSPropertyOp8
 70
     1
102
RTVSPropertyOp9
 70
     1
102
RTVSPropertyOp10
 70
     1
102
RTVSPropertyOp11
 70
     1
102
RTVSPropertyOp12
 70
     1
102
RTVSPropertyOp13
 70
     1
102
RTVSPropertyOp14
 70
     1
102
RTVSPropertyOp15
 70
     1
102
RTVSPropertyOp16
 70
     1
102
RTVSPropertyOp17
 70
     1
102
RTVSPropertyOp18
 70
     1
102
RTVSPropertyOp19
 70
     1
102
RTVSPropertyOp20
 70
     1
102
RTVSPropertyOp21
 70
     1
102
RTVSPropertyOp22
 70
     1
102
RTVSPropertyOp23
 70
     1
102
RTVSPropertyOp24
 70
     1
102
RTVSPropertyOp25
 70
     1
102
RTVSPropertyOp26
 70
     1
102
RTVSPropertyOp27
 70
     1
102
RTVSPropertyOp28
 70
     1
102
RTVSPropertyOp29
 70
     1
102
RTVSPropertyOp30
 70
     1
102
RTVSPropertyOp31
 70
     1
102
RTVSPropertyOp32
 70
     1
102
RTVSPropertyOp33
 70
     1
102
RTVSPropertyOp34
 70
     1
102
RTVSPropertyOp35
 70
     1
102
RTVSPropertyOp36
 70
     1
102
RTVSPropertyOp37
 70
     1
102
RTVSPropertyOp38
 70
     1
102
RTVSPropertyOp39
 70
     1
102
RTVSPropertyOp40
 70
     1
102
RTVSPropertyOp41
 70
     1
102
RTVSPropertyOp42
 70
     1
102
RTVSPropertyOp43
 70
     1
102
RTVSPropertyOp44
 70
     1
102
RTVSPropertyOp45
 70
     1
102
RTVSPropertyOp46
 70
     1
102
RTVSPropertyOp47
 70
     1
102
RTVSPropertyOp48
 70
     1
102
RTVSPropertyOp49
 70
     1
102
RTVSPropertyOp50
 70
     1
102
RTVSPropertyOp51
 70
     0
102
RTVSPropertyOp52
 70
     0
102
RTVSPropertyOp53
 70
     1
102
RTVSPropertyOp54
 70
     1
102
RTVSPropertyOp55
 70
     1
102
RTVSPropertyOp56
 70
     1
102
RTVSPropertyOp57
 70
     1
102
RTVSPost2010Prop28
280
     0
102
RTVSPost2010PropOp28
 70
     1
102
RTVSPost2010Prop29
280
     1
102
RTVSPost2010PropOp29
 70
     1
102
RTVSPost2010Prop30
280
     1
102
RTVSPost2010PropOp30
 70
     1
102
RTVSPost2010Prop31
280
     0
102
RTVSPost2010PropOp31
 70
     1
102
RTVSPost2010Prop32
280
     0
102
RTVSPost2010PropOp32
 70
     1
102
RTVSPost2010Prop33
280
     0
102
RTVSPost2010PropOp33
 70
     1
102
RTVSPost2010Prop34
280
     0
102
RTVSPost2010PropOp34
 70
     1
102
RTVSPost2010Prop35
280
     0
102
RTVSPost2010PropOp35
 70
     1
102
RTVSPost2010Prop36
280
     0
102
RTVSPost2010PropOp36
 70
     1
102
RTVSPost2010Prop37
 90
       50
102
RTVSPost2010PropOp37
 70
     1
102
RTVSPost2010Prop38
140
0.0
102
RTVSPost2010PropOp38
 70
     1
102
RTVSPost2010Prop39
140
1.0
102
RTVSPost2010PropOp39
 70
     1
102
RTVSPost2010Prop40
 90
        0
102
RTVSPost2010PropOp40
 70
     1
102
RTVSPost2010Prop41ColorIndex
 90
       18
102
RTVSPost2010Prop41ColorRGB
 90
        0
102
RTVSPost2010PropOp41
 70
     1
102
RTVSPost2010Prop42
 90
       50
102
RTVSPost2010PropOp42
 70
     1
102
RTVSPost2010Prop43
 90
        3
102
RTVSPost2010PropOp43
 70
     1
102
RTVSPost2010Prop44ColorIndex
 90
        5
102
RTVSPost2010Prop44ColorRGB
 90
      255
102
RTVSPost2010PropOp44
 70
     1
102
RTVSPost2010Prop45
280
     0
102
RTVSPost2010PropOp45
 70
     1
102
RTVSPost2010Prop46
 90
       50
102
RTVSPost2010PropOp46
 70
     1
102
RTVSPost2010Prop47
 90
       50
102
RTVSPost2010PropOp47
 70
     1
102
RTVSPost2010Prop48
 90
       50
102
RTVSPost2010PropOp48
 70
     1
102
RTVSPost2010Prop49
280
     0
102
RTVSPost2010PropOp49
 70
     1
102
RTVSPost2010Prop50
 90
       50
102
RTVSPost2010PropOp50
 70
     1
102
RTVSPost2010Prop51ColorIndex
 90
      256
102
RTVSPost2010Prop51ColorRGB
 90
-16777216
102
RTVSPost2010PropOp51
 70
     0
102
RTVSPost2010Prop52
140
1.0
102
RTVSPost2010PropOp52
 70
     0
102
RTVSPost2010Prop53
 90
        2
102
RTVSPost2010PropOp53
 70
     1
102
RTVSPost2010Prop54
  1
strokes_ogs.tif
102
RTVSPost2010PropOp54
 70
     1
102
RTVSPost2010Prop55
280
     0
102
RTVSPost2010PropOp55
 70
     1
102
RTVSPost2010Prop56
140
1.0
102
RTVSPost2010PropOp56
 70
     1
102
RTVSPost2010Prop57
140
1.0
102
RTVSPost2010PropOp57
 70
     1
  0
XRECORD
  5
68F
102
{ACAD_REACTORS
330
68E
102
}
330
68E
100
AcDbXrecord
280
     1
102
RTVSPropertyOp0
 70
     1
102
RTVSPropertyOp1
 70
     1
102
RTVSPropertyOp2
 70
     1
102
RTVSPropertyOp3
 70
     1
102
RTVSPropertyOp4
 70
     1
102
RTVSPropertyOp5
 70
     1
102
RTVSPropertyOp6
 70
     1
102
RTVSPropertyOp7
 70
     1
102
RTVSPropertyOp8
 70
     1
102
RTVSPropertyOp9
 70
     1
102
RTVSPropertyOp10
 70
     1
102
RTVSPropertyOp11
 70
     1
102
RTVSPropertyOp12
 70
     1
102
RTVSPropertyOp13
 70
     1
102
RTVSPropertyOp14
 70
     1
102
RTVSPropertyOp15
 70
     1
102
RTVSPropertyOp16
 70
     1
102
RTVSPropertyOp17
 70
     1
102
RTVSPropertyOp18
 70
     1
102
RTVSPropertyOp19
 70
     1
102
RTVSPropertyOp20
 70
     1
102
RTVSPropertyOp21
 70
     1
102
RTVSPropertyOp22
 70
     1
102
RTVSPropertyOp23
 70
     1
102
RTVSPropertyOp24
 70
     1
102
RTVSPropertyOp25
 70
     1
102
RTVSPropertyOp26
 70
     1
102
RTVSPropertyOp27
 70
     1
102
RTVSPropertyOp28
 70
     1
102
RTVSPropertyOp29
 70
     1
102
RTVSPropertyOp30
 70
     1
102
RTVSPropertyOp31
 70
     1
102
RTVSPropertyOp32
 70
     1
102
RTVSPropertyOp33
 70
     1
102
RTVSPropertyOp34
 70
     1
102
RTVSPropertyOp35
 70
     1
102
RTVSPropertyOp36
 70
     1
102
RTVSPropertyOp37
 70
     1
102
RTVSPropertyOp38
 70
     1
102
RTVSPropertyOp39
 70
     1
102
RTVSPropertyOp40
 70
     1
102
RTVSPropertyOp41
 70
     1
102
RTVSPropertyOp42
 70
     1
102
RTVSPropertyOp43
 70
     1
102
RTVSPropertyOp44
 70
     1
102
RTVSPropertyOp45
 70
     1
102
RTVSPropertyOp46
 70
     1
102
RTVSPropertyOp47
 70
     1
102
RTVSPropertyOp48
 70
     1
102
RTVSPropertyOp49
 70
     1
102
RTVSPropertyOp50
 70
     1
102
RTVSPropertyOp51
 70
     0
102
RTVSPropertyOp52
 70
     0
102
RTVSPropertyOp53
 70
     1
102
RTVSPropertyOp54
 70
     1
102
RTVSPropertyOp55
 70
     1
102
RTVSPropertyOp56
 70
     1
102
RTVSPropertyOp57
 70
     1
102
RTVSPost2010Prop28
280
     0
102
RTVSPost2010PropOp28
 70
     1
102
RTVSPost2010Prop29
280
     1
102
RTVSPost2010PropOp29
 70
     1
102
RTVSPost2010Prop30
280
     1
102
RTVSPost2010PropOp30
 70
     1
102
RTVSPost2010Prop31
280
     0
102
RTVSPost2010PropOp31
 70
     1
102
RTVSPost2010Prop32
280
     0
102
RTVSPost2010PropOp32
 70
     1
102
RTVSPost2010Prop33
280
     0
102
RTVSPost2010PropOp33
 70
     1
102
RTVSPost2010Prop34
280
     0
102
RTVSPost2010PropOp34
 70
     1
102
RTVSPost2010Prop35
280
     0
102
RTVSPost2010PropOp35
 70
     1
102
RTVSPost2010Prop36
280
     0
102
RTVSPost2010PropOp36
 70
     1
102
RTVSPost2010Prop37
 90
       50
102
RTVSPost2010PropOp37
 70
     1
102
RTVSPost2010Prop38
140
0.0
102
RTVSPost2010PropOp38
 70
     1
102
RTVSPost2010Prop39
140
1.0
102
RTVSPost2010PropOp39
 70
     1
102
RTVSPost2010Prop40
 90
        0
102
RTVSPost2010PropOp40
 70
     1
102
RTVSPost2010Prop41ColorIndex
 90
       18
102
RTVSPost2010Prop41ColorRGB
 90
        0
102
RTVSPost2010PropOp41
 70
     1
102
RTVSPost2010Prop42
 90
       50
102
RTVSPost2010PropOp42
 70
     1
102
RTVSPost2010Prop43
 90
        3
102
RTVSPost2010PropOp43
 70
     1
102
RTVSPost2010Prop44ColorIndex
 90
        5
102
RTVSPost2010Prop44ColorRGB
 90
      255
102
RTVSPost2010PropOp44
 70
     1
102
RTVSPost2010Prop45
280
     0
102
RTVSPost2010PropOp45
 70
     1
102
RTVSPost2010Prop46
 90
       50
102
RTVSPost2010PropOp46
 70
     1
102
RTVSPost2010Prop47
 90
       50
102
RTVSPost2010PropOp47
 70
     1
102
RTVSPost2010Prop48
 90
       50
102
RTVSPost2010PropOp48
 70
     1
102
RTVSPost2010Prop49
280
     0
102
RTVSPost2010PropOp49
 70
     1
102
RTVSPost2010Prop50
 90
       50
102
RTVSPost2010PropOp50
 70
     1
102
RTVSPost2010Prop51ColorIndex
 90
      256
102
RTVSPost2010Prop51ColorRGB
 90
-16777216
102
RTVSPost2010PropOp51
 70
     0
102
RTVSPost2010Prop52
140
1.0
102
RTVSPost2010PropOp52
 70
     0
102
RTVSPost2010Prop53
 90
        2
102
RTVSPost2010PropOp53
 70
     1
102
RTVSPost2010Prop54
  1
strokes_ogs.tif
102
RTVSPost2010PropOp54
 70
     1
102
RTVSPost2010Prop55
280
     0
102
RTVSPost2010PropOp55
 70
     1
102
RTVSPost2010Prop56
140
1.0
102
RTVSPost2010PropOp56
 70
     1
102
RTVSPost2010Prop57
140
1.0
102
RTVSPost2010PropOp57
 70
     1
  0
XRECORD
  5
691
102
{ACAD_REACTORS
330
690
102
}
330
690
100
AcDbXrecord
280
     1
102
RTVSPropertyOp0
 70
     1
102
RTVSPropertyOp1
 70
     1
102
RTVSPropertyOp2
 70
     1
102
RTVSPropertyOp3
 70
     1
102
RTVSPropertyOp4
 70
     1
102
RTVSPropertyOp5
 70
     1
102
RTVSPropertyOp6
 70
     1
102
RTVSPropertyOp7
 70
     1
102
RTVSPropertyOp8
 70
     1
102
RTVSPropertyOp9
 70
     1
102
RTVSPropertyOp10
 70
     1
102
RTVSPropertyOp11
 70
     1
102
RTVSPropertyOp12
 70
     1
102
RTVSPropertyOp13
 70
     1
102
RTVSPropertyOp14
 70
     1
102
RTVSPropertyOp15
 70
     1
102
RTVSPropertyOp16
 70
     1
102
RTVSPropertyOp17
 70
     1
102
RTVSPropertyOp18
 70
     1
102
RTVSPropertyOp19
 70
     1
102
RTVSPropertyOp20
 70
     1
102
RTVSPropertyOp21
 70
     1
102
RTVSPropertyOp22
 70
     1
102
RTVSPropertyOp23
 70
     1
102
RTVSPropertyOp24
 70
     1
102
RTVSPropertyOp25
 70
     1
102
RTVSPropertyOp26
 70
     1
102
RTVSPropertyOp27
 70
     1
102
RTVSPropertyOp28
 70
     1
102
RTVSPropertyOp29
 70
     1
102
RTVSPropertyOp30
 70
     1
102
RTVSPropertyOp31
 70
     1
102
RTVSPropertyOp32
 70
     1
102
RTVSPropertyOp33
 70
     1
102
RTVSPropertyOp34
 70
     1
102
RTVSPropertyOp35
 70
     1
102
RTVSPropertyOp36
 70
     1
102
RTVSPropertyOp37
 70
     1
102
RTVSPropertyOp38
 70
     1
102
RTVSPropertyOp39
 70
     1
102
RTVSPropertyOp40
 70
     1
102
RTVSPropertyOp41
 70
     1
102
RTVSPropertyOp42
 70
     1
102
RTVSPropertyOp43
 70
     1
102
RTVSPropertyOp44
 70
     1
102
RTVSPropertyOp45
 70
     1
102
RTVSPropertyOp46
 70
     1
102
RTVSPropertyOp47
 70
     1
102
RTVSPropertyOp48
 70
     1
102
RTVSPropertyOp49
 70
     1
102
RTVSPropertyOp50
 70
     1
102
RTVSPropertyOp51
 70
     0
102
RTVSPropertyOp52
 70
     0
102
RTVSPropertyOp53
 70
     1
102
RTVSPropertyOp54
 70
     1
102
RTVSPropertyOp55
 70
     1
102
RTVSPropertyOp56
 70
     1
102
RTVSPropertyOp57
 70
     1
102
RTVSPost2010Prop28
280
     0
102
RTVSPost2010PropOp28
 70
     1
102
RTVSPost2010Prop29
280
     1
102
RTVSPost2010PropOp29
 70
     1
102
RTVSPost2010Prop30
280
     1
102
RTVSPost2010PropOp30
 70
     1
102
RTVSPost2010Prop31
280
     0
102
RTVSPost2010PropOp31
 70
     1
102
RTVSPost2010Prop32
280
     0
102
RTVSPost2010PropOp32
 70
     1
102
RTVSPost2010Prop33
280
     0
102
RTVSPost2010PropOp33
 70
     1
102
RTVSPost2010Prop34
280
     0
102
RTVSPost2010PropOp34
 70
     1
102
RTVSPost2010Prop35
280
     0
102
RTVSPost2010PropOp35
 70
     1
102
RTVSPost2010Prop36
280
     0
102
RTVSPost2010PropOp36
 70
     1
102
RTVSPost2010Prop37
 90
       50
102
RTVSPost2010PropOp37
 70
     1
102
RTVSPost2010Prop38
140
0.0
102
RTVSPost2010PropOp38
 70
     1
102
RTVSPost2010Prop39
140
1.0
102
RTVSPost2010PropOp39
 70
     1
102
RTVSPost2010Prop40
 90
        0
102
RTVSPost2010PropOp40
 70
     1
102
RTVSPost2010Prop41ColorIndex
 90
       18
102
RTVSPost2010Prop41ColorRGB
 90
        0
102
RTVSPost2010PropOp41
 70
     1
102
RTVSPost2010Prop42
 90
       50
102
RTVSPost2010PropOp42
 70
     1
102
RTVSPost2010Prop43
 90
        3
102
RTVSPost2010PropOp43
 70
     1
102
RTVSPost2010Prop44ColorIndex
 90
        5
102
RTVSPost2010Prop44ColorRGB
 90
      255
102
RTVSPost2010PropOp44
 70
     1
102
RTVSPost2010Prop45
280
     0
102
RTVSPost2010PropOp45
 70
     1
102
RTVSPost2010Prop46
 90
       50
102
RTVSPost2010PropOp46
 70
     1
102
RTVSPost2010Prop47
 90
       50
102
RTVSPost2010PropOp47
 70
     1
102
RTVSPost2010Prop48
 90
       50
102
RTVSPost2010PropOp48
 70
     1
102
RTVSPost2010Prop49
280
     0
102
RTVSPost2010PropOp49
 70
     1
102
RTVSPost2010Prop50
 90
       50
102
RTVSPost2010PropOp50
 70
     1
102
RTVSPost2010Prop51ColorIndex
 90
      256
102
RTVSPost2010Prop51ColorRGB
 90
-16777216
102
RTVSPost2010PropOp51
 70
     0
102
RTVSPost2010Prop52
140
1.0
102
RTVSPost2010PropOp52
 70
     0
102
RTVSPost2010Prop53
 90
        2
102
RTVSPost2010PropOp53
 70
     1
102
RTVSPost2010Prop54
  1
strokes_ogs.tif
102
RTVSPost2010PropOp54
 70
     1
102
RTVSPost2010Prop55
280
     0
102
RTVSPost2010PropOp55
 70
     1
102
RTVSPost2010Prop56
140
1.0
102
RTVSPost2010PropOp56
 70
     1
102
RTVSPost2010Prop57
140
1.0
102
RTVSPost2010PropOp57
 70
     1
  0
XRECORD
  5
6A1
102
{ACAD_REACTORS
330
6A0
102
}
330
6A0
100
AcDbXrecord
280
     1
102
RTVSPropertyOp0
 70
     0
102
RTVSPropertyOp1
 70
     0
102
RTVSPropertyOp2
 70
     0
102
RTVSPropertyOp3
 70
     0
102
RTVSPropertyOp4
 70
     0
102
RTVSPropertyOp5
 70
     0
102
RTVSPropertyOp6
 70
     0
102
RTVSPropertyOp7
 70
     0
102
RTVSPropertyOp8
 70
     0
102
RTVSPropertyOp9
 70
     0
102
RTVSPropertyOp10
 70
     0
102
RTVSPropertyOp11
 70
     0
102
RTVSPropertyOp12
 70
     0
102
RTVSPropertyOp13
 70
     0
102
RTVSPropertyOp14
 70
     0
102
RTVSPropertyOp15
 70
     0
102
RTVSPropertyOp16
 70
     0
102
RTVSPropertyOp17
 70
     0
102
RTVSPropertyOp18
 70
     0
102
RTVSPropertyOp19
 70
     0
102
RTVSPropertyOp20
 70
     0
102
RTVSPropertyOp21
 70
     0
102
RTVSPropertyOp22
 70
     0
102
RTVSPropertyOp23
 70
     0
102
RTVSPropertyOp24
 70
     0
102
RTVSPropertyOp25
 70
     0
102
RTVSPropertyOp26
 70
     0
102
RTVSPropertyOp27
 70
     0
102
RTVSPropertyOp28
 70
     1
102
RTVSPropertyOp29
 70
     1
102
RTVSPropertyOp30
 70
     1
102
RTVSPropertyOp31
 70
     1
102
RTVSPropertyOp32
 70
     1
102
RTVSPropertyOp33
 70
     1
102
RTVSPropertyOp34
 70
     1
102
RTVSPropertyOp35
 70
     1
102
RTVSPropertyOp36
 70
     1
102
RTVSPropertyOp37
 70
     1
102
RTVSPropertyOp38
 70
     1
102
RTVSPropertyOp39
 70
     1
102
RTVSPropertyOp40
 70
     1
102
RTVSPropertyOp41
 70
     1
102
RTVSPropertyOp42
 70
     1
102
RTVSPropertyOp43
 70
     1
102
RTVSPropertyOp44
 70
     1
102
RTVSPropertyOp45
 70
     1
102
RTVSPropertyOp46
 70
     1
102
RTVSPropertyOp47
 70
     1
102
RTVSPropertyOp48
 70
     1
102
RTVSPropertyOp49
 70
     1
102
RTVSPropertyOp50
 70
     1
102
RTVSPropertyOp51
 70
     0
102
RTVSPropertyOp52
 70
     0
102
RTVSPropertyOp53
 70
     1
102
RTVSPropertyOp54
 70
     1
102
RTVSPropertyOp55
 70
     1
102
RTVSPropertyOp56
 70
     1
102
RTVSPropertyOp57
 70
     1
102
RTVSPost2010Prop28
280
     0
102
RTVSPost2010PropOp28
 70
     1
102
RTVSPost2010Prop29
280
     1
102
RTVSPost2010PropOp29
 70
     1
102
RTVSPost2010Prop30
280
     1
102
RTVSPost2010PropOp30
 70
     1
102
RTVSPost2010Prop31
280
     0
102
RTVSPost2010PropOp31
 70
     1
102
RTVSPost2010Prop32
280
     0
102
RTVSPost2010PropOp32
 70
     1
102
RTVSPost2010Prop33
280
     0
102
RTVSPost2010PropOp33
 70
     1
102
RTVSPost2010Prop34
280
     0
102
RTVSPost2010PropOp34
 70
     1
102
RTVSPost2010Prop35
280
     0
102
RTVSPost2010PropOp35
 70
     1
102
RTVSPost2010Prop36
280
     0
102
RTVSPost2010PropOp36
 70
     1
102
RTVSPost2010Prop37
 90
       50
102
RTVSPost2010PropOp37
 70
     1
102
RTVSPost2010Prop38
140
0.0
102
RTVSPost2010PropOp38
 70
     1
102
RTVSPost2010Prop39
140
1.0
102
RTVSPost2010PropOp39
 70
     1
102
RTVSPost2010Prop40
 90
        0
102
RTVSPost2010PropOp40
 70
     1
102
RTVSPost2010Prop41ColorIndex
 90
       18
102
RTVSPost2010Prop41ColorRGB
 90
        0
102
RTVSPost2010PropOp41
 70
     1
102
RTVSPost2010Prop42
 90
       50
102
RTVSPost2010PropOp42
 70
     1
102
RTVSPost2010Prop43
 90
        3
102
RTVSPost2010PropOp43
 70
     1
102
RTVSPost2010Prop44ColorIndex
 90
        5
102
RTVSPost2010Prop44ColorRGB
 90
      255
102
RTVSPost2010PropOp44
 70
     1
102
RTVSPost2010Prop45
280
     0
102
RTVSPost2010PropOp45
 70
     1
102
RTVSPost2010Prop46
 90
       50
102
RTVSPost2010PropOp46
 70
     1
102
RTVSPost2010Prop47
 90
       50
102
RTVSPost2010PropOp47
 70
     1
102
RTVSPost2010Prop48
 90
       50
102
RTVSPost2010PropOp48
 70
     1
102
RTVSPost2010Prop49
280
     0
102
RTVSPost2010PropOp49
 70
     1
102
RTVSPost2010Prop50
 90
       50
102
RTVSPost2010PropOp50
 70
     1
102
RTVSPost2010Prop51ColorIndex
 90
      256
102
RTVSPost2010Prop51ColorRGB
 90
-16777216
102
RTVSPost2010PropOp51
 70
     0
102
RTVSPost2010Prop52
140
1.0
102
RTVSPost2010PropOp52
 70
     0
102
RTVSPost2010Prop53
 90
        2
102
RTVSPost2010PropOp53
 70
     1
102
RTVSPost2010Prop54
  1
strokes_ogs.tif
102
RTVSPost2010PropOp54
 70
     1
102
RTVSPost2010Prop55
280
     0
102
RTVSPost2010PropOp55
 70
     1
102
RTVSPost2010Prop56
140
1.0
102
RTVSPost2010PropOp56
 70
     1
102
RTVSPost2010Prop57
140
1.0
102
RTVSPost2010PropOp57
 70
     1
  0
XRECORD
  5
699
102
{ACAD_REACTORS
330
698
102
}
330
698
100
AcDbXrecord
280
     1
102
RTVSPropertyOp0
 70
     1
102
RTVSPropertyOp1
 70
     1
102
RTVSPropertyOp2
 70
     1
102
RTVSPropertyOp3
 70
     1
102
RTVSPropertyOp4
 70
     1
102
RTVSPropertyOp5
 70
     1
102
RTVSPropertyOp6
 70
     1
102
RTVSPropertyOp7
 70
     1
102
RTVSPropertyOp8
 70
     1
102
RTVSPropertyOp9
 70
     1
102
RTVSPropertyOp10
 70
     1
102
RTVSPropertyOp11
 70
     1
102
RTVSPropertyOp12
 70
     1
102
RTVSPropertyOp13
 70
     1
102
RTVSPropertyOp14
 70
     1
102
RTVSPropertyOp15
 70
     1
102
RTVSPropertyOp16
 70
     1
102
RTVSPropertyOp17
 70
     1
102
RTVSPropertyOp18
 70
     1
102
RTVSPropertyOp19
 70
     1
102
RTVSPropertyOp20
 70
     1
102
RTVSPropertyOp21
 70
     1
102
RTVSPropertyOp22
 70
     1
102
RTVSPropertyOp23
 70
     1
102
RTVSPropertyOp24
 70
     1
102
RTVSPropertyOp25
 70
     1
102
RTVSPropertyOp26
 70
     1
102
RTVSPropertyOp27
 70
     1
102
RTVSPropertyOp28
 70
     1
102
RTVSPropertyOp29
 70
     1
102
RTVSPropertyOp30
 70
     1
102
RTVSPropertyOp31
 70
     1
102
RTVSPropertyOp32
 70
     1
102
RTVSPropertyOp33
 70
     1
102
RTVSPropertyOp34
 70
     1
102
RTVSPropertyOp35
 70
     1
102
RTVSPropertyOp36
 70
     1
102
RTVSPropertyOp37
 70
     1
102
RTVSPropertyOp38
 70
     1
102
RTVSPropertyOp39
 70
     1
102
RTVSPropertyOp40
 70
     1
102
RTVSPropertyOp41
 70
     1
102
RTVSPropertyOp42
 70
     1
102
RTVSPropertyOp43
 70
     1
102
RTVSPropertyOp44
 70
     1
102
RTVSPropertyOp45
 70
     1
102
RTVSPropertyOp46
 70
     1
102
RTVSPropertyOp47
 70
     1
102
RTVSPropertyOp48
 70
     1
102
RTVSPropertyOp49
 70
     1
102
RTVSPropertyOp50
 70
     1
102
RTVSPropertyOp51
 70
     0
102
RTVSPropertyOp52
 70
     0
102
RTVSPropertyOp53
 70
     1
102
RTVSPropertyOp54
 70
     1
102
RTVSPropertyOp55
 70
     1
102
RTVSPropertyOp56
 70
     1
102
RTVSPropertyOp57
 70
     1
102
RTVSPost2010Prop28
280
     0
102
RTVSPost2010PropOp28
 70
     1
102
RTVSPost2010Prop29
280
     1
102
RTVSPost2010PropOp29
 70
     1
102
RTVSPost2010Prop30
280
     1
102
RTVSPost2010PropOp30
 70
     1
102
RTVSPost2010Prop31
280
     0
102
RTVSPost2010PropOp31
 70
     1
102
RTVSPost2010Prop32
280
     0
102
RTVSPost2010PropOp32
 70
     1
102
RTVSPost2010Prop33
280
     0
102
RTVSPost2010PropOp33
 70
     1
102
RTVSPost2010Prop34
280
     0
102
RTVSPost2010PropOp34
 70
     1
102
RTVSPost2010Prop35
280
     0
102
RTVSPost2010PropOp35
 70
     1
102
RTVSPost2010Prop36
280
     0
102
RTVSPost2010PropOp36
 70
     1
102
RTVSPost2010Prop37
 90
       50
102
RTVSPost2010PropOp37
 70
     1
102
RTVSPost2010Prop38
140
0.0
102
RTVSPost2010PropOp38
 70
     1
102
RTVSPost2010Prop39
140
1.0
102
RTVSPost2010PropOp39
 70
     1
102
RTVSPost2010Prop40
 90
        0
102
RTVSPost2010PropOp40
 70
     1
102
RTVSPost2010Prop41ColorIndex
 90
       18
102
RTVSPost2010Prop41ColorRGB
 90
        0
102
RTVSPost2010PropOp41
 70
     1
102
RTVSPost2010Prop42
 90
       50
102
RTVSPost2010PropOp42
 70
     1
102
RTVSPost2010Prop43
 90
        3
102
RTVSPost2010PropOp43
 70
     1
102
RTVSPost2010Prop44ColorIndex
 90
        5
102
RTVSPost2010Prop44ColorRGB
 90
      255
102
RTVSPost2010PropOp44
 70
     1
102
RTVSPost2010Prop45
280
     0
102
RTVSPost2010PropOp45
 70
     1
102
RTVSPost2010Prop46
 90
       50
102
RTVSPost2010PropOp46
 70
     1
102
RTVSPost2010Prop47
 90
       50
102
RTVSPost2010PropOp47
 70
     1
102
RTVSPost2010Prop48
 90
       50
102
RTVSPost2010PropOp48
 70
     1
102
RTVSPost2010Prop49
280
     0
102
RTVSPost2010PropOp49
 70
     1
102
RTVSPost2010Prop50
 90
       50
102
RTVSPost2010PropOp50
 70
     1
102
RTVSPost2010Prop51ColorIndex
 90
      256
102
RTVSPost2010Prop51ColorRGB
 90
-16777216
102
RTVSPost2010PropOp51
 70
     0
102
RTVSPost2010Prop52
140
1.0
102
RTVSPost2010PropOp52
 70
     0
102
RTVSPost2010Prop53
 90
        2
102
RTVSPost2010PropOp53
 70
     1
102
RTVSPost2010Prop54
  1
strokes_ogs.tif
102
RTVSPost2010PropOp54
 70
     1
102
RTVSPost2010Prop55
280
     0
102
RTVSPost2010PropOp55
 70
     1
102
RTVSPost2010Prop56
140
1.0
102
RTVSPost2010PropOp56
 70
     1
102
RTVSPost2010Prop57
140
1.0
102
RTVSPost2010PropOp57
 70
     1
  0
XRECORD
  5
67D
102
{ACAD_REACTORS
330
67C
102
}
330
67C
100
AcDbXrecord
280
     1
102
RTVSPropertyOp0
 70
     1
102
RTVSPropertyOp1
 70
     1
102
RTVSPropertyOp2
 70
     1
102
RTVSPropertyOp3
 70
     1
102
RTVSPropertyOp4
 70
     1
102
RTVSPropertyOp5
 70
     1
102
RTVSPropertyOp6
 70
     1
102
RTVSPropertyOp7
 70
     1
102
RTVSPropertyOp8
 70
     1
102
RTVSPropertyOp9
 70
     1
102
RTVSPropertyOp10
 70
     1
102
RTVSPropertyOp11
 70
     1
102
RTVSPropertyOp12
 70
     1
102
RTVSPropertyOp13
 70
     1
102
RTVSPropertyOp14
 70
     1
102
RTVSPropertyOp15
 70
     1
102
RTVSPropertyOp16
 70
     1
102
RTVSPropertyOp17
 70
     1
102
RTVSPropertyOp18
 70
     1
102
RTVSPropertyOp19
 70
     1
102
RTVSPropertyOp20
 70
     1
102
RTVSPropertyOp21
 70
     1
102
RTVSPropertyOp22
 70
     1
102
RTVSPropertyOp23
 70
     1
102
RTVSPropertyOp24
 70
     1
102
RTVSPropertyOp25
 70
     1
102
RTVSPropertyOp26
 70
     1
102
RTVSPropertyOp27
 70
     1
102
RTVSPropertyOp28
 70
     1
102
RTVSPropertyOp29
 70
     1
102
RTVSPropertyOp30
 70
     1
102
RTVSPropertyOp31
 70
     1
102
RTVSPropertyOp32
 70
     1
102
RTVSPropertyOp33
 70
     1
102
RTVSPropertyOp34
 70
     1
102
RTVSPropertyOp35
 70
     1
102
RTVSPropertyOp36
 70
     1
102
RTVSPropertyOp37
 70
     1
102
RTVSPropertyOp38
 70
     1
102
RTVSPropertyOp39
 70
     1
102
RTVSPropertyOp40
 70
     1
102
RTVSPropertyOp41
 70
     1
102
RTVSPropertyOp42
 70
     1
102
RTVSPropertyOp43
 70
     1
102
RTVSPropertyOp44
 70
     1
102
RTVSPropertyOp45
 70
     1
102
RTVSPropertyOp46
 70
     1
102
RTVSPropertyOp47
 70
     1
102
RTVSPropertyOp48
 70
     1
102
RTVSPropertyOp49
 70
     1
102
RTVSPropertyOp50
 70
     1
102
RTVSPropertyOp51
 70
     0
102
RTVSPropertyOp52
 70
     0
102
RTVSPropertyOp53
 70
     1
102
RTVSPropertyOp54
 70
     1
102
RTVSPropertyOp55
 70
     1
102
RTVSPropertyOp56
 70
     1
102
RTVSPropertyOp57
 70
     1
102
RTVSPost2010Prop28
280
     0
102
RTVSPost2010PropOp28
 70
     1
102
RTVSPost2010Prop29
280
     1
102
RTVSPost2010PropOp29
 70
     1
102
RTVSPost2010Prop30
280
     1
102
RTVSPost2010PropOp30
 70
     1
102
RTVSPost2010Prop31
280
     0
102
RTVSPost2010PropOp31
 70
     1
102
RTVSPost2010Prop32
280
     0
102
RTVSPost2010PropOp32
 70
     1
102
RTVSPost2010Prop33
280
     0
102
RTVSPost2010PropOp33
 70
     1
102
RTVSPost2010Prop34
280
     0
102
RTVSPost2010PropOp34
 70
     1
102
RTVSPost2010Prop35
280
     0
102
RTVSPost2010PropOp35
 70
     1
102
RTVSPost2010Prop36
280
     0
102
RTVSPost2010PropOp36
 70
     1
102
RTVSPost2010Prop37
 90
       50
102
RTVSPost2010PropOp37
 70
     1
102
RTVSPost2010Prop38
140
0.0
102
RTVSPost2010PropOp38
 70
     1
102
RTVSPost2010Prop39
140
1.0
102
RTVSPost2010PropOp39
 70
     1
102
RTVSPost2010Prop40
 90
        0
102
RTVSPost2010PropOp40
 70
     1
102
RTVSPost2010Prop41ColorIndex
 90
       18
102
RTVSPost2010Prop41ColorRGB
 90
        0
102
RTVSPost2010PropOp41
 70
     1
102
RTVSPost2010Prop42
 90
       50
102
RTVSPost2010PropOp42
 70
     1
102
RTVSPost2010Prop43
 90
        3
102
RTVSPost2010PropOp43
 70
     1
102
RTVSPost2010Prop44ColorIndex
 90
        5
102
RTVSPost2010Prop44ColorRGB
 90
      255
102
RTVSPost2010PropOp44
 70
     1
102
RTVSPost2010Prop45
280
     0
102
RTVSPost2010PropOp45
 70
     1
102
RTVSPost2010Prop46
 90
       50
102
RTVSPost2010PropOp46
 70
     1
102
RTVSPost2010Prop47
 90
       50
102
RTVSPost2010PropOp47
 70
     1
102
RTVSPost2010Prop48
 90
       50
102
RTVSPost2010PropOp48
 70
     1
102
RTVSPost2010Prop49
280
     0
102
RTVSPost2010PropOp49
 70
     1
102
RTVSPost2010Prop50
 90
       50
102
RTVSPost2010PropOp50
 70
     1
102
RTVSPost2010Prop51ColorIndex
 90
      256
102
RTVSPost2010Prop51ColorRGB
 90
-16777216
102
RTVSPost2010PropOp51
 70
     0
102
RTVSPost2010Prop52
140
1.0
102
RTVSPost2010PropOp52
 70
     0
102
RTVSPost2010Prop53
 90
        2
102
RTVSPost2010PropOp53
 70
     1
102
RTVSPost2010Prop54
  1
strokes_ogs.tif
102
RTVSPost2010PropOp54
 70
     1
102
RTVSPost2010Prop55
280
     0
102
RTVSPost2010PropOp55
 70
     1
102
RTVSPost2010Prop56
140
1.0
102
RTVSPost2010PropOp56
 70
     1
102
RTVSPost2010Prop57
140
1.0
102
RTVSPost2010PropOp57
 70
     1
  0
XRECORD
  5
67F
102
{ACAD_REACTORS
330
67E
102
}
330
67E
100
AcDbXrecord
280
     1
102
RTVSPropertyOp0
 70
     1
102
RTVSPropertyOp1
 70
     1
102
RTVSPropertyOp2
 70
     1
102
RTVSPropertyOp3
 70
     1
102
RTVSPropertyOp4
 70
     1
102
RTVSPropertyOp5
 70
     1
102
RTVSPropertyOp6
 70
     1
102
RTVSPropertyOp7
 70
     1
102
RTVSPropertyOp8
 70
     1
102
RTVSPropertyOp9
 70
     1
102
RTVSPropertyOp10
 70
     1
102
RTVSPropertyOp11
 70
     1
102
RTVSPropertyOp12
 70
     1
102
RTVSPropertyOp13
 70
     1
102
RTVSPropertyOp14
 70
     1
102
RTVSPropertyOp15
 70
     1
102
RTVSPropertyOp16
 70
     1
102
RTVSPropertyOp17
 70
     1
102
RTVSPropertyOp18
 70
     1
102
RTVSPropertyOp19
 70
     1
102
RTVSPropertyOp20
 70
     1
102
RTVSPropertyOp21
 70
     1
102
RTVSPropertyOp22
 70
     1
102
RTVSPropertyOp23
 70
     1
102
RTVSPropertyOp24
 70
     1
102
RTVSPropertyOp25
 70
     1
102
RTVSPropertyOp26
 70
     1
102
RTVSPropertyOp27
 70
     1
102
RTVSPropertyOp28
 70
     1
102
RTVSPropertyOp29
 70
     1
102
RTVSPropertyOp30
 70
     1
102
RTVSPropertyOp31
 70
     1
102
RTVSPropertyOp32
 70
     1
102
RTVSPropertyOp33
 70
     1
102
RTVSPropertyOp34
 70
     1
102
RTVSPropertyOp35
 70
     1
102
RTVSPropertyOp36
 70
     1
102
RTVSPropertyOp37
 70
     1
102
RTVSPropertyOp38
 70
     1
102
RTVSPropertyOp39
 70
     1
102
RTVSPropertyOp40
 70
     1
102
RTVSPropertyOp41
 70
     1
102
RTVSPropertyOp42
 70
     1
102
RTVSPropertyOp43
 70
     1
102
RTVSPropertyOp44
 70
     1
102
RTVSPropertyOp45
 70
     1
102
RTVSPropertyOp46
 70
     1
102
RTVSPropertyOp47
 70
     1
102
RTVSPropertyOp48
 70
     1
102
RTVSPropertyOp49
 70
     1
102
RTVSPropertyOp50
 70
     1
102
RTVSPropertyOp51
 70
     0
102
RTVSPropertyOp52
 70
     0
102
RTVSPropertyOp53
 70
     1
102
RTVSPropertyOp54
 70
     1
102
RTVSPropertyOp55
 70
     1
102
RTVSPropertyOp56
 70
     1
102
RTVSPropertyOp57
 70
     1
102
RTVSPost2010Prop28
280
     0
102
RTVSPost2010PropOp28
 70
     1
102
RTVSPost2010Prop29
280
     1
102
RTVSPost2010PropOp29
 70
     1
102
RTVSPost2010Prop30
280
     1
102
RTVSPost2010PropOp30
 70
     1
102
RTVSPost2010Prop31
280
     0
102
RTVSPost2010PropOp31
 70
     1
102
RTVSPost2010Prop32
280
     0
102
RTVSPost2010PropOp32
 70
     1
102
RTVSPost2010Prop33
280
     0
102
RTVSPost2010PropOp33
 70
     1
102
RTVSPost2010Prop34
280
     0
102
RTVSPost2010PropOp34
 70
     1
102
RTVSPost2010Prop35
280
     0
102
RTVSPost2010PropOp35
 70
     1
102
RTVSPost2010Prop36
280
     0
102
RTVSPost2010PropOp36
 70
     1
102
RTVSPost2010Prop37
 90
       50
102
RTVSPost2010PropOp37
 70
     1
102
RTVSPost2010Prop38
140
0.0
102
RTVSPost2010PropOp38
 70
     1
102
RTVSPost2010Prop39
140
1.0
102
RTVSPost2010PropOp39
 70
     1
102
RTVSPost2010Prop40
 90
        0
102
RTVSPost2010PropOp40
 70
     1
102
RTVSPost2010Prop41ColorIndex
 90
       18
102
RTVSPost2010Prop41ColorRGB
 90
        0
102
RTVSPost2010PropOp41
 70
     1
102
RTVSPost2010Prop42
 90
       50
102
RTVSPost2010PropOp42
 70
     1
102
RTVSPost2010Prop43
 90
        3
102
RTVSPost2010PropOp43
 70
     1
102
RTVSPost2010Prop44ColorIndex
 90
        5
102
RTVSPost2010Prop44ColorRGB
 90
      255
102
RTVSPost2010PropOp44
 70
     1
102
RTVSPost2010Prop45
280
     0
102
RTVSPost2010PropOp45
 70
     1
102
RTVSPost2010Prop46
 90
       50
102
RTVSPost2010PropOp46
 70
     1
102
RTVSPost2010Prop47
 90
       50
102
RTVSPost2010PropOp47
 70
     1
102
RTVSPost2010Prop48
 90
       50
102
RTVSPost2010PropOp48
 70
     1
102
RTVSPost2010Prop49
280
     0
102
RTVSPost2010PropOp49
 70
     1
102
RTVSPost2010Prop50
 90
       50
102
RTVSPost2010PropOp50
 70
     1
102
RTVSPost2010Prop51ColorIndex
 90
      256
102
RTVSPost2010Prop51ColorRGB
 90
-16777216
102
RTVSPost2010PropOp51
 70
     0
102
RTVSPost2010Prop52
140
1.0
102
RTVSPost2010PropOp52
 70
     0
102
RTVSPost2010Prop53
 90
        2
102
RTVSPost2010PropOp53
 70
     1
102
RTVSPost2010Prop54
  1
strokes_ogs.tif
102
RTVSPost2010PropOp54
 70
     1
102
RTVSPost2010Prop55
280
     0
102
RTVSPost2010PropOp55
 70
     1
102
RTVSPost2010Prop56
140
1.0
102
RTVSPost2010PropOp56
 70
     1
102
RTVSPost2010Prop57
140
1.0
102
RTVSPost2010PropOp57
 70
     1
  0
XRECORD
  5
681
102
{ACAD_REACTORS
330
680
102
}
330
680
100
AcDbXrecord
280
     1
102
RTVSPropertyOp0
 70
     1
102
RTVSPropertyOp1
 70
     1
102
RTVSPropertyOp2
 70
     1
102
RTVSPropertyOp3
 70
     1
102
RTVSPropertyOp4
 70
     1
102
RTVSPropertyOp5
 70
     1
102
RTVSPropertyOp6
 70
     1
102
RTVSPropertyOp7
 70
     1
102
RTVSPropertyOp8
 70
     1
102
RTVSPropertyOp9
 70
     1
102
RTVSPropertyOp10
 70
     1
102
RTVSPropertyOp11
 70
     1
102
RTVSPropertyOp12
 70
     1
102
RTVSPropertyOp13
 70
     1
102
RTVSPropertyOp14
 70
     1
102
RTVSPropertyOp15
 70
     1
102
RTVSPropertyOp16
 70
     1
102
RTVSPropertyOp17
 70
     1
102
RTVSPropertyOp18
 70
     1
102
RTVSPropertyOp19
 70
     1
102
RTVSPropertyOp20
 70
     1
102
RTVSPropertyOp21
 70
     1
102
RTVSPropertyOp22
 70
     1
102
RTVSPropertyOp23
 70
     1
102
RTVSPropertyOp24
 70
     1
102
RTVSPropertyOp25
 70
     1
102
RTVSPropertyOp26
 70
     1
102
RTVSPropertyOp27
 70
     1
102
RTVSPropertyOp28
 70
     1
102
RTVSPropertyOp29
 70
     1
102
RTVSPropertyOp30
 70
     1
102
RTVSPropertyOp31
 70
     1
102
RTVSPropertyOp32
 70
     1
102
RTVSPropertyOp33
 70
     1
102
RTVSPropertyOp34
 70
     1
102
RTVSPropertyOp35
 70
     1
102
RTVSPropertyOp36
 70
     1
102
RTVSPropertyOp37
 70
     1
102
RTVSPropertyOp38
 70
     1
102
RTVSPropertyOp39
 70
     1
102
RTVSPropertyOp40
 70
     1
102
RTVSPropertyOp41
 70
     1
102
RTVSPropertyOp42
 70
     1
102
RTVSPropertyOp43
 70
     1
102
RTVSPropertyOp44
 70
     1
102
RTVSPropertyOp45
 70
     1
102
RTVSPropertyOp46
 70
     1
102
RTVSPropertyOp47
 70
     1
102
RTVSPropertyOp48
 70
     1
102
RTVSPropertyOp49
 70
     1
102
RTVSPropertyOp50
 70
     1
102
RTVSPropertyOp51
 70
     0
102
RTVSPropertyOp52
 70
     0
102
RTVSPropertyOp53
 70
     1
102
RTVSPropertyOp54
 70
     1
102
RTVSPropertyOp55
 70
     1
102
RTVSPropertyOp56
 70
     1
102
RTVSPropertyOp57
 70
     1
102
RTVSPost2010Prop28
280
     0
102
RTVSPost2010PropOp28
 70
     1
102
RTVSPost2010Prop29
280
     1
102
RTVSPost2010PropOp29
 70
     1
102
RTVSPost2010Prop30
280
     1
102
RTVSPost2010PropOp30
 70
     1
102
RTVSPost2010Prop31
280
     0
102
RTVSPost2010PropOp31
 70
     1
102
RTVSPost2010Prop32
280
     0
102
RTVSPost2010PropOp32
 70
     1
102
RTVSPost2010Prop33
280
     0
102
RTVSPost2010PropOp33
 70
     1
102
RTVSPost2010Prop34
280
     0
102
RTVSPost2010PropOp34
 70
     1
102
RTVSPost2010Prop35
280
     0
102
RTVSPost2010PropOp35
 70
     1
102
RTVSPost2010Prop36
280
     0
102
RTVSPost2010PropOp36
 70
     1
102
RTVSPost2010Prop37
 90
       50
102
RTVSPost2010PropOp37
 70
     1
102
RTVSPost2010Prop38
140
0.0
102
RTVSPost2010PropOp38
 70
     1
102
RTVSPost2010Prop39
140
1.0
102
RTVSPost2010PropOp39
 70
     1
102
RTVSPost2010Prop40
 90
        0
102
RTVSPost2010PropOp40
 70
     1
102
RTVSPost2010Prop41ColorIndex
 90
       18
102
RTVSPost2010Prop41ColorRGB
 90
        0
102
RTVSPost2010PropOp41
 70
     1
102
RTVSPost2010Prop42
 90
       50
102
RTVSPost2010PropOp42
 70
     1
102
RTVSPost2010Prop43
 90
        3
102
RTVSPost2010PropOp43
 70
     1
102
RTVSPost2010Prop44ColorIndex
 90
        5
102
RTVSPost2010Prop44ColorRGB
 90
      255
102
RTVSPost2010PropOp44
 70
     1
102
RTVSPost2010Prop45
280
     0
102
RTVSPost2010PropOp45
 70
     1
102
RTVSPost2010Prop46
 90
       50
102
RTVSPost2010PropOp46
 70
     1
102
RTVSPost2010Prop47
 90
       50
102
RTVSPost2010PropOp47
 70
     1
102
RTVSPost2010Prop48
 90
       50
102
RTVSPost2010PropOp48
 70
     1
102
RTVSPost2010Prop49
280
     0
102
RTVSPost2010PropOp49
 70
     1
102
RTVSPost2010Prop50
 90
       50
102
RTVSPost2010PropOp50
 70
     1
102
RTVSPost2010Prop51ColorIndex
 90
      256
102
RTVSPost2010Prop51ColorRGB
 90
-16777216
102
RTVSPost2010PropOp51
 70
     0
102
RTVSPost2010Prop52
140
1.0
102
RTVSPost2010PropOp52
 70
     0
102
RTVSPost2010Prop53
 90
        2
102
RTVSPost2010PropOp53
 70
     1
102
RTVSPost2010Prop54
  1
strokes_ogs.tif
102
RTVSPost2010PropOp54
 70
     1
102
RTVSPost2010Prop55
280
     0
102
RTVSPost2010PropOp55
 70
     1
102
RTVSPost2010Prop56
140
1.0
102
RTVSPost2010PropOp56
 70
     1
102
RTVSPost2010Prop57
140
1.0
102
RTVSPost2010PropOp57
 70
     1
  0
XRECORD
  5
683
102
{ACAD_REACTORS
330
682
102
}
330
682
100
AcDbXrecord
280
     1
102
RTVSPropertyOp0
 70
     1
102
RTVSPropertyOp1
 70
     1
102
RTVSPropertyOp2
 70
     1
102
RTVSPropertyOp3
 70
     1
102
RTVSPropertyOp4
 70
     1
102
RTVSPropertyOp5
 70
     1
102
RTVSPropertyOp6
 70
     1
102
RTVSPropertyOp7
 70
     1
102
RTVSPropertyOp8
 70
     1
102
RTVSPropertyOp9
 70
     1
102
RTVSPropertyOp10
 70
     1
102
RTVSPropertyOp11
 70
     1
102
RTVSPropertyOp12
 70
     1
102
RTVSPropertyOp13
 70
     1
102
RTVSPropertyOp14
 70
     1
102
RTVSPropertyOp15
 70
     1
102
RTVSPropertyOp16
 70
     1
102
RTVSPropertyOp17
 70
     1
102
RTVSPropertyOp18
 70
     1
102
RTVSPropertyOp19
 70
     1
102
RTVSPropertyOp20
 70
     1
102
RTVSPropertyOp21
 70
     1
102
RTVSPropertyOp22
 70
     1
102
RTVSPropertyOp23
 70
     1
102
RTVSPropertyOp24
 70
     1
102
RTVSPropertyOp25
 70
     1
102
RTVSPropertyOp26
 70
     1
102
RTVSPropertyOp27
 70
     1
102
RTVSPropertyOp28
 70
     1
102
RTVSPropertyOp29
 70
     1
102
RTVSPropertyOp30
 70
     1
102
RTVSPropertyOp31
 70
     1
102
RTVSPropertyOp32
 70
     1
102
RTVSPropertyOp33
 70
     1
102
RTVSPropertyOp34
 70
     1
102
RTVSPropertyOp35
 70
     1
102
RTVSPropertyOp36
 70
     1
102
RTVSPropertyOp37
 70
     1
102
RTVSPropertyOp38
 70
     1
102
RTVSPropertyOp39
 70
     1
102
RTVSPropertyOp40
 70
     1
102
RTVSPropertyOp41
 70
     1
102
RTVSPropertyOp42
 70
     1
102
RTVSPropertyOp43
 70
     1
102
RTVSPropertyOp44
 70
     1
102
RTVSPropertyOp45
 70
     1
102
RTVSPropertyOp46
 70
     1
102
RTVSPropertyOp47
 70
     1
102
RTVSPropertyOp48
 70
     1
102
RTVSPropertyOp49
 70
     1
102
RTVSPropertyOp50
 70
     1
102
RTVSPropertyOp51
 70
     0
102
RTVSPropertyOp52
 70
     0
102
RTVSPropertyOp53
 70
     1
102
RTVSPropertyOp54
 70
     1
102
RTVSPropertyOp55
 70
     1
102
RTVSPropertyOp56
 70
     1
102
RTVSPropertyOp57
 70
     1
102
RTVSPost2010Prop28
280
     0
102
RTVSPost2010PropOp28
 70
     1
102
RTVSPost2010Prop29
280
     1
102
RTVSPost2010PropOp29
 70
     1
102
RTVSPost2010Prop30
280
     1
102
RTVSPost2010PropOp30
 70
     1
102
RTVSPost2010Prop31
280
     0
102
RTVSPost2010PropOp31
 70
     1
102
RTVSPost2010Prop32
280
     0
102
RTVSPost2010PropOp32
 70
     1
102
RTVSPost2010Prop33
280
     0
102
RTVSPost2010PropOp33
 70
     1
102
RTVSPost2010Prop34
280
     0
102
RTVSPost2010PropOp34
 70
     1
102
RTVSPost2010Prop35
280
     0
102
RTVSPost2010PropOp35
 70
     1
102
RTVSPost2010Prop36
280
     0
102
RTVSPost2010PropOp36
 70
     1
102
RTVSPost2010Prop37
 90
       50
102
RTVSPost2010PropOp37
 70
     1
102
RTVSPost2010Prop38
140
0.0
102
RTVSPost2010PropOp38
 70
     1
102
RTVSPost2010Prop39
140
1.0
102
RTVSPost2010PropOp39
 70
     1
102
RTVSPost2010Prop40
 90
        0
102
RTVSPost2010PropOp40
 70
     1
102
RTVSPost2010Prop41ColorIndex
 90
       18
102
RTVSPost2010Prop41ColorRGB
 90
        0
102
RTVSPost2010PropOp41
 70
     1
102
RTVSPost2010Prop42
 90
       50
102
RTVSPost2010PropOp42
 70
     1
102
RTVSPost2010Prop43
 90
        3
102
RTVSPost2010PropOp43
 70
     1
102
RTVSPost2010Prop44ColorIndex
 90
        5
102
RTVSPost2010Prop44ColorRGB
 90
      255
102
RTVSPost2010PropOp44
 70
     1
102
RTVSPost2010Prop45
280
     0
102
RTVSPost2010PropOp45
 70
     1
102
RTVSPost2010Prop46
 90
       50
102
RTVSPost2010PropOp46
 70
     1
102
RTVSPost2010Prop47
 90
       50
102
RTVSPost2010PropOp47
 70
     1
102
RTVSPost2010Prop48
 90
       50
102
RTVSPost2010PropOp48
 70
     1
102
RTVSPost2010Prop49
280
     0
102
RTVSPost2010PropOp49
 70
     1
102
RTVSPost2010Prop50
 90
       50
102
RTVSPost2010PropOp50
 70
     1
102
RTVSPost2010Prop51ColorIndex
 90
      256
102
RTVSPost2010Prop51ColorRGB
 90
-16777216
102
RTVSPost2010PropOp51
 70
     0
102
RTVSPost2010Prop52
140
1.0
102
RTVSPost2010PropOp52
 70
     0
102
RTVSPost2010Prop53
 90
        2
102
RTVSPost2010PropOp53
 70
     1
102
RTVSPost2010Prop54
  1
strokes_ogs.tif
102
RTVSPost2010PropOp54
 70
     1
102
RTVSPost2010Prop55
280
     0
102
RTVSPost2010PropOp55
 70
     1
102
RTVSPost2010Prop56
140
1.0
102
RTVSPost2010PropOp56
 70
     1
102
RTVSPost2010Prop57
140
1.0
102
RTVSPost2010PropOp57
 70
     1
  0
XRECORD
  5
689
102
{ACAD_REACTORS
330
688
102
}
330
688
100
AcDbXrecord
280
     1
102
RTVSPropertyOp0
 70
     1
102
RTVSPropertyOp1
 70
     1
102
RTVSPropertyOp2
 70
     1
102
RTVSPropertyOp3
 70
     1
102
RTVSPropertyOp4
 70
     1
102
RTVSPropertyOp5
 70
     1
102
RTVSPropertyOp6
 70
     1
102
RTVSPropertyOp7
 70
     1
102
RTVSPropertyOp8
 70
     1
102
RTVSPropertyOp9
 70
     1
102
RTVSPropertyOp10
 70
     1
102
RTVSPropertyOp11
 70
     1
102
RTVSPropertyOp12
 70
     1
102
RTVSPropertyOp13
 70
     1
102
RTVSPropertyOp14
 70
     1
102
RTVSPropertyOp15
 70
     1
102
RTVSPropertyOp16
 70
     1
102
RTVSPropertyOp17
 70
     1
102
RTVSPropertyOp18
 70
     1
102
RTVSPropertyOp19
 70
     1
102
RTVSPropertyOp20
 70
     1
102
RTVSPropertyOp21
 70
     1
102
RTVSPropertyOp22
 70
     1
102
RTVSPropertyOp23
 70
     1
102
RTVSPropertyOp24
 70
     1
102
RTVSPropertyOp25
 70
     1
102
RTVSPropertyOp26
 70
     1
102
RTVSPropertyOp27
 70
     1
102
RTVSPropertyOp28
 70
     1
102
RTVSPropertyOp29
 70
     1
102
RTVSPropertyOp30
 70
     1
102
RTVSPropertyOp31
 70
     1
102
RTVSPropertyOp32
 70
     1
102
RTVSPropertyOp33
 70
     1
102
RTVSPropertyOp34
 70
     1
102
RTVSPropertyOp35
 70
     1
102
RTVSPropertyOp36
 70
     1
102
RTVSPropertyOp37
 70
     1
102
RTVSPropertyOp38
 70
     1
102
RTVSPropertyOp39
 70
     1
102
RTVSPropertyOp40
 70
     1
102
RTVSPropertyOp41
 70
     1
102
RTVSPropertyOp42
 70
     1
102
RTVSPropertyOp43
 70
     1
102
RTVSPropertyOp44
 70
     1
102
RTVSPropertyOp45
 70
     1
102
RTVSPropertyOp46
 70
     1
102
RTVSPropertyOp47
 70
     1
102
RTVSPropertyOp48
 70
     1
102
RTVSPropertyOp49
 70
     1
102
RTVSPropertyOp50
 70
     1
102
RTVSPropertyOp51
 70
     0
102
RTVSPropertyOp52
 70
     0
102
RTVSPropertyOp53
 70
     1
102
RTVSPropertyOp54
 70
     1
102
RTVSPropertyOp55
 70
     1
102
RTVSPropertyOp56
 70
     1
102
RTVSPropertyOp57
 70
     1
102
RTVSPost2010Prop28
280
     0
102
RTVSPost2010PropOp28
 70
     1
102
RTVSPost2010Prop29
280
     1
102
RTVSPost2010PropOp29
 70
     1
102
RTVSPost2010Prop30
280
     1
102
RTVSPost2010PropOp30
 70
     1
102
RTVSPost2010Prop31
280
     0
102
RTVSPost2010PropOp31
 70
     1
102
RTVSPost2010Prop32
280
     0
102
RTVSPost2010PropOp32
 70
     1
102
RTVSPost2010Prop33
280
     0
102
RTVSPost2010PropOp33
 70
     1
102
RTVSPost2010Prop34
280
     0
102
RTVSPost2010PropOp34
 70
     1
102
RTVSPost2010Prop35
280
     0
102
RTVSPost2010PropOp35
 70
     1
102
RTVSPost2010Prop36
280
     0
102
RTVSPost2010PropOp36
 70
     1
102
RTVSPost2010Prop37
 90
       50
102
RTVSPost2010PropOp37
 70
     1
102
RTVSPost2010Prop38
140
0.0
102
RTVSPost2010PropOp38
 70
     1
102
RTVSPost2010Prop39
140
1.0
102
RTVSPost2010PropOp39
 70
     1
102
RTVSPost2010Prop40
 90
        0
102
RTVSPost2010PropOp40
 70
     1
102
RTVSPost2010Prop41ColorIndex
 90
       18
102
RTVSPost2010Prop41ColorRGB
 90
        0
102
RTVSPost2010PropOp41
 70
     1
102
RTVSPost2010Prop42
 90
       50
102
RTVSPost2010PropOp42
 70
     1
102
RTVSPost2010Prop43
 90
        3
102
RTVSPost2010PropOp43
 70
     1
102
RTVSPost2010Prop44ColorIndex
 90
        5
102
RTVSPost2010Prop44ColorRGB
 90
      255
102
RTVSPost2010PropOp44
 70
     1
102
RTVSPost2010Prop45
280
     0
102
RTVSPost2010PropOp45
 70
     1
102
RTVSPost2010Prop46
 90
       50
102
RTVSPost2010PropOp46
 70
     1
102
RTVSPost2010Prop47
 90
       50
102
RTVSPost2010PropOp47
 70
     1
102
RTVSPost2010Prop48
 90
       50
102
RTVSPost2010PropOp48
 70
     1
102
RTVSPost2010Prop49
280
     0
102
RTVSPost2010PropOp49
 70
     1
102
RTVSPost2010Prop50
 90
       50
102
RTVSPost2010PropOp50
 70
     1
102
RTVSPost2010Prop51ColorIndex
 90
      256
102
RTVSPost2010Prop51ColorRGB
 90
-16777216
102
RTVSPost2010PropOp51
 70
     0
102
RTVSPost2010Prop52
140
1.0
102
RTVSPost2010PropOp52
 70
     0
102
RTVSPost2010Prop53
 90
        2
102
RTVSPost2010PropOp53
 70
     1
102
RTVSPost2010Prop54
  1
strokes_ogs.tif
102
RTVSPost2010PropOp54
 70
     1
102
RTVSPost2010Prop55
280
     0
102
RTVSPost2010PropOp55
 70
     1
102
RTVSPost2010Prop56
140
1.0
102
RTVSPost2010PropOp56
 70
     1
102
RTVSPost2010Prop57
140
1.0
102
RTVSPost2010PropOp57
 70
     1
  0
XRECORD
  5
69D
102
{ACAD_REACTORS
330
69C
102
}
330
69C
100
AcDbXrecord
280
     1
102
RTVSPropertyOp0
 70
     0
102
RTVSPropertyOp1
 70
     0
102
RTVSPropertyOp2
 70
     0
102
RTVSPropertyOp3
 70
     0
102
RTVSPropertyOp4
 70
     0
102
RTVSPropertyOp5
 70
     0
102
RTVSPropertyOp6
 70
     0
102
RTVSPropertyOp7
 70
     0
102
RTVSPropertyOp8
 70
     0
102
RTVSPropertyOp9
 70
     0
102
RTVSPropertyOp10
 70
     0
102
RTVSPropertyOp11
 70
     0
102
RTVSPropertyOp12
 70
     0
102
RTVSPropertyOp13
 70
     0
102
RTVSPropertyOp14
 70
     0
102
RTVSPropertyOp15
 70
     0
102
RTVSPropertyOp16
 70
     0
102
RTVSPropertyOp17
 70
     0
102
RTVSPropertyOp18
 70
     0
102
RTVSPropertyOp19
 70
     0
102
RTVSPropertyOp20
 70
     0
102
RTVSPropertyOp21
 70
     0
102
RTVSPropertyOp22
 70
     0
102
RTVSPropertyOp23
 70
     0
102
RTVSPropertyOp24
 70
     0
102
RTVSPropertyOp25
 70
     0
102
RTVSPropertyOp26
 70
     0
102
RTVSPropertyOp27
 70
     0
102
RTVSPropertyOp28
 70
     1
102
RTVSPropertyOp29
 70
     1
102
RTVSPropertyOp30
 70
     1
102
RTVSPropertyOp31
 70
     1
102
RTVSPropertyOp32
 70
     1
102
RTVSPropertyOp33
 70
     1
102
RTVSPropertyOp34
 70
     1
102
RTVSPropertyOp35
 70
     1
102
RTVSPropertyOp36
 70
     1
102
RTVSPropertyOp37
 70
     1
102
RTVSPropertyOp38
 70
     1
102
RTVSPropertyOp39
 70
     1
102
RTVSPropertyOp40
 70
     1
102
RTVSPropertyOp41
 70
     1
102
RTVSPropertyOp42
 70
     1
102
RTVSPropertyOp43
 70
     1
102
RTVSPropertyOp44
 70
     1
102
RTVSPropertyOp45
 70
     1
102
RTVSPropertyOp46
 70
     1
102
RTVSPropertyOp47
 70
     1
102
RTVSPropertyOp48
 70
     1
102
RTVSPropertyOp49
 70
     1
102
RTVSPropertyOp50
 70
     1
102
RTVSPropertyOp51
 70
     0
102
RTVSPropertyOp52
 70
     0
102
RTVSPropertyOp53
 70
     1
102
RTVSPropertyOp54
 70
     1
102
RTVSPropertyOp55
 70
     1
102
RTVSPropertyOp56
 70
     1
102
RTVSPropertyOp57
 70
     1
102
RTVSPost2010Prop28
280
     0
102
RTVSPost2010PropOp28
 70
     1
102
RTVSPost2010Prop29
280
     1
102
RTVSPost2010PropOp29
 70
     1
102
RTVSPost2010Prop30
280
     1
102
RTVSPost2010PropOp30
 70
     1
102
RTVSPost2010Prop31
280
     0
102
RTVSPost2010PropOp31
 70
     1
102
RTVSPost2010Prop32
280
     0
102
RTVSPost2010PropOp32
 70
     1
102
RTVSPost2010Prop33
280
     0
102
RTVSPost2010PropOp33
 70
     1
102
RTVSPost2010Prop34
280
     0
102
RTVSPost2010PropOp34
 70
     1
102
RTVSPost2010Prop35
280
     0
102
RTVSPost2010PropOp35
 70
     1
102
RTVSPost2010Prop36
280
     0
102
RTVSPost2010PropOp36
 70
     1
102
RTVSPost2010Prop37
 90
       50
102
RTVSPost2010PropOp37
 70
     1
102
RTVSPost2010Prop38
140
0.0
102
RTVSPost2010PropOp38
 70
     1
102
RTVSPost2010Prop39
140
1.0
102
RTVSPost2010PropOp39
 70
     1
102
RTVSPost2010Prop40
 90
        0
102
RTVSPost2010PropOp40
 70
     1
102
RTVSPost2010Prop41ColorIndex
 90
       18
102
RTVSPost2010Prop41ColorRGB
 90
        0
102
RTVSPost2010PropOp41
 70
     1
102
RTVSPost2010Prop42
 90
       50
102
RTVSPost2010PropOp42
 70
     1
102
RTVSPost2010Prop43
 90
        3
102
RTVSPost2010PropOp43
 70
     1
102
RTVSPost2010Prop44ColorIndex
 90
        5
102
RTVSPost2010Prop44ColorRGB
 90
      255
102
RTVSPost2010PropOp44
 70
     1
102
RTVSPost2010Prop45
280
     0
102
RTVSPost2010PropOp45
 70
     1
102
RTVSPost2010Prop46
 90
       50
102
RTVSPost2010PropOp46
 70
     1
102
RTVSPost2010Prop47
 90
       50
102
RTVSPost2010PropOp47
 70
     1
102
RTVSPost2010Prop48
 90
       50
102
RTVSPost2010PropOp48
 70
     1
102
RTVSPost2010Prop49
280
     0
102
RTVSPost2010PropOp49
 70
     1
102
RTVSPost2010Prop50
 90
       50
102
RTVSPost2010PropOp50
 70
     1
102
RTVSPost2010Prop51ColorIndex
 90
      256
102
RTVSPost2010Prop51ColorRGB
 90
-16777216
102
RTVSPost2010PropOp51
 70
     0
102
RTVSPost2010Prop52
140
1.0
102
RTVSPost2010PropOp52
 70
     0
102
RTVSPost2010Prop53
 90
        2
102
RTVSPost2010PropOp53
 70
     1
102
RTVSPost2010Prop54
  1
strokes_ogs.tif
102
RTVSPost2010PropOp54
 70
     1
102
RTVSPost2010Prop55
280
     0
102
RTVSPost2010PropOp55
 70
     1
102
RTVSPost2010Prop56
140
1.0
102
RTVSPost2010PropOp56
 70
     1
102
RTVSPost2010Prop57
140
1.0
102
RTVSPost2010PropOp57
 70
     1
  0
XRECORD
  5
697
102
{ACAD_REACTORS
330
696
102
}
330
696
100
AcDbXrecord
280
     1
102
RTVSPropertyOp0
 70
     1
102
RTVSPropertyOp1
 70
     1
102
RTVSPropertyOp2
 70
     1
102
RTVSPropertyOp3
 70
     1
102
RTVSPropertyOp4
 70
     1
102
RTVSPropertyOp5
 70
     1
102
RTVSPropertyOp6
 70
     1
102
RTVSPropertyOp7
 70
     1
102
RTVSPropertyOp8
 70
     1
102
RTVSPropertyOp9
 70
     1
102
RTVSPropertyOp10
 70
     1
102
RTVSPropertyOp11
 70
     1
102
RTVSPropertyOp12
 70
     1
102
RTVSPropertyOp13
 70
     1
102
RTVSPropertyOp14
 70
     1
102
RTVSPropertyOp15
 70
     1
102
RTVSPropertyOp16
 70
     1
102
RTVSPropertyOp17
 70
     1
102
RTVSPropertyOp18
 70
     1
102
RTVSPropertyOp19
 70
     1
102
RTVSPropertyOp20
 70
     1
102
RTVSPropertyOp21
 70
     1
102
RTVSPropertyOp22
 70
     1
102
RTVSPropertyOp23
 70
     1
102
RTVSPropertyOp24
 70
     1
102
RTVSPropertyOp25
 70
     1
102
RTVSPropertyOp26
 70
     1
102
RTVSPropertyOp27
 70
     1
102
RTVSPropertyOp28
 70
     1
102
RTVSPropertyOp29
 70
     1
102
RTVSPropertyOp30
 70
     1
102
RTVSPropertyOp31
 70
     1
102
RTVSPropertyOp32
 70
     1
102
RTVSPropertyOp33
 70
     1
102
RTVSPropertyOp34
 70
     1
102
RTVSPropertyOp35
 70
     1
102
RTVSPropertyOp36
 70
     1
102
RTVSPropertyOp37
 70
     1
102
RTVSPropertyOp38
 70
     1
102
RTVSPropertyOp39
 70
     1
102
RTVSPropertyOp40
 70
     1
102
RTVSPropertyOp41
 70
     1
102
RTVSPropertyOp42
 70
     1
102
RTVSPropertyOp43
 70
     1
102
RTVSPropertyOp44
 70
     1
102
RTVSPropertyOp45
 70
     1
102
RTVSPropertyOp46
 70
     1
102
RTVSPropertyOp47
 70
     1
102
RTVSPropertyOp48
 70
     1
102
RTVSPropertyOp49
 70
     1
102
RTVSPropertyOp50
 70
     1
102
RTVSPropertyOp51
 70
     0
102
RTVSPropertyOp52
 70
     0
102
RTVSPropertyOp53
 70
     1
102
RTVSPropertyOp54
 70
     1
102
RTVSPropertyOp55
 70
     1
102
RTVSPropertyOp56
 70
     1
102
RTVSPropertyOp57
 70
     1
102
RTVSPost2010Prop28
280
     0
102
RTVSPost2010PropOp28
 70
     1
102
RTVSPost2010Prop29
280
     1
102
RTVSPost2010PropOp29
 70
     1
102
RTVSPost2010Prop30
280
     1
102
RTVSPost2010PropOp30
 70
     1
102
RTVSPost2010Prop31
280
     0
102
RTVSPost2010PropOp31
 70
     1
102
RTVSPost2010Prop32
280
     0
102
RTVSPost2010PropOp32
 70
     1
102
RTVSPost2010Prop33
280
     0
102
RTVSPost2010PropOp33
 70
     1
102
RTVSPost2010Prop34
280
     0
102
RTVSPost2010PropOp34
 70
     1
102
RTVSPost2010Prop35
280
     0
102
RTVSPost2010PropOp35
 70
     1
102
RTVSPost2010Prop36
280
     0
102
RTVSPost2010PropOp36
 70
     1
102
RTVSPost2010Prop37
 90
       50
102
RTVSPost2010PropOp37
 70
     1
102
RTVSPost2010Prop38
140
0.0
102
RTVSPost2010PropOp38
 70
     1
102
RTVSPost2010Prop39
140
1.0
102
RTVSPost2010PropOp39
 70
     1
102
RTVSPost2010Prop40
 90
        0
102
RTVSPost2010PropOp40
 70
     1
102
RTVSPost2010Prop41ColorIndex
 90
       18
102
RTVSPost2010Prop41ColorRGB
 90
        0
102
RTVSPost2010PropOp41
 70
     1
102
RTVSPost2010Prop42
 90
       50
102
RTVSPost2010PropOp42
 70
     1
102
RTVSPost2010Prop43
 90
        3
102
RTVSPost2010PropOp43
 70
     1
102
RTVSPost2010Prop44ColorIndex
 90
        5
102
RTVSPost2010Prop44ColorRGB
 90
      255
102
RTVSPost2010PropOp44
 70
     1
102
RTVSPost2010Prop45
280
     0
102
RTVSPost2010PropOp45
 70
     1
102
RTVSPost2010Prop46
 90
       50
102
RTVSPost2010PropOp46
 70
     1
102
RTVSPost2010Prop47
 90
       50
102
RTVSPost2010PropOp47
 70
     1
102
RTVSPost2010Prop48
 90
       50
102
RTVSPost2010PropOp48
 70
     1
102
RTVSPost2010Prop49
280
     0
102
RTVSPost2010PropOp49
 70
     1
102
RTVSPost2010Prop50
 90
       50
102
RTVSPost2010PropOp50
 70
     1
102
RTVSPost2010Prop51ColorIndex
 90
      256
102
RTVSPost2010Prop51ColorRGB
 90
-16777216
102
RTVSPost2010PropOp51
 70
     0
102
RTVSPost2010Prop52
140
1.0
102
RTVSPost2010PropOp52
 70
     0
102
RTVSPost2010Prop53
 90
        2
102
RTVSPost2010PropOp53
 70
     1
102
RTVSPost2010Prop54
  1
strokes_ogs.tif
102
RTVSPost2010PropOp54
 70
     1
102
RTVSPost2010Prop55
280
     0
102
RTVSPost2010PropOp55
 70
     1
102
RTVSPost2010Prop56
140
1.0
102
RTVSPost2010PropOp56
 70
     1
102
RTVSPost2010Prop57
140
1.0
102
RTVSPost2010PropOp57
 70
     1
  0
XRECORD
  5
69F
102
{ACAD_REACTORS
330
69E
102
}
330
69E
100
AcDbXrecord
280
     1
102
RTVSPropertyOp0
 70
     0
102
RTVSPropertyOp1
 70
     0
102
RTVSPropertyOp2
 70
     0
102
RTVSPropertyOp3
 70
     0
102
RTVSPropertyOp4
 70
     0
102
RTVSPropertyOp5
 70
     0
102
RTVSPropertyOp6
 70
     0
102
RTVSPropertyOp7
 70
     0
102
RTVSPropertyOp8
 70
     0
102
RTVSPropertyOp9
 70
     0
102
RTVSPropertyOp10
 70
     0
102
RTVSPropertyOp11
 70
     0
102
RTVSPropertyOp12
 70
     0
102
RTVSPropertyOp13
 70
     0
102
RTVSPropertyOp14
 70
     0
102
RTVSPropertyOp15
 70
     0
102
RTVSPropertyOp16
 70
     0
102
RTVSPropertyOp17
 70
     0
102
RTVSPropertyOp18
 70
     0
102
RTVSPropertyOp19
 70
     0
102
RTVSPropertyOp20
 70
     0
102
RTVSPropertyOp21
 70
     0
102
RTVSPropertyOp22
 70
     0
102
RTVSPropertyOp23
 70
     0
102
RTVSPropertyOp24
 70
     0
102
RTVSPropertyOp25
 70
     0
102
RTVSPropertyOp26
 70
     0
102
RTVSPropertyOp27
 70
     0
102
RTVSPropertyOp28
 70
     1
102
RTVSPropertyOp29
 70
     1
102
RTVSPropertyOp30
 70
     1
102
RTVSPropertyOp31
 70
     1
102
RTVSPropertyOp32
 70
     1
102
RTVSPropertyOp33
 70
     1
102
RTVSPropertyOp34
 70
     1
102
RTVSPropertyOp35
 70
     1
102
RTVSPropertyOp36
 70
     1
102
RTVSPropertyOp37
 70
     1
102
RTVSPropertyOp38
 70
     1
102
RTVSPropertyOp39
 70
     1
102
RTVSPropertyOp40
 70
     1
102
RTVSPropertyOp41
 70
     1
102
RTVSPropertyOp42
 70
     1
102
RTVSPropertyOp43
 70
     1
102
RTVSPropertyOp44
 70
     1
102
RTVSPropertyOp45
 70
     1
102
RTVSPropertyOp46
 70
     1
102
RTVSPropertyOp47
 70
     1
102
RTVSPropertyOp48
 70
     1
102
RTVSPropertyOp49
 70
     1
102
RTVSPropertyOp50
 70
     1
102
RTVSPropertyOp51
 70
     0
102
RTVSPropertyOp52
 70
     0
102
RTVSPropertyOp53
 70
     1
102
RTVSPropertyOp54
 70
     1
102
RTVSPropertyOp55
 70
     1
102
RTVSPropertyOp56
 70
     1
102
RTVSPropertyOp57
 70
     1
102
RTVSPost2010Prop28
280
     0
102
RTVSPost2010PropOp28
 70
     1
102
RTVSPost2010Prop29
280
     1
102
RTVSPost2010PropOp29
 70
     1
102
RTVSPost2010Prop30
280
     1
102
RTVSPost2010PropOp30
 70
     1
102
RTVSPost2010Prop31
280
     0
102
RTVSPost2010PropOp31
 70
     1
102
RTVSPost2010Prop32
280
     0
102
RTVSPost2010PropOp32
 70
     1
102
RTVSPost2010Prop33
280
     0
102
RTVSPost2010PropOp33
 70
     1
102
RTVSPost2010Prop34
280
     0
102
RTVSPost2010PropOp34
 70
     1
102
RTVSPost2010Prop35
280
     0
102
RTVSPost2010PropOp35
 70
     1
102
RTVSPost2010Prop36
280
     0
102
RTVSPost2010PropOp36
 70
     1
102
RTVSPost2010Prop37
 90
       50
102
RTVSPost2010PropOp37
 70
     1
102
RTVSPost2010Prop38
140
0.0
102
RTVSPost2010PropOp38
 70
     1
102
RTVSPost2010Prop39
140
1.0
102
RTVSPost2010PropOp39
 70
     1
102
RTVSPost2010Prop40
 90
        0
102
RTVSPost2010PropOp40
 70
     1
102
RTVSPost2010Prop41ColorIndex
 90
       18
102
RTVSPost2010Prop41ColorRGB
 90
        0
102
RTVSPost2010PropOp41
 70
     1
102
RTVSPost2010Prop42
 90
       50
102
RTVSPost2010PropOp42
 70
     1
102
RTVSPost2010Prop43
 90
        3
102
RTVSPost2010PropOp43
 70
     1
102
RTVSPost2010Prop44ColorIndex
 90
        5
102
RTVSPost2010Prop44ColorRGB
 90
      255
102
RTVSPost2010PropOp44
 70
     1
102
RTVSPost2010Prop45
280
     0
102
RTVSPost2010PropOp45
 70
     1
102
RTVSPost2010Prop46
 90
       50
102
RTVSPost2010PropOp46
 70
     1
102
RTVSPost2010Prop47
 90
       50
102
RTVSPost2010PropOp47
 70
     1
102
RTVSPost2010Prop48
 90
       50
102
RTVSPost2010PropOp48
 70
     1
102
RTVSPost2010Prop49
280
     0
102
RTVSPost2010PropOp49
 70
     1
102
RTVSPost2010Prop50
 90
       50
102
RTVSPost2010PropOp50
 70
     1
102
RTVSPost2010Prop51ColorIndex
 90
      256
102
RTVSPost2010Prop51ColorRGB
 90
-16777216
102
RTVSPost2010PropOp51
 70
     0
102
RTVSPost2010Prop52
140
1.0
102
RTVSPost2010PropOp52
 70
     0
102
RTVSPost2010Prop53
 90
        2
102
RTVSPost2010PropOp53
 70
     1
102
RTVSPost2010Prop54
  1
strokes_ogs.tif
102
RTVSPost2010PropOp54
 70
     1
102
RTVSPost2010Prop55
280
     0
102
RTVSPost2010PropOp55
 70
     1
102
RTVSPost2010Prop56
140
1.0
102
RTVSPost2010PropOp56
 70
     1
102
RTVSPost2010Prop57
140
1.0
102
RTVSPost2010PropOp57
 70
     1
  0
XRECORD
  5
68D
102
{ACAD_REACTORS
330
68C
102
}
330
68C
100
AcDbXrecord
280
     1
102
RTVSPropertyOp0
 70
     1
102
RTVSPropertyOp1
 70
     1
102
RTVSPropertyOp2
 70
     1
102
RTVSPropertyOp3
 70
     1
102
RTVSPropertyOp4
 70
     1
102
RTVSPropertyOp5
 70
     1
102
RTVSPropertyOp6
 70
     1
102
RTVSPropertyOp7
 70
     1
102
RTVSPropertyOp8
 70
     1
102
RTVSPropertyOp9
 70
     1
102
RTVSPropertyOp10
 70
     1
102
RTVSPropertyOp11
 70
     1
102
RTVSPropertyOp12
 70
     1
102
RTVSPropertyOp13
 70
     1
102
RTVSPropertyOp14
 70
     1
102
RTVSPropertyOp15
 70
     1
102
RTVSPropertyOp16
 70
     1
102
RTVSPropertyOp17
 70
     1
102
RTVSPropertyOp18
 70
     1
102
RTVSPropertyOp19
 70
     1
102
RTVSPropertyOp20
 70
     1
102
RTVSPropertyOp21
 70
     1
102
RTVSPropertyOp22
 70
     1
102
RTVSPropertyOp23
 70
     1
102
RTVSPropertyOp24
 70
     1
102
RTVSPropertyOp25
 70
     1
102
RTVSPropertyOp26
 70
     1
102
RTVSPropertyOp27
 70
     1
102
RTVSPropertyOp28
 70
     1
102
RTVSPropertyOp29
 70
     1
102
RTVSPropertyOp30
 70
     1
102
RTVSPropertyOp31
 70
     1
102
RTVSPropertyOp32
 70
     1
102
RTVSPropertyOp33
 70
     1
102
RTVSPropertyOp34
 70
     1
102
RTVSPropertyOp35
 70
     1
102
RTVSPropertyOp36
 70
     1
102
RTVSPropertyOp37
 70
     1
102
RTVSPropertyOp38
 70
     1
102
RTVSPropertyOp39
 70
     1
102
RTVSPropertyOp40
 70
     1
102
RTVSPropertyOp41
 70
     1
102
RTVSPropertyOp42
 70
     1
102
RTVSPropertyOp43
 70
     1
102
RTVSPropertyOp44
 70
     1
102
RTVSPropertyOp45
 70
     1
102
RTVSPropertyOp46
 70
     1
102
RTVSPropertyOp47
 70
     1
102
RTVSPropertyOp48
 70
     1
102
RTVSPropertyOp49
 70
     1
102
RTVSPropertyOp50
 70
     1
102
RTVSPropertyOp51
 70
     0
102
RTVSPropertyOp52
 70
     0
102
RTVSPropertyOp53
 70
     1
102
RTVSPropertyOp54
 70
     1
102
RTVSPropertyOp55
 70
     1
102
RTVSPropertyOp56
 70
     1
102
RTVSPropertyOp57
 70
     1
102
RTVSPost2010Prop28
280
     0
102
RTVSPost2010PropOp28
 70
     1
102
RTVSPost2010Prop29
280
     1
102
RTVSPost2010PropOp29
 70
     1
102
RTVSPost2010Prop30
280
     1
102
RTVSPost2010PropOp30
 70
     1
102
RTVSPost2010Prop31
280
     0
102
RTVSPost2010PropOp31
 70
     1
102
RTVSPost2010Prop32
280
     0
102
RTVSPost2010PropOp32
 70
     1
102
RTVSPost2010Prop33
280
     0
102
RTVSPost2010PropOp33
 70
     1
102
RTVSPost2010Prop34
280
     0
102
RTVSPost2010PropOp34
 70
     1
102
RTVSPost2010Prop35
280
     0
102
RTVSPost2010PropOp35
 70
     1
102
RTVSPost2010Prop36
280
     0
102
RTVSPost2010PropOp36
 70
     1
102
RTVSPost2010Prop37
 90
       50
102
RTVSPost2010PropOp37
 70
     1
102
RTVSPost2010Prop38
140
0.0
102
RTVSPost2010PropOp38
 70
     1
102
RTVSPost2010Prop39
140
1.0
102
RTVSPost2010PropOp39
 70
     1
102
RTVSPost2010Prop40
 90
        0
102
RTVSPost2010PropOp40
 70
     1
102
RTVSPost2010Prop41ColorIndex
 90
       18
102
RTVSPost2010Prop41ColorRGB
 90
        0
102
RTVSPost2010PropOp41
 70
     1
102
RTVSPost2010Prop42
 90
       50
102
RTVSPost2010PropOp42
 70
     1
102
RTVSPost2010Prop43
 90
        3
102
RTVSPost2010PropOp43
 70
     1
102
RTVSPost2010Prop44ColorIndex
 90
        5
102
RTVSPost2010Prop44ColorRGB
 90
      255
102
RTVSPost2010PropOp44
 70
     1
102
RTVSPost2010Prop45
280
     0
102
RTVSPost2010PropOp45
 70
     1
102
RTVSPost2010Prop46
 90
       50
102
RTVSPost2010PropOp46
 70
     1
102
RTVSPost2010Prop47
 90
       50
102
RTVSPost2010PropOp47
 70
     1
102
RTVSPost2010Prop48
 90
       50
102
RTVSPost2010PropOp48
 70
     1
102
RTVSPost2010Prop49
280
     0
102
RTVSPost2010PropOp49
 70
     1
102
RTVSPost2010Prop50
 90
       50
102
RTVSPost2010PropOp50
 70
     1
102
RTVSPost2010Prop51ColorIndex
 90
      256
102
RTVSPost2010Prop51ColorRGB
 90
-16777216
102
RTVSPost2010PropOp51
 70
     0
102
RTVSPost2010Prop52
140
1.0
102
RTVSPost2010PropOp52
 70
     0
102
RTVSPost2010Prop53
 90
        2
102
RTVSPost2010PropOp53
 70
     1
102
RTVSPost2010Prop54
  1
strokes_ogs.tif
102
RTVSPost2010PropOp54
 70
     1
102
RTVSPost2010Prop55
280
     0
102
RTVSPost2010PropOp55
 70
     1
102
RTVSPost2010Prop56
140
1.0
102
RTVSPost2010PropOp56
 70
     1
102
RTVSPost2010Prop57
140
1.0
102
RTVSPost2010PropOp57
 70
     1
  0
XRECORD
  5
6AB
102
{ACAD_REACTORS
330
6AA
102
}
330
6AA
100
AcDbXrecord
280
     1
102
RTVSPropertyOp0
 70
     1
102
RTVSPropertyOp1
 70
     1
102
RTVSPropertyOp2
 70
     1
102
RTVSPropertyOp3
 70
     1
102
RTVSPropertyOp4
 70
     1
102
RTVSPropertyOp5
 70
     1
102
RTVSPropertyOp6
 70
     1
102
RTVSPropertyOp7
 70
     1
102
RTVSPropertyOp8
 70
     1
102
RTVSPropertyOp9
 70
     1
102
RTVSPropertyOp10
 70
     1
102
RTVSPropertyOp11
 70
     1
102
RTVSPropertyOp12
 70
     1
102
RTVSPropertyOp13
 70
     1
102
RTVSPropertyOp14
 70
     1
102
RTVSPropertyOp15
 70
     1
102
RTVSPropertyOp16
 70
     1
102
RTVSPropertyOp17
 70
     1
102
RTVSPropertyOp18
 70
     1
102
RTVSPropertyOp19
 70
     1
102
RTVSPropertyOp20
 70
     1
102
RTVSPropertyOp21
 70
     1
102
RTVSPropertyOp22
 70
     1
102
RTVSPropertyOp23
 70
     1
102
RTVSPropertyOp24
 70
     1
102
RTVSPropertyOp25
 70
     1
102
RTVSPropertyOp26
 70
     1
102
RTVSPropertyOp27
 70
     1
102
RTVSPropertyOp28
 70
     1
102
RTVSPropertyOp29
 70
     1
102
RTVSPropertyOp30
 70
     1
102
RTVSPropertyOp31
 70
     1
102
RTVSPropertyOp32
 70
     1
102
RTVSPropertyOp33
 70
     1
102
RTVSPropertyOp34
 70
     1
102
RTVSPropertyOp35
 70
     1
102
RTVSPropertyOp36
 70
     1
102
RTVSPropertyOp37
 70
     1
102
RTVSPropertyOp38
 70
     1
102
RTVSPropertyOp39
 70
     1
102
RTVSPropertyOp40
 70
     1
102
RTVSPropertyOp41
 70
     1
102
RTVSPropertyOp42
 70
     1
102
RTVSPropertyOp43
 70
     1
102
RTVSPropertyOp44
 70
     1
102
RTVSPropertyOp45
 70
     1
102
RTVSPropertyOp46
 70
     1
102
RTVSPropertyOp47
 70
     1
102
RTVSPropertyOp48
 70
     1
102
RTVSPropertyOp49
 70
     1
102
RTVSPropertyOp50
 70
     1
102
RTVSPropertyOp51
 70
     0
102
RTVSPropertyOp52
 70
     0
102
RTVSPropertyOp53
 70
     1
102
RTVSPropertyOp54
 70
     1
102
RTVSPropertyOp55
 70
     1
102
RTVSPropertyOp56
 70
     1
102
RTVSPropertyOp57
 70
     1
102
RTVSPost2010Prop28
280
     0
102
RTVSPost2010PropOp28
 70
     1
102
RTVSPost2010Prop29
280
     1
102
RTVSPost2010PropOp29
 70
     1
102
RTVSPost2010Prop30
280
     1
102
RTVSPost2010PropOp30
 70
     1
102
RTVSPost2010Prop31
280
     0
102
RTVSPost2010PropOp31
 70
     1
102
RTVSPost2010Prop32
280
     0
102
RTVSPost2010PropOp32
 70
     1
102
RTVSPost2010Prop33
280
     0
102
RTVSPost2010PropOp33
 70
     1
102
RTVSPost2010Prop34
280
     0
102
RTVSPost2010PropOp34
 70
     1
102
RTVSPost2010Prop35
280
     0
102
RTVSPost2010PropOp35
 70
     1
102
RTVSPost2010Prop36
280
     0
102
RTVSPost2010PropOp36
 70
     1
102
RTVSPost2010Prop37
 90
       50
102
RTVSPost2010PropOp37
 70
     1
102
RTVSPost2010Prop38
140
0.0
102
RTVSPost2010PropOp38
 70
     1
102
RTVSPost2010Prop39
140
1.0
102
RTVSPost2010PropOp39
 70
     1
102
RTVSPost2010Prop40
 90
        0
102
RTVSPost2010PropOp40
 70
     1
102
RTVSPost2010Prop41ColorIndex
 90
       18
102
RTVSPost2010Prop41ColorRGB
 90
        0
102
RTVSPost2010PropOp41
 70
     1
102
RTVSPost2010Prop42
 90
       50
102
RTVSPost2010PropOp42
 70
     1
102
RTVSPost2010Prop43
 90
        3
102
RTVSPost2010PropOp43
 70
     1
102
RTVSPost2010Prop44ColorIndex
 90
        5
102
RTVSPost2010Prop44ColorRGB
 90
      255
102
RTVSPost2010PropOp44
 70
     1
102
RTVSPost2010Prop45
280
     0
102
RTVSPost2010PropOp45
 70
     1
102
RTVSPost2010Prop46
 90
       50
102
RTVSPost2010PropOp46
 70
     1
102
RTVSPost2010Prop47
 90
       50
102
RTVSPost2010PropOp47
 70
     1
102
RTVSPost2010Prop48
 90
       50
102
RTVSPost2010PropOp48
 70
     1
102
RTVSPost2010Prop49
280
     0
102
RTVSPost2010PropOp49
 70
     1
102
RTVSPost2010Prop50
 90
       50
102
RTVSPost2010PropOp50
 70
     1
102
RTVSPost2010Prop51ColorIndex
 90
      256
102
RTVSPost2010Prop51ColorRGB
 90
-16777216
102
RTVSPost2010PropOp51
 70
     0
102
RTVSPost2010Prop52
140
1.0
102
RTVSPost2010PropOp52
 70
     0
102
RTVSPost2010Prop53
 90
        2
102
RTVSPost2010PropOp53
 70
     1
102
RTVSPost2010Prop54
  1
strokes_ogs.tif
102
RTVSPost2010PropOp54
 70
     1
102
RTVSPost2010Prop55
280
     0
102
RTVSPost2010PropOp55
 70
     1
102
RTVSPost2010Prop56
140
1.0
102
RTVSPost2010PropOp56
 70
     1
102
RTVSPost2010Prop57
140
1.0
102
RTVSPost2010PropOp57
 70
     1
  0
XRECORD
  5
6A9
102
{ACAD_REACTORS
330
6A8
102
}
330
6A8
100
AcDbXrecord
280
     1
102
RTVSPropertyOp0
 70
     1
102
RTVSPropertyOp1
 70
     1
102
RTVSPropertyOp2
 70
     1
102
RTVSPropertyOp3
 70
     1
102
RTVSPropertyOp4
 70
     1
102
RTVSPropertyOp5
 70
     1
102
RTVSPropertyOp6
 70
     1
102
RTVSPropertyOp7
 70
     1
102
RTVSPropertyOp8
 70
     1
102
RTVSPropertyOp9
 70
     1
102
RTVSPropertyOp10
 70
     1
102
RTVSPropertyOp11
 70
     1
102
RTVSPropertyOp12
 70
     1
102
RTVSPropertyOp13
 70
     1
102
RTVSPropertyOp14
 70
     1
102
RTVSPropertyOp15
 70
     1
102
RTVSPropertyOp16
 70
     1
102
RTVSPropertyOp17
 70
     1
102
RTVSPropertyOp18
 70
     1
102
RTVSPropertyOp19
 70
     1
102
RTVSPropertyOp20
 70
     1
102
RTVSPropertyOp21
 70
     1
102
RTVSPropertyOp22
 70
     1
102
RTVSPropertyOp23
 70
     1
102
RTVSPropertyOp24
 70
     1
102
RTVSPropertyOp25
 70
     1
102
RTVSPropertyOp26
 70
     1
102
RTVSPropertyOp27
 70
     1
102
RTVSPropertyOp28
 70
     1
102
RTVSPropertyOp29
 70
     1
102
RTVSPropertyOp30
 70
     1
102
RTVSPropertyOp31
 70
     1
102
RTVSPropertyOp32
 70
     1
102
RTVSPropertyOp33
 70
     1
102
RTVSPropertyOp34
 70
     1
102
RTVSPropertyOp35
 70
     1
102
RTVSPropertyOp36
 70
     1
102
RTVSPropertyOp37
 70
     1
102
RTVSPropertyOp38
 70
     1
102
RTVSPropertyOp39
 70
     1
102
RTVSPropertyOp40
 70
     1
102
RTVSPropertyOp41
 70
     1
102
RTVSPropertyOp42
 70
     1
102
RTVSPropertyOp43
 70
     1
102
RTVSPropertyOp44
 70
     1
102
RTVSPropertyOp45
 70
     1
102
RTVSPropertyOp46
 70
     1
102
RTVSPropertyOp47
 70
     1
102
RTVSPropertyOp48
 70
     1
102
RTVSPropertyOp49
 70
     1
102
RTVSPropertyOp50
 70
     1
102
RTVSPropertyOp51
 70
     0
102
RTVSPropertyOp52
 70
     0
102
RTVSPropertyOp53
 70
     1
102
RTVSPropertyOp54
 70
     1
102
RTVSPropertyOp55
 70
     1
102
RTVSPropertyOp56
 70
     1
102
RTVSPropertyOp57
 70
     1
102
RTVSPost2010Prop28
280
     0
102
RTVSPost2010PropOp28
 70
     1
102
RTVSPost2010Prop29
280
     1
102
RTVSPost2010PropOp29
 70
     1
102
RTVSPost2010Prop30
280
     1
102
RTVSPost2010PropOp30
 70
     1
102
RTVSPost2010Prop31
280
     0
102
RTVSPost2010PropOp31
 70
     1
102
RTVSPost2010Prop32
280
     0
102
RTVSPost2010PropOp32
 70
     1
102
RTVSPost2010Prop33
280
     0
102
RTVSPost2010PropOp33
 70
     1
102
RTVSPost2010Prop34
280
     0
102
RTVSPost2010PropOp34
 70
     1
102
RTVSPost2010Prop35
280
     0
102
RTVSPost2010PropOp35
 70
     1
102
RTVSPost2010Prop36
280
     0
102
RTVSPost2010PropOp36
 70
     1
102
RTVSPost2010Prop37
 90
       50
102
RTVSPost2010PropOp37
 70
     1
102
RTVSPost2010Prop38
140
0.0
102
RTVSPost2010PropOp38
 70
     1
102
RTVSPost2010Prop39
140
1.0
102
RTVSPost2010PropOp39
 70
     1
102
RTVSPost2010Prop40
 90
        0
102
RTVSPost2010PropOp40
 70
     1
102
RTVSPost2010Prop41ColorIndex
 90
       18
102
RTVSPost2010Prop41ColorRGB
 90
        0
102
RTVSPost2010PropOp41
 70
     1
102
RTVSPost2010Prop42
 90
       50
102
RTVSPost2010PropOp42
 70
     1
102
RTVSPost2010Prop43
 90
        3
102
RTVSPost2010PropOp43
 70
     1
102
RTVSPost2010Prop44ColorIndex
 90
        5
102
RTVSPost2010Prop44ColorRGB
 90
      255
102
RTVSPost2010PropOp44
 70
     1
102
RTVSPost2010Prop45
280
     0
102
RTVSPost2010PropOp45
 70
     1
102
RTVSPost2010Prop46
 90
       50
102
RTVSPost2010PropOp46
 70
     1
102
RTVSPost2010Prop47
 90
       50
102
RTVSPost2010PropOp47
 70
     1
102
RTVSPost2010Prop48
 90
       50
102
RTVSPost2010PropOp48
 70
     1
102
RTVSPost2010Prop49
280
     0
102
RTVSPost2010PropOp49
 70
     1
102
RTVSPost2010Prop50
 90
       50
102
RTVSPost2010PropOp50
 70
     1
102
RTVSPost2010Prop51ColorIndex
 90
      256
102
RTVSPost2010Prop51ColorRGB
 90
-16777216
102
RTVSPost2010PropOp51
 70
     0
102
RTVSPost2010Prop52
140
1.0
102
RTVSPost2010PropOp52
 70
     0
102
RTVSPost2010Prop53
 90
        2
102
RTVSPost2010PropOp53
 70
     1
102
RTVSPost2010Prop54
  1
strokes_ogs.tif
102
RTVSPost2010PropOp54
 70
     1
102
RTVSPost2010Prop55
280
     0
102
RTVSPost2010PropOp55
 70
     1
102
RTVSPost2010Prop56
140
1.0
102
RTVSPost2010PropOp56
 70
     1
102
RTVSPost2010Prop57
140
1.0
102
RTVSPost2010PropOp57
 70
     1
  0
XRECORD
  5
6A3
102
{ACAD_REACTORS
330
6A2
102
}
330
6A2
100
AcDbXrecord
280
     1
102
RTVSPropertyOp0
 70
     1
102
RTVSPropertyOp1
 70
     1
102
RTVSPropertyOp2
 70
     1
102
RTVSPropertyOp3
 70
     1
102
RTVSPropertyOp4
 70
     1
102
RTVSPropertyOp5
 70
     1
102
RTVSPropertyOp6
 70
     1
102
RTVSPropertyOp7
 70
     1
102
RTVSPropertyOp8
 70
     1
102
RTVSPropertyOp9
 70
     1
102
RTVSPropertyOp10
 70
     1
102
RTVSPropertyOp11
 70
     1
102
RTVSPropertyOp12
 70
     1
102
RTVSPropertyOp13
 70
     1
102
RTVSPropertyOp14
 70
     1
102
RTVSPropertyOp15
 70
     1
102
RTVSPropertyOp16
 70
     1
102
RTVSPropertyOp17
 70
     1
102
RTVSPropertyOp18
 70
     1
102
RTVSPropertyOp19
 70
     1
102
RTVSPropertyOp20
 70
     1
102
RTVSPropertyOp21
 70
     1
102
RTVSPropertyOp22
 70
     1
102
RTVSPropertyOp23
 70
     1
102
RTVSPropertyOp24
 70
     1
102
RTVSPropertyOp25
 70
     1
102
RTVSPropertyOp26
 70
     1
102
RTVSPropertyOp27
 70
     1
102
RTVSPropertyOp28
 70
     1
102
RTVSPropertyOp29
 70
     1
102
RTVSPropertyOp30
 70
     1
102
RTVSPropertyOp31
 70
     1
102
RTVSPropertyOp32
 70
     1
102
RTVSPropertyOp33
 70
     1
102
RTVSPropertyOp34
 70
     1
102
RTVSPropertyOp35
 70
     1
102
RTVSPropertyOp36
 70
     1
102
RTVSPropertyOp37
 70
     1
102
RTVSPropertyOp38
 70
     1
102
RTVSPropertyOp39
 70
     1
102
RTVSPropertyOp40
 70
     1
102
RTVSPropertyOp41
 70
     1
102
RTVSPropertyOp42
 70
     1
102
RTVSPropertyOp43
 70
     1
102
RTVSPropertyOp44
 70
     1
102
RTVSPropertyOp45
 70
     1
102
RTVSPropertyOp46
 70
     1
102
RTVSPropertyOp47
 70
     1
102
RTVSPropertyOp48
 70
     1
102
RTVSPropertyOp49
 70
     1
102
RTVSPropertyOp50
 70
     1
102
RTVSPropertyOp51
 70
     0
102
RTVSPropertyOp52
 70
     0
102
RTVSPropertyOp53
 70
     1
102
RTVSPropertyOp54
 70
     1
102
RTVSPropertyOp55
 70
     1
102
RTVSPropertyOp56
 70
     1
102
RTVSPropertyOp57
 70
     1
102
RTVSPost2010Prop28
280
     0
102
RTVSPost2010PropOp28
 70
     1
102
RTVSPost2010Prop29
280
     1
102
RTVSPost2010PropOp29
 70
     1
102
RTVSPost2010Prop30
280
     1
102
RTVSPost2010PropOp30
 70
     1
102
RTVSPost2010Prop31
280
     0
102
RTVSPost2010PropOp31
 70
     1
102
RTVSPost2010Prop32
280
     0
102
RTVSPost2010PropOp32
 70
     1
102
RTVSPost2010Prop33
280
     0
102
RTVSPost2010PropOp33
 70
     1
102
RTVSPost2010Prop34
280
     0
102
RTVSPost2010PropOp34
 70
     1
102
RTVSPost2010Prop35
280
     0
102
RTVSPost2010PropOp35
 70
     1
102
RTVSPost2010Prop36
280
     0
102
RTVSPost2010PropOp36
 70
     1
102
RTVSPost2010Prop37
 90
       50
102
RTVSPost2010PropOp37
 70
     1
102
RTVSPost2010Prop38
140
0.0
102
RTVSPost2010PropOp38
 70
     1
102
RTVSPost2010Prop39
140
1.0
102
RTVSPost2010PropOp39
 70
     1
102
RTVSPost2010Prop40
 90
        0
102
RTVSPost2010PropOp40
 70
     1
102
RTVSPost2010Prop41ColorIndex
 90
       18
102
RTVSPost2010Prop41ColorRGB
 90
        0
102
RTVSPost2010PropOp41
 70
     1
102
RTVSPost2010Prop42
 90
       50
102
RTVSPost2010PropOp42
 70
     1
102
RTVSPost2010Prop43
 90
        3
102
RTVSPost2010PropOp43
 70
     1
102
RTVSPost2010Prop44ColorIndex
 90
        5
102
RTVSPost2010Prop44ColorRGB
 90
      255
102
RTVSPost2010PropOp44
 70
     1
102
RTVSPost2010Prop45
280
     0
102
RTVSPost2010PropOp45
 70
     1
102
RTVSPost2010Prop46
 90
       50
102
RTVSPost2010PropOp46
 70
     1
102
RTVSPost2010Prop47
 90
       50
102
RTVSPost2010PropOp47
 70
     1
102
RTVSPost2010Prop48
 90
       50
102
RTVSPost2010PropOp48
 70
     1
102
RTVSPost2010Prop49
280
     0
102
RTVSPost2010PropOp49
 70
     1
102
RTVSPost2010Prop50
 90
       50
102
RTVSPost2010PropOp50
 70
     1
102
RTVSPost2010Prop51ColorIndex
 90
      256
102
RTVSPost2010Prop51ColorRGB
 90
-16777216
102
RTVSPost2010PropOp51
 70
     0
102
RTVSPost2010Prop52
140
1.0
102
RTVSPost2010PropOp52
 70
     0
102
RTVSPost2010Prop53
 90
        2
102
RTVSPost2010PropOp53
 70
     1
102
RTVSPost2010Prop54
  1
strokes_ogs.tif
102
RTVSPost2010PropOp54
 70
     1
102
RTVSPost2010Prop55
280
     0
102
RTVSPost2010PropOp55
 70
     1
102
RTVSPost2010Prop56
140
1.0
102
RTVSPost2010PropOp56
 70
     1
102
RTVSPost2010Prop57
140
1.0
102
RTVSPost2010PropOp57
 70
     1
  0
XRECORD
  5
6A5
102
{ACAD_REACTORS
330
6A4
102
}
330
6A4
100
AcDbXrecord
280
     1
102
RTVSPropertyOp0
 70
     1
102
RTVSPropertyOp1
 70
     1
102
RTVSPropertyOp2
 70
     1
102
RTVSPropertyOp3
 70
     1
102
RTVSPropertyOp4
 70
     1
102
RTVSPropertyOp5
 70
     1
102
RTVSPropertyOp6
 70
     1
102
RTVSPropertyOp7
 70
     1
102
RTVSPropertyOp8
 70
     1
102
RTVSPropertyOp9
 70
     1
102
RTVSPropertyOp10
 70
     1
102
RTVSPropertyOp11
 70
     1
102
RTVSPropertyOp12
 70
     1
102
RTVSPropertyOp13
 70
     1
102
RTVSPropertyOp14
 70
     1
102
RTVSPropertyOp15
 70
     1
102
RTVSPropertyOp16
 70
     1
102
RTVSPropertyOp17
 70
     1
102
RTVSPropertyOp18
 70
     1
102
RTVSPropertyOp19
 70
     1
102
RTVSPropertyOp20
 70
     1
102
RTVSPropertyOp21
 70
     1
102
RTVSPropertyOp22
 70
     1
102
RTVSPropertyOp23
 70
     1
102
RTVSPropertyOp24
 70
     1
102
RTVSPropertyOp25
 70
     1
102
RTVSPropertyOp26
 70
     1
102
RTVSPropertyOp27
 70
     1
102
RTVSPropertyOp28
 70
     1
102
RTVSPropertyOp29
 70
     1
102
RTVSPropertyOp30
 70
     1
102
RTVSPropertyOp31
 70
     1
102
RTVSPropertyOp32
 70
     1
102
RTVSPropertyOp33
 70
     1
102
RTVSPropertyOp34
 70
     1
102
RTVSPropertyOp35
 70
     1
102
RTVSPropertyOp36
 70
     1
102
RTVSPropertyOp37
 70
     1
102
RTVSPropertyOp38
 70
     1
102
RTVSPropertyOp39
 70
     1
102
RTVSPropertyOp40
 70
     1
102
RTVSPropertyOp41
 70
     1
102
RTVSPropertyOp42
 70
     1
102
RTVSPropertyOp43
 70
     1
102
RTVSPropertyOp44
 70
     1
102
RTVSPropertyOp45
 70
     1
102
RTVSPropertyOp46
 70
     1
102
RTVSPropertyOp47
 70
     1
102
RTVSPropertyOp48
 70
     1
102
RTVSPropertyOp49
 70
     1
102
RTVSPropertyOp50
 70
     1
102
RTVSPropertyOp51
 70
     0
102
RTVSPropertyOp52
 70
     0
102
RTVSPropertyOp53
 70
     1
102
RTVSPropertyOp54
 70
     1
102
RTVSPropertyOp55
 70
     1
102
RTVSPropertyOp56
 70
     1
102
RTVSPropertyOp57
 70
     1
102
RTVSPost2010Prop28
280
     0
102
RTVSPost2010PropOp28
 70
     1
102
RTVSPost2010Prop29
280
     1
102
RTVSPost2010PropOp29
 70
     1
102
RTVSPost2010Prop30
280
     1
102
RTVSPost2010PropOp30
 70
     1
102
RTVSPost2010Prop31
280
     0
102
RTVSPost2010PropOp31
 70
     1
102
RTVSPost2010Prop32
280
     0
102
RTVSPost2010PropOp32
 70
     1
102
RTVSPost2010Prop33
280
     0
102
RTVSPost2010PropOp33
 70
     1
102
RTVSPost2010Prop34
280
     0
102
RTVSPost2010PropOp34
 70
     1
102
RTVSPost2010Prop35
280
     0
102
RTVSPost2010PropOp35
 70
     1
102
RTVSPost2010Prop36
280
     0
102
RTVSPost2010PropOp36
 70
     1
102
RTVSPost2010Prop37
 90
       50
102
RTVSPost2010PropOp37
 70
     1
102
RTVSPost2010Prop38
140
0.0
102
RTVSPost2010PropOp38
 70
     1
102
RTVSPost2010Prop39
140
1.0
102
RTVSPost2010PropOp39
 70
     1
102
RTVSPost2010Prop40
 90
        0
102
RTVSPost2010PropOp40
 70
     1
102
RTVSPost2010Prop41ColorIndex
 90
       18
102
RTVSPost2010Prop41ColorRGB
 90
        0
102
RTVSPost2010PropOp41
 70
     1
102
RTVSPost2010Prop42
 90
       50
102
RTVSPost2010PropOp42
 70
     1
102
RTVSPost2010Prop43
 90
        3
102
RTVSPost2010PropOp43
 70
     1
102
RTVSPost2010Prop44ColorIndex
 90
        5
102
RTVSPost2010Prop44ColorRGB
 90
      255
102
RTVSPost2010PropOp44
 70
     1
102
RTVSPost2010Prop45
280
     0
102
RTVSPost2010PropOp45
 70
     1
102
RTVSPost2010Prop46
 90
       50
102
RTVSPost2010PropOp46
 70
     1
102
RTVSPost2010Prop47
 90
       50
102
RTVSPost2010PropOp47
 70
     1
102
RTVSPost2010Prop48
 90
       50
102
RTVSPost2010PropOp48
 70
     1
102
RTVSPost2010Prop49
280
     0
102
RTVSPost2010PropOp49
 70
     1
102
RTVSPost2010Prop50
 90
       50
102
RTVSPost2010PropOp50
 70
     1
102
RTVSPost2010Prop51ColorIndex
 90
      256
102
RTVSPost2010Prop51ColorRGB
 90
-16777216
102
RTVSPost2010PropOp51
 70
     0
102
RTVSPost2010Prop52
140
1.0
102
RTVSPost2010PropOp52
 70
     0
102
RTVSPost2010Prop53
 90
        2
102
RTVSPost2010PropOp53
 70
     1
102
RTVSPost2010Prop54
  1
strokes_ogs.tif
102
RTVSPost2010PropOp54
 70
     1
102
RTVSPost2010Prop55
280
     0
102
RTVSPost2010PropOp55
 70
     1
102
RTVSPost2010Prop56
140
1.0
102
RTVSPost2010PropOp56
 70
     1
102
RTVSPost2010Prop57
140
1.0
102
RTVSPost2010PropOp57
 70
     1
  0
XRECORD
  5
695
102
{ACAD_REACTORS
330
694
102
}
330
694
100
AcDbXrecord
280
     1
102
RTVSPropertyOp0
 70
     1
102
RTVSPropertyOp1
 70
     1
102
RTVSPropertyOp2
 70
     1
102
RTVSPropertyOp3
 70
     1
102
RTVSPropertyOp4
 70
     1
102
RTVSPropertyOp5
 70
     1
102
RTVSPropertyOp6
 70
     1
102
RTVSPropertyOp7
 70
     1
102
RTVSPropertyOp8
 70
     1
102
RTVSPropertyOp9
 70
     1
102
RTVSPropertyOp10
 70
     1
102
RTVSPropertyOp11
 70
     1
102
RTVSPropertyOp12
 70
     1
102
RTVSPropertyOp13
 70
     1
102
RTVSPropertyOp14
 70
     1
102
RTVSPropertyOp15
 70
     1
102
RTVSPropertyOp16
 70
     1
102
RTVSPropertyOp17
 70
     1
102
RTVSPropertyOp18
 70
     1
102
RTVSPropertyOp19
 70
     1
102
RTVSPropertyOp20
 70
     1
102
RTVSPropertyOp21
 70
     1
102
RTVSPropertyOp22
 70
     1
102
RTVSPropertyOp23
 70
     1
102
RTVSPropertyOp24
 70
     1
102
RTVSPropertyOp25
 70
     1
102
RTVSPropertyOp26
 70
     1
102
RTVSPropertyOp27
 70
     1
102
RTVSPropertyOp28
 70
     1
102
RTVSPropertyOp29
 70
     1
102
RTVSPropertyOp30
 70
     1
102
RTVSPropertyOp31
 70
     1
102
RTVSPropertyOp32
 70
     1
102
RTVSPropertyOp33
 70
     1
102
RTVSPropertyOp34
 70
     1
102
RTVSPropertyOp35
 70
     1
102
RTVSPropertyOp36
 70
     1
102
RTVSPropertyOp37
 70
     1
102
RTVSPropertyOp38
 70
     1
102
RTVSPropertyOp39
 70
     1
102
RTVSPropertyOp40
 70
     1
102
RTVSPropertyOp41
 70
     1
102
RTVSPropertyOp42
 70
     1
102
RTVSPropertyOp43
 70
     1
102
RTVSPropertyOp44
 70
     1
102
RTVSPropertyOp45
 70
     1
102
RTVSPropertyOp46
 70
     1
102
RTVSPropertyOp47
 70
     1
102
RTVSPropertyOp48
 70
     1
102
RTVSPropertyOp49
 70
     1
102
RTVSPropertyOp50
 70
     1
102
RTVSPropertyOp51
 70
     0
102
RTVSPropertyOp52
 70
     0
102
RTVSPropertyOp53
 70
     1
102
RTVSPropertyOp54
 70
     1
102
RTVSPropertyOp55
 70
     1
102
RTVSPropertyOp56
 70
     1
102
RTVSPropertyOp57
 70
     1
102
RTVSPost2010Prop28
280
     0
102
RTVSPost2010PropOp28
 70
     1
102
RTVSPost2010Prop29
280
     1
102
RTVSPost2010PropOp29
 70
     1
102
RTVSPost2010Prop30
280
     1
102
RTVSPost2010PropOp30
 70
     1
102
RTVSPost2010Prop31
280
     0
102
RTVSPost2010PropOp31
 70
     1
102
RTVSPost2010Prop32
280
     0
102
RTVSPost2010PropOp32
 70
     1
102
RTVSPost2010Prop33
280
     0
102
RTVSPost2010PropOp33
 70
     1
102
RTVSPost2010Prop34
280
     0
102
RTVSPost2010PropOp34
 70
     1
102
RTVSPost2010Prop35
280
     0
102
RTVSPost2010PropOp35
 70
     1
102
RTVSPost2010Prop36
280
     0
102
RTVSPost2010PropOp36
 70
     1
102
RTVSPost2010Prop37
 90
       50
102
RTVSPost2010PropOp37
 70
     1
102
RTVSPost2010Prop38
140
0.0
102
RTVSPost2010PropOp38
 70
     1
102
RTVSPost2010Prop39
140
1.0
102
RTVSPost2010PropOp39
 70
     1
102
RTVSPost2010Prop40
 90
        0
102
RTVSPost2010PropOp40
 70
     1
102
RTVSPost2010Prop41ColorIndex
 90
       18
102
RTVSPost2010Prop41ColorRGB
 90
        0
102
RTVSPost2010PropOp41
 70
     1
102
RTVSPost2010Prop42
 90
       50
102
RTVSPost2010PropOp42
 70
     1
102
RTVSPost2010Prop43
 90
        3
102
RTVSPost2010PropOp43
 70
     1
102
RTVSPost2010Prop44ColorIndex
 90
        5
102
RTVSPost2010Prop44ColorRGB
 90
      255
102
RTVSPost2010PropOp44
 70
     1
102
RTVSPost2010Prop45
280
     0
102
RTVSPost2010PropOp45
 70
     1
102
RTVSPost2010Prop46
 90
       50
102
RTVSPost2010PropOp46
 70
     1
102
RTVSPost2010Prop47
 90
       50
102
RTVSPost2010PropOp47
 70
     1
102
RTVSPost2010Prop48
 90
       50
102
RTVSPost2010PropOp48
 70
     1
102
RTVSPost2010Prop49
280
     0
102
RTVSPost2010PropOp49
 70
     1
102
RTVSPost2010Prop50
 90
       50
102
RTVSPost2010PropOp50
 70
     1
102
RTVSPost2010Prop51ColorIndex
 90
      256
102
RTVSPost2010Prop51ColorRGB
 90
-16777216
102
RTVSPost2010PropOp51
 70
     0
102
RTVSPost2010Prop52
140
1.0
102
RTVSPost2010PropOp52
 70
     0
102
RTVSPost2010Prop53
 90
        2
102
RTVSPost2010PropOp53
 70
     1
102
RTVSPost2010Prop54
  1
strokes_ogs.tif
102
RTVSPost2010PropOp54
 70
     1
102
RTVSPost2010Prop55
280
     0
102
RTVSPost2010PropOp55
 70
     1
102
RTVSPost2010Prop56
140
1.0
102
RTVSPost2010PropOp56
 70
     1
102
RTVSPost2010Prop57
140
1.0
102
RTVSPost2010PropOp57
 70
     1
  0
XRECORD
  5
687
102
{ACAD_REACTORS
330
686
102
}
330
686
100
AcDbXrecord
280
     1
102
RTVSPropertyOp0
 70
     1
102
RTVSPropertyOp1
 70
     1
102
RTVSPropertyOp2
 70
     1
102
RTVSPropertyOp3
 70
     1
102
RTVSPropertyOp4
 70
     1
102
RTVSPropertyOp5
 70
     1
102
RTVSPropertyOp6
 70
     1
102
RTVSPropertyOp7
 70
     1
102
RTVSPropertyOp8
 70
     1
102
RTVSPropertyOp9
 70
     1
102
RTVSPropertyOp10
 70
     1
102
RTVSPropertyOp11
 70
     1
102
RTVSPropertyOp12
 70
     1
102
RTVSPropertyOp13
 70
     1
102
RTVSPropertyOp14
 70
     1
102
RTVSPropertyOp15
 70
     1
102
RTVSPropertyOp16
 70
     1
102
RTVSPropertyOp17
 70
     1
102
RTVSPropertyOp18
 70
     1
102
RTVSPropertyOp19
 70
     1
102
RTVSPropertyOp20
 70
     1
102
RTVSPropertyOp21
 70
     1
102
RTVSPropertyOp22
 70
     1
102
RTVSPropertyOp23
 70
     1
102
RTVSPropertyOp24
 70
     1
102
RTVSPropertyOp25
 70
     1
102
RTVSPropertyOp26
 70
     1
102
RTVSPropertyOp27
 70
     1
102
RTVSPropertyOp28
 70
     1
102
RTVSPropertyOp29
 70
     1
102
RTVSPropertyOp30
 70
     1
102
RTVSPropertyOp31
 70
     1
102
RTVSPropertyOp32
 70
     1
102
RTVSPropertyOp33
 70
     1
102
RTVSPropertyOp34
 70
     1
102
RTVSPropertyOp35
 70
     1
102
RTVSPropertyOp36
 70
     1
102
RTVSPropertyOp37
 70
     1
102
RTVSPropertyOp38
 70
     1
102
RTVSPropertyOp39
 70
     1
102
RTVSPropertyOp40
 70
     1
102
RTVSPropertyOp41
 70
     1
102
RTVSPropertyOp42
 70
     1
102
RTVSPropertyOp43
 70
     1
102
RTVSPropertyOp44
 70
     1
102
RTVSPropertyOp45
 70
     1
102
RTVSPropertyOp46
 70
     1
102
RTVSPropertyOp47
 70
     1
102
RTVSPropertyOp48
 70
     1
102
RTVSPropertyOp49
 70
     1
102
RTVSPropertyOp50
 70
     1
102
RTVSPropertyOp51
 70
     0
102
RTVSPropertyOp52
 70
     0
102
RTVSPropertyOp53
 70
     1
102
RTVSPropertyOp54
 70
     1
102
RTVSPropertyOp55
 70
     1
102
RTVSPropertyOp56
 70
     1
102
RTVSPropertyOp57
 70
     1
102
RTVSPost2010Prop28
280
     0
102
RTVSPost2010PropOp28
 70
     1
102
RTVSPost2010Prop29
280
     1
102
RTVSPost2010PropOp29
 70
     1
102
RTVSPost2010Prop30
280
     1
102
RTVSPost2010PropOp30
 70
     1
102
RTVSPost2010Prop31
280
     0
102
RTVSPost2010PropOp31
 70
     1
102
RTVSPost2010Prop32
280
     0
102
RTVSPost2010PropOp32
 70
     1
102
RTVSPost2010Prop33
280
     0
102
RTVSPost2010PropOp33
 70
     1
102
RTVSPost2010Prop34
280
     0
102
RTVSPost2010PropOp34
 70
     1
102
RTVSPost2010Prop35
280
     0
102
RTVSPost2010PropOp35
 70
     1
102
RTVSPost2010Prop36
280
     0
102
RTVSPost2010PropOp36
 70
     1
102
RTVSPost2010Prop37
 90
       50
102
RTVSPost2010PropOp37
 70
     1
102
RTVSPost2010Prop38
140
0.0
102
RTVSPost2010PropOp38
 70
     1
102
RTVSPost2010Prop39
140
1.0
102
RTVSPost2010PropOp39
 70
     1
102
RTVSPost2010Prop40
 90
        0
102
RTVSPost2010PropOp40
 70
     1
102
RTVSPost2010Prop41ColorIndex
 90
       18
102
RTVSPost2010Prop41ColorRGB
 90
        0
102
RTVSPost2010PropOp41
 70
     1
102
RTVSPost2010Prop42
 90
       50
102
RTVSPost2010PropOp42
 70
     1
102
RTVSPost2010Prop43
 90
        3
102
RTVSPost2010PropOp43
 70
     1
102
RTVSPost2010Prop44ColorIndex
 90
        5
102
RTVSPost2010Prop44ColorRGB
 90
      255
102
RTVSPost2010PropOp44
 70
     1
102
RTVSPost2010Prop45
280
     0
102
RTVSPost2010PropOp45
 70
     1
102
RTVSPost2010Prop46
 90
       50
102
RTVSPost2010PropOp46
 70
     1
102
RTVSPost2010Prop47
 90
       50
102
RTVSPost2010PropOp47
 70
     1
102
RTVSPost2010Prop48
 90
       50
102
RTVSPost2010PropOp48
 70
     1
102
RTVSPost2010Prop49
280
     0
102
RTVSPost2010PropOp49
 70
     1
102
RTVSPost2010Prop50
 90
       50
102
RTVSPost2010PropOp50
 70
     1
102
RTVSPost2010Prop51ColorIndex
 90
      256
102
RTVSPost2010Prop51ColorRGB
 90
-16777216
102
RTVSPost2010PropOp51
 70
     0
102
RTVSPost2010Prop52
140
1.0
102
RTVSPost2010PropOp52
 70
     0
102
RTVSPost2010Prop53
 90
        2
102
RTVSPost2010PropOp53
 70
     1
102
RTVSPost2010Prop54
  1
strokes_ogs.tif
102
RTVSPost2010PropOp54
 70
     1
102
RTVSPost2010Prop55
280
     0
102
RTVSPost2010PropOp55
 70
     1
102
RTVSPost2010Prop56
140
1.0
102
RTVSPost2010PropOp56
 70
     1
102
RTVSPost2010Prop57
140
1.0
102
RTVSPost2010PropOp57
 70
     1
  0
XRECORD
  5
6A7
102
{ACAD_REACTORS
330
6A6
102
}
330
6A6
100
AcDbXrecord
280
     1
102
RTVSPropertyOp0
 70
     1
102
RTVSPropertyOp1
 70
     1
102
RTVSPropertyOp2
 70
     1
102
RTVSPropertyOp3
 70
     1
102
RTVSPropertyOp4
 70
     1
102
RTVSPropertyOp5
 70
     1
102
RTVSPropertyOp6
 70
     1
102
RTVSPropertyOp7
 70
     1
102
RTVSPropertyOp8
 70
     1
102
RTVSPropertyOp9
 70
     1
102
RTVSPropertyOp10
 70
     1
102
RTVSPropertyOp11
 70
     1
102
RTVSPropertyOp12
 70
     1
102
RTVSPropertyOp13
 70
     1
102
RTVSPropertyOp14
 70
     1
102
RTVSPropertyOp15
 70
     1
102
RTVSPropertyOp16
 70
     1
102
RTVSPropertyOp17
 70
     1
102
RTVSPropertyOp18
 70
     1
102
RTVSPropertyOp19
 70
     1
102
RTVSPropertyOp20
 70
     1
102
RTVSPropertyOp21
 70
     1
102
RTVSPropertyOp22
 70
     1
102
RTVSPropertyOp23
 70
     1
102
RTVSPropertyOp24
 70
     1
102
RTVSPropertyOp25
 70
     1
102
RTVSPropertyOp26
 70
     1
102
RTVSPropertyOp27
 70
     1
102
RTVSPropertyOp28
 70
     1
102
RTVSPropertyOp29
 70
     1
102
RTVSPropertyOp30
 70
     1
102
RTVSPropertyOp31
 70
     1
102
RTVSPropertyOp32
 70
     1
102
RTVSPropertyOp33
 70
     1
102
RTVSPropertyOp34
 70
     1
102
RTVSPropertyOp35
 70
     1
102
RTVSPropertyOp36
 70
     1
102
RTVSPropertyOp37
 70
     1
102
RTVSPropertyOp38
 70
     1
102
RTVSPropertyOp39
 70
     1
102
RTVSPropertyOp40
 70
     1
102
RTVSPropertyOp41
 70
     1
102
RTVSPropertyOp42
 70
     1
102
RTVSPropertyOp43
 70
     1
102
RTVSPropertyOp44
 70
     1
102
RTVSPropertyOp45
 70
     1
102
RTVSPropertyOp46
 70
     1
102
RTVSPropertyOp47
 70
     1
102
RTVSPropertyOp48
 70
     1
102
RTVSPropertyOp49
 70
     1
102
RTVSPropertyOp50
 70
     1
102
RTVSPropertyOp51
 70
     0
102
RTVSPropertyOp52
 70
     0
102
RTVSPropertyOp53
 70
     1
102
RTVSPropertyOp54
 70
     1
102
RTVSPropertyOp55
 70
     1
102
RTVSPropertyOp56
 70
     1
102
RTVSPropertyOp57
 70
     1
102
RTVSPost2010Prop28
280
     0
102
RTVSPost2010PropOp28
 70
     1
102
RTVSPost2010Prop29
280
     1
102
RTVSPost2010PropOp29
 70
     1
102
RTVSPost2010Prop30
280
     1
102
RTVSPost2010PropOp30
 70
     1
102
RTVSPost2010Prop31
280
     0
102
RTVSPost2010PropOp31
 70
     1
102
RTVSPost2010Prop32
280
     0
102
RTVSPost2010PropOp32
 70
     1
102
RTVSPost2010Prop33
280
     0
102
RTVSPost2010PropOp33
 70
     1
102
RTVSPost2010Prop34
280
     0
102
RTVSPost2010PropOp34
 70
     1
102
RTVSPost2010Prop35
280
     0
102
RTVSPost2010PropOp35
 70
     1
102
RTVSPost2010Prop36
280
     0
102
RTVSPost2010PropOp36
 70
     1
102
RTVSPost2010Prop37
 90
       50
102
RTVSPost2010PropOp37
 70
     1
102
RTVSPost2010Prop38
140
0.0
102
RTVSPost2010PropOp38
 70
     1
102
RTVSPost2010Prop39
140
1.0
102
RTVSPost2010PropOp39
 70
     1
102
RTVSPost2010Prop40
 90
        0
102
RTVSPost2010PropOp40
 70
     1
102
RTVSPost2010Prop41ColorIndex
 90
       18
102
RTVSPost2010Prop41ColorRGB
 90
        0
102
RTVSPost2010PropOp41
 70
     1
102
RTVSPost2010Prop42
 90
       50
102
RTVSPost2010PropOp42
 70
     1
102
RTVSPost2010Prop43
 90
        3
102
RTVSPost2010PropOp43
 70
     1
102
RTVSPost2010Prop44ColorIndex
 90
        5
102
RTVSPost2010Prop44ColorRGB
 90
      255
102
RTVSPost2010PropOp44
 70
     1
102
RTVSPost2010Prop45
280
     0
102
RTVSPost2010PropOp45
 70
     1
102
RTVSPost2010Prop46
 90
       50
102
RTVSPost2010PropOp46
 70
     1
102
RTVSPost2010Prop47
 90
       50
102
RTVSPost2010PropOp47
 70
     1
102
RTVSPost2010Prop48
 90
       50
102
RTVSPost2010PropOp48
 70
     1
102
RTVSPost2010Prop49
280
     0
102
RTVSPost2010PropOp49
 70
     1
102
RTVSPost2010Prop50
 90
       50
102
RTVSPost2010PropOp50
 70
     1
102
RTVSPost2010Prop51ColorIndex
 90
      256
102
RTVSPost2010Prop51ColorRGB
 90
-16777216
102
RTVSPost2010PropOp51
 70
     0
102
RTVSPost2010Prop52
140
1.0
102
RTVSPost2010PropOp52
 70
     0
102
RTVSPost2010Prop53
 90
        2
102
RTVSPost2010PropOp53
 70
     1
102
RTVSPost2010Prop54
  1
strokes_ogs.tif
102
RTVSPost2010PropOp54
 70
     1
102
RTVSPost2010Prop55
280
     0
102
RTVSPost2010PropOp55
 70
     1
102
RTVSPost2010Prop56
140
1.0
102
RTVSPost2010PropOp56
 70
     1
102
RTVSPost2010Prop57
140
1.0
102
RTVSPost2010PropOp57
 70
     1
  0
ENDSEC
  0
EOF
